999
DXF file: nc7fd-l-1.dxf
999
Pro/ENGINEER 2001040 by Parametric Technology Corporation
0
SECTION
2
HEADER
9
$ACADVER
1
AC1012
9
$EXTMAX
10
420.0000000000
20
297.0000000000
9
$EXTMIN
10
0.0000000000
20
0.0000000000
9
$LIMMIN
10
0.0000000000
20
0.0000000000
9
$LIMMAX
10
420.0000000000
20
297.0000000000
9
$VIEWCTR
10
210.0000000000
20
148.5000000000
9
$VIEWSIZE
40
297.0000000000
9
$CLAYER
8
0
9
$LTSCALE
40
23.1000000000
9
$CELTYPE
6
BYLAYER
9
$DIMSCALE
40
1
9
$DIMASZ
40
3.5000000000
9
$DIMEXO
40
2.6250000000
9
$DIMDLI
40
15.9600000000
9
$DIMEXE
40
7.5600000000
9
$DIMCEN
40
3.7800000000
9
$DIMTXT
40
4.7460937500
9
$DIMLFAC
40
1.0000000000
0
ENDSEC
0
SECTION
2
CLASSES
0
ENDSEC
0
SECTION
2
TABLES
0
TABLE
2
VPORT
5
1F4
100
AcDbSymbolTable
70
2
0
VPORT
5
1F5
100
AcDbSymbolTableRecord
100
AcDbViewportTableRecord
2
*ACTIVE
70
0
10
0.0
20
0.0
11
1.0
21
1.0
12
210.0000000000
22
148.5000000000
13
0.0
23
0.0
14
1.0
24
1.0
15
0.0
25
0.0
16
0.0
26
0.0
36
1.0
17
0.0
27
0.0
37
0.0
40
297.0000000000
41
1.4141414141
42
50.0
43
0.0
44
0.0
50
0.0
51
0.0
71
0
72
100
73
1
74
1
75
0
76
0
77
0
78
0
0
ENDTAB
0
TABLE
2
LTYPE
5
1F6
100
AcDbSymbolTable
70
6
0
LTYPE
5
1F7
100
AcDbSymbolTableRecord
100
AcDbLinetypeTableRecord
2
BYBLOCK
70
0
3

72
65
73
0
40
0.0
0
LTYPE
5
1F8
100
AcDbSymbolTableRecord
100
AcDbLinetypeTableRecord
2
BYLAYER
70
0
3

72
65
73
0
40
0.0
0
LTYPE
5
1F9
100
AcDbSymbolTableRecord
100
AcDbLinetypeTableRecord
2
CONTINUOUS
70
64
3
Solid line
72
65
73
0
40
0
0
LTYPE
5
1FA
100
AcDbSymbolTableRecord
100
AcDbLinetypeTableRecord
2
CENTER
70
64
3
____ _ ____ _ ____ _ ____ _ ____ _ ____ _ ____
72
65
73
4
40
0.6
49
0.375
74
0
49
-0.075
74
0
49
0.075
74
0
49
-0.075
74
0
0
LTYPE
5
1FB
100
AcDbSymbolTableRecord
100
AcDbLinetypeTableRecord
2
HIDDEN
70
64
3
- - - - - - - - - - - - - - - - - - - -
72
65
73
2
40
0.2
49
0.1
74
0
49
-0.1
74
0
0
LTYPE
5
1FC
100
AcDbSymbolTableRecord
100
AcDbLinetypeTableRecord
2
PHANTOM
70
64
3
_____ _ _ _____ _ _ _____ _ _ _____
72
65
73
6
40
0.8
49
0.45
74
0
49
-0.05
74
0
49
0.1
74
0
49
-0.05
74
0
49
0.1
74
0
49
-0.05
74
0
0
LTYPE
5
1FD
100
AcDbSymbolTableRecord
100
AcDbLinetypeTableRecord
2
DOT
70
64
3
. . . . . . . . . . . . . . . . . . . .
72
65
73
2
40
0.2
49
0.1
74
0
49
-0.1
74
0
0
LTYPE
5
1FE
100
AcDbSymbolTableRecord
100
AcDbLinetypeTableRecord
2
DASHED
70
64
3
- - - - - - - - - - - - - - - - - - - -
72
65
73
2
40
0.2
49
0.1
74
0
49
-0.1
74
0
0
ENDTAB
0
TABLE
2
LAYER
5
1FF
100
AcDbSymbolTable
70
36
0
LAYER
5
200
100
AcDbSymbolTableRecord
100
AcDbLayerTableRecord
2
0
70
0
62
7
6
CONTINUOUS
0
LAYER
5
201
100
AcDbSymbolTableRecord
100
AcDbLayerTableRecord
2
DEFAULT_1
70
0
62
7
6
CENTER
0
LAYER
5
202
100
AcDbSymbolTableRecord
100
AcDbLayerTableRecord
2
DEFAULT_2
70
0
62
8
6
HIDDEN
0
LAYER
5
203
100
AcDbSymbolTableRecord
100
AcDbLayerTableRecord
2
DEFAULT_3
70
0
62
7
6
PHANTOM
0
LAYER
5
204
100
AcDbSymbolTableRecord
100
AcDbLayerTableRecord
2
0
70
0
62
7
6
CONTINUOUS
0
LAYER
5
205
100
AcDbSymbolTableRecord
100
AcDbLayerTableRecord
2
025
70
0
62
7
6
CONTINUOUS
0
LAYER
5
206
100
AcDbSymbolTableRecord
100
AcDbLayerTableRecord
2
035
70
0
62
7
6
CONTINUOUS
0
LAYER
5
207
100
AcDbSymbolTableRecord
100
AcDbLayerTableRecord
2
05
70
0
62
7
6
CONTINUOUS
0
LAYER
5
208
100
AcDbSymbolTableRecord
100
AcDbLayerTableRecord
2
BEM1
70
0
62
7
6
CONTINUOUS
0
LAYER
5
209
100
AcDbSymbolTableRecord
100
AcDbLayerTableRecord
2
DEFPOINTS
70
0
62
7
6
CONTINUOUS
0
LAYER
5
20A
100
AcDbSymbolTableRecord
100
AcDbLayerTableRecord
2
HILI
70
0
62
7
6
CONTINUOUS
0
LAYER
5
20B
100
AcDbSymbolTableRecord
100
AcDbLayerTableRecord
2
MITTE
70
0
62
7
6
CONTINUOUS
0
LAYER
5
20C
100
AcDbSymbolTableRecord
100
AcDbLayerTableRecord
2
RAHMEN
70
0
62
7
6
CONTINUOUS
0
LAYER
5
20D
100
AcDbSymbolTableRecord
100
AcDbLayerTableRecord
2
SCHRAFFIERT
70
0
62
7
6
CONTINUOUS
0
LAYER
5
20E
100
AcDbSymbolTableRecord
100
AcDbLayerTableRecord
2
VERDECKT
70
0
62
7
6
CONTINUOUS
0
ENDTAB
0
TABLE
2
STYLE
5
20F
100
AcDbSymbolTable
70
1
0
STYLE
5
210
100
AcDbSymbolTableRecord
100
AcDbTextStyleTableRecord
2
STANDARD
70
0
40
0.0
41
0.80
50
0.0
71
0
42
0.2
3
txt
4

0
ENDTAB
0
TABLE
2
VIEW
5
211
100
AcDbSymbolTable
70
0
0
ENDTAB
0
TABLE
2
UCS
5
212
100
AcDbSymbolTable
70
0
0
ENDTAB
0
TABLE
2
APPID
5
213
100
AcDbSymbolTable
70
1
0
APPID
5
214
100
AcDbSymbolTableRecord
100
AcDbRegAppTableRecord
2
ACAD
70
0
0
ENDTAB
0
TABLE
2
DIMSTYLE
5
215
100
AcDbSymbolTable
0
DIMSTYLE
105
216
100
AcDbSymbolTableRecord
100
AcDbDimStyleTableRecord
2
STANDARD
70
0
3

4

5

6

7

40
1.0
41
0.18
42
0.0625
43
0.38
44
0.18
45
0.0
46
0.0
47
0.0
48
0.0
140
0.18
141
0.09
142
0.0
143
25.4
144
1.0
145
0.0
146
1.0
147
0.09
71
0
72
0
73
1
74
1
75
0
76
0
77
0
78
0
170
0
171
2
172
0
173
0
174
0
175
0
176
0
177
0
178
0
270
2
271
4
272
4
273
2
274
2
340
210
275
0
280
0
281
0
282
0
283
1
284
0
285
0
286
0
287
3
288
0
0
ENDTAB
0
TABLE
2
BLOCK_RECORD
5
217
100
AcDbSymbolTable
70
0
0
BLOCK_RECORD
5
218
100
AcDbSymbolTableRecord
100
AcDbBlockTableRecord
2
*MODEL_SPACE
0
BLOCK_RECORD
5
219
100
AcDbSymbolTableRecord
100
AcDbBlockTableRecord
2
*PAPER_SPACE
0
ENDTAB
0
ENDSEC
0
SECTION
2
BLOCKS
0
BLOCK
5
21A
100
AcDbEntity
8
0
100
AcDbBlockBegin
2
*MODEL_SPACE
70
0
10
0.0000000000
20
0.0000000000
3
*MODEL_SPACE
1

3
*MODEL_SPACE
1

0
ENDBLK
5
21B
100
AcDbEntity
8
0
100
AcDbBlockEnd
0
BLOCK
5
21C
100
AcDbEntity
8
0
100
AcDbBlockBegin
2
*PAPER_SPACE
70
0
10
0.0000000000
20
0.0000000000
3
*PAPER_SPACE
1

3
*PAPER_SPACE
1

0
ENDBLK
5
21D
100
AcDbEntity
8
0
100
AcDbBlockEnd
0
ENDSEC
0
SECTION
2
ENTITIES
0
LINE
5
21E
100
AcDbEntity
8
0
100
AcDbLine
62
7
6
CONTINUOUS
10
0.0000000000
20
0.0000000000
11
420.0000000000
21
0.0000000000
0
LINE
5
21F
100
AcDbEntity
8
0
100
AcDbLine
62
7
6
CONTINUOUS
10
420.0000000000
20
0.0000000000
11
420.0000000000
21
297.0000000000
0
LINE
5
220
100
AcDbEntity
8
0
100
AcDbLine
62
7
6
CONTINUOUS
10
0.0000000000
20
297.0000000000
11
420.0000000000
21
297.0000000000
0
LINE
5
221
100
AcDbEntity
8
0
100
AcDbLine
62
7
6
CONTINUOUS
10
0.0000000000
20
0.0000000000
11
0.0000000000
21
297.0000000000
0
LINE
5
222
100
AcDbEntity
8
MITTE
100
AcDbLine
62
4
6
CENTER
10
294.9967170000
20
157.9213720000
11
384.4515840000
21
157.9213720000
0
LINE
5
223
100
AcDbEntity
8
MITTE
100
AcDbLine
62
4
6
CENTER
10
178.5577390000
20
193.9213720000
11
199.5577390000
21
193.9213720000
0
LINE
5
224
100
AcDbEntity
8
MITTE
100
AcDbLine
62
4
6
CENTER
10
258.3828530000
20
157.9213720000
11
176.9828500000
21
157.9213720000
0
LINE
5
225
100
AcDbEntity
8
MITTE
100
AcDbLine
62
4
6
CENTER
10
209.1877390000
20
163.9513720000
11
203.4587150000
21
163.9513720000
0
LINE
5
226
100
AcDbEntity
8
MITTE
100
AcDbLine
62
4
6
CENTER
10
189.0577390000
20
183.4213720000
11
189.0577390000
21
204.4213720000
0
LINE
5
227
100
AcDbEntity
8
MITTE
100
AcDbLine
62
4
6
CENTER
10
206.2777390000
20
160.9896970000
11
206.2777390000
21
166.9130460000
0
LINE
5
228
100
AcDbEntity
8
MITTE
100
AcDbLine
62
4
6
CENTER
10
217.5577390000
20
210.6274360000
11
217.5577390000
21
109.8393240000
0
LINE
5
229
100
AcDbEntity
8
MITTE
100
AcDbLine
62
4
6
CENTER
10
235.5577390000
20
121.9213720000
11
256.5577390000
21
121.9213720000
0
LINE
5
22A
100
AcDbEntity
8
MITTE
100
AcDbLine
62
4
6
CENTER
10
246.0577390000
20
111.4213720000
11
246.0577390000
21
132.4213720000
0
LINE
5
22B
100
AcDbEntity
8
MITTE
100
AcDbLine
62
4
6
CENTER
10
91.9603800000
20
129.2598700000
11
91.9603800000
21
27.9324090000
0
LINE
5
22C
100
AcDbEntity
8
MITTE
100
AcDbLine
62
4
6
CENTER
10
51.1518460000
20
76.5740580000
11
132.7689140000
21
76.5740580000
0
LINE
5
22D
100
AcDbEntity
8
MITTE
100
AcDbLine
62
4
6
CENTER
10
88.2403800000
20
60.9314000000
11
88.2403800000
21
67.8567150000
0
LINE
5
22E
100
AcDbEntity
8
MITTE
100
AcDbLine
62
4
6
CENTER
10
84.5768740000
20
64.3940580000
11
91.9038870000
21
64.3940580000
0
LINE
5
22F
100
AcDbEntity
8
MITTE
100
AcDbLine
62
4
6
CENTER
10
126.9603800000
20
112.5740580000
11
113.9603800000
21
112.5740580000
0
LINE
5
230
100
AcDbEntity
8
MITTE
100
AcDbLine
62
4
6
CENTER
10
120.4603800000
20
106.0740580000
11
120.4603800000
21
119.0740580000
0
LINE
5
231
100
AcDbEntity
8
MITTE
100
AcDbLine
62
4
6
CENTER
10
54.3208480000
20
193.8873300000
11
129.5999130000
21
193.8873300000
0
LINE
5
232
100
AcDbEntity
8
MITTE
100
AcDbLine
62
4
6
CENTER
10
58.2103800000
20
157.8873300000
11
68.7103800000
21
157.8873300000
0
LINE
5
233
100
AcDbEntity
8
MITTE
100
AcDbLine
62
4
6
CENTER
10
91.9603800000
20
231.4463000000
11
91.9603800000
21
156.3283600000
0
LINE
5
234
100
AcDbEntity
8
MITTE
100
AcDbLine
62
4
6
CENTER
10
63.4603800000
20
152.6373300000
11
63.4603800000
21
163.1373300000
0
LINE
5
235
100
AcDbEntity
8
MITTE
100
AcDbLine
62
4
6
CENTER
10
115.2103800000
20
229.8873300000
11
125.7103800000
21
229.8873300000
0
LINE
5
236
100
AcDbEntity
8
MITTE
100
AcDbLine
62
4
6
CENTER
10
120.4603800000
20
224.6373300000
11
120.4603800000
21
235.1373300000
0
LINE
5
237
100
AcDbEntity
8
MITTE
100
AcDbLine
62
4
6
CENTER
10
198.0577390000
20
121.9213720000
11
180.0577390000
21
121.9213720000
0
LINE
5
238
100
AcDbEntity
8
MITTE
100
AcDbLine
62
4
6
CENTER
10
189.0577390000
20
130.9213720000
11
189.0577390000
21
112.9213720000
0
LINE
5
239
100
AcDbEntity
8
MITTE
100
AcDbLine
62
4
6
CENTER
10
205.3777390000
20
151.2396970000
11
205.3777390000
21
157.1630460000
0
LINE
5
23A
100
AcDbEntity
8
MITTE
100
AcDbLine
62
4
6
CENTER
10
208.2877390000
20
154.2013720000
11
202.5587150000
21
154.2013720000
0
LINE
5
23B
100
AcDbEntity
8
MITTE
100
AcDbLine
62
4
6
CENTER
10
211.5277390000
20
143.8296970000
11
211.5277390000
21
149.7530460000
0
LINE
5
23C
100
AcDbEntity
8
MITTE
100
AcDbLine
62
4
6
CENTER
10
214.4377390000
20
146.7913720000
11
208.7087150000
21
146.7913720000
0
LINE
5
23D
100
AcDbEntity
8
MITTE
100
AcDbLine
62
4
6
CENTER
10
221.2777390000
20
142.7796970000
11
221.2777390000
21
148.7030460000
0
LINE
5
23E
100
AcDbEntity
8
MITTE
100
AcDbLine
62
4
6
CENTER
10
224.1877390000
20
145.7413720000
11
218.4587150000
21
145.7413720000
0
LINE
5
23F
100
AcDbEntity
8
MITTE
100
AcDbLine
62
4
6
CENTER
10
228.8377390000
20
148.9296970000
11
228.8377390000
21
154.8530460000
0
LINE
5
240
100
AcDbEntity
8
MITTE
100
AcDbLine
62
4
6
CENTER
10
231.7477390000
20
151.8913720000
11
226.0187150000
21
151.8913720000
0
LINE
5
241
100
AcDbEntity
8
MITTE
100
AcDbLine
62
4
6
CENTER
10
232.6477390000
20
161.4913720000
11
226.9187150000
21
161.4913720000
0
LINE
5
242
100
AcDbEntity
8
MITTE
100
AcDbLine
62
4
6
CENTER
10
229.7377390000
20
158.5296970000
11
229.7377390000
21
164.4530460000
0
LINE
5
243
100
AcDbEntity
8
MITTE
100
AcDbLine
62
4
6
CENTER
10
80.6803800000
20
67.0814000000
11
80.6803800000
21
74.0067150000
0
LINE
5
244
100
AcDbEntity
8
MITTE
100
AcDbLine
62
4
6
CENTER
10
77.0168740000
20
70.5440580000
11
84.3438870000
21
70.5440580000
0
LINE
5
245
100
AcDbEntity
8
MITTE
100
AcDbLine
62
4
6
CENTER
10
76.1168740000
20
80.1440580000
11
83.4438870000
21
80.1440580000
0
LINE
5
246
100
AcDbEntity
8
MITTE
100
AcDbLine
62
4
6
CENTER
10
79.7803800000
20
76.6814000000
11
79.7803800000
21
83.6067150000
0
LINE
5
247
100
AcDbEntity
8
MITTE
100
AcDbLine
62
4
6
CENTER
10
94.3268740000
20
65.4440580000
11
101.6538870000
21
65.4440580000
0
LINE
5
248
100
AcDbEntity
8
MITTE
100
AcDbLine
62
4
6
CENTER
10
97.9903800000
20
61.9814000000
11
97.9903800000
21
68.9067150000
0
LINE
5
249
100
AcDbEntity
8
MITTE
100
AcDbLine
62
4
6
CENTER
10
100.4768740000
20
72.8540580000
11
107.8038870000
21
72.8540580000
0
LINE
5
24A
100
AcDbEntity
8
MITTE
100
AcDbLine
62
4
6
CENTER
10
104.1403800000
20
69.3914000000
11
104.1403800000
21
76.3167150000
0
LINE
5
24B
100
AcDbEntity
8
MITTE
100
AcDbLine
62
4
6
CENTER
10
99.5768740000
20
82.6040580000
11
106.9038870000
21
82.6040580000
0
LINE
5
24C
100
AcDbEntity
8
MITTE
100
AcDbLine
62
4
6
CENTER
10
103.2403800000
20
79.1414000000
11
103.2403800000
21
86.0667150000
0
LINE
5
24D
100
AcDbEntity
8
MITTE
100
AcDbLine
62
4
6
CENTER
10
63.4603800000
20
34.0740580000
11
63.4603800000
21
47.0740580000
0
LINE
5
24E
100
AcDbEntity
8
MITTE
100
AcDbLine
62
4
6
CENTER
10
69.9603800000
20
40.5740580000
11
56.9603800000
21
40.5740580000
0
LINE
5
24F
100
AcDbEntity
8
RAHMEN
100
AcDbLine
62
2
6
CONTINUOUS
10
10.0000000000
20
10.0000000000
11
410.0000000000
21
10.0000000000
0
LINE
5
250
100
AcDbEntity
8
RAHMEN
100
AcDbLine
62
2
6
CONTINUOUS
10
410.0000000000
20
10.0000000000
11
410.0000000000
21
287.0000000000
0
LINE
5
251
100
AcDbEntity
8
RAHMEN
100
AcDbLine
62
2
6
CONTINUOUS
10
410.0000000000
20
287.0000000000
11
10.0000000000
21
287.0000000000
0
LINE
5
252
100
AcDbEntity
8
RAHMEN
100
AcDbLine
62
2
6
CONTINUOUS
10
10.0000000000
20
287.0000000000
11
10.0000000000
21
10.0000000000
0
LINE
5
253
100
AcDbEntity
8
05
100
AcDbLine
62
2
6
CONTINUOUS
10
359.0000000000
20
10.0000000000
11
359.0000000000
21
56.0000000000
0
LINE
5
254
100
AcDbEntity
8
05
100
AcDbLine
62
2
6
CONTINUOUS
10
393.0000000000
20
19.0000000000
11
393.0000000000
21
56.0000000000
0
LINE
5
255
100
AcDbEntity
8
05
100
AcDbLine
62
2
6
CONTINUOUS
10
378.0000000000
20
36.0000000000
11
378.0000000000
21
56.0000000000
0
LINE
5
256
100
AcDbEntity
8
05
100
AcDbLine
62
2
6
CONTINUOUS
10
277.0000000000
20
51.0000000000
11
318.0000000000
21
51.0000000000
0
LINE
5
257
100
AcDbEntity
8
05
100
AcDbLine
62
2
6
CONTINUOUS
10
265.0000000000
20
10.0000000000
11
265.0000000000
21
56.0000000000
0
LINE
5
258
100
AcDbEntity
8
05
100
AcDbLine
62
2
6
CONTINUOUS
10
252.0000000000
20
10.0000000000
11
252.0000000000
21
56.0000000000
0
LINE
5
259
100
AcDbEntity
8
05
100
AcDbLine
62
2
6
CONTINUOUS
10
210.0000000000
20
16.0000000000
11
277.0000000000
21
16.0000000000
0
LINE
5
25A
100
AcDbEntity
8
05
100
AcDbLine
62
2
6
CONTINUOUS
10
277.0000000000
20
43.0000000000
11
318.0000000000
21
43.0000000000
0
LINE
5
25B
100
AcDbEntity
8
05
100
AcDbLine
62
2
6
CONTINUOUS
10
219.0000000000
20
10.0000000000
11
219.0000000000
21
56.0000000000
0
LINE
5
25C
100
AcDbEntity
8
05
100
AcDbLine
62
2
6
CONTINUOUS
10
277.0000000000
20
10.0000000000
11
277.0000000000
21
56.0000000000
0
LINE
5
25D
100
AcDbEntity
8
05
100
AcDbLine
62
2
6
CONTINUOUS
10
318.0000000000
20
36.0000000000
11
318.0000000000
21
56.0000000000
0
LINE
5
25E
100
AcDbEntity
8
05
100
AcDbLine
62
2
6
CONTINUOUS
10
341.0000000000
20
36.0000000000
11
341.0000000000
21
56.0000000000
0
LINE
5
25F
100
AcDbEntity
8
05
100
AcDbLine
62
2
6
CONTINUOUS
10
410.0000000000
20
10.0000000000
11
410.0000000000
21
56.0000000000
0
LINE
5
260
100
AcDbEntity
8
05
100
AcDbLine
62
2
6
CONTINUOUS
10
210.0000000000
20
56.0000000000
11
210.0000000000
21
10.0000000000
0
LINE
5
261
100
AcDbEntity
8
05
100
AcDbLine
62
2
6
CONTINUOUS
10
410.0000000000
20
19.0000000000
11
277.0000000000
21
19.0000000000
0
LINE
5
262
100
AcDbEntity
8
05
100
AcDbLine
62
2
6
CONTINUOUS
10
410.0000000000
20
28.0000000000
11
359.0000000000
21
28.0000000000
0
LINE
5
263
100
AcDbEntity
8
05
100
AcDbLine
62
2
6
CONTINUOUS
10
410.0000000000
20
36.0000000000
11
277.0000000000
21
36.0000000000
0
LINE
5
264
100
AcDbEntity
8
05
100
AcDbLine
62
2
6
CONTINUOUS
10
410.0000000000
20
41.0000000000
11
359.0000000000
21
41.0000000000
0
LINE
5
265
100
AcDbEntity
8
05
100
AcDbLine
62
2
6
CONTINUOUS
10
410.0000000000
20
46.0000000000
11
359.0000000000
21
46.0000000000
0
LINE
5
266
100
AcDbEntity
8
05
100
AcDbLine
62
2
6
CONTINUOUS
10
410.0000000000
20
51.0000000000
11
359.0000000000
21
51.0000000000
0
LINE
5
267
100
AcDbEntity
8
05
100
AcDbLine
62
2
6
CONTINUOUS
10
410.0000000000
20
56.0000000000
11
210.0000000000
21
56.0000000000
0
LINE
5
268
100
AcDbEntity
8
05
100
AcDbLine
62
2
6
CONTINUOUS
10
318.4452950000
20
184.3113430000
11
327.5385620000
21
190.0018310000
0
LINE
5
269
100
AcDbEntity
8
05
100
AcDbLine
62
2
6
CONTINUOUS
10
367.3452950000
20
184.3113430000
11
318.4452950000
21
184.3113430000
0
LINE
5
26A
100
AcDbEntity
8
05
100
AcDbLine
62
2
6
CONTINUOUS
10
318.4452950000
20
188.0713720000
11
327.5385620000
21
193.3213720000
0
LINE
5
26B
100
AcDbEntity
8
05
100
AcDbLine
62
2
6
CONTINUOUS
10
318.4452950000
20
124.7713720000
11
330.4452950000
21
124.7713720000
0
ARC
5
26C
100
AcDbEntity
8
05
100
AcDbCircle
62
2
6
CONTINUOUS
10
189.0577390000
20
193.9213720000
40
10.5000000000
100
AcDbArc
50
90.0000000000
51
180.0000000000
0
ARC
5
26D
100
AcDbEntity
8
05
100
AcDbCircle
62
2
6
CONTINUOUS
10
189.0577390000
20
121.9213720000
40
10.5000000000
100
AcDbArc
50
180.0000000000
51
270.0000000000
0
CIRCLE
5
26E
100
AcDbEntity
8
05
100
AcDbCircle
62
2
6
CONTINUOUS
10
189.0577390000
20
193.9213720000
40
5.2500000000
0
CIRCLE
5
26F
100
AcDbEntity
8
05
100
AcDbCircle
62
2
6
CONTINUOUS
10
189.0577390000
20
193.9213720000
40
9.0000000000
0
ARC
5
270
100
AcDbEntity
8
05
100
AcDbCircle
62
2
6
CONTINUOUS
10
217.5577390000
20
157.9213720000
40
35.4000000000
100
AcDbArc
50
108.9039750000
51
71.0960250000
0
LINE
5
271
100
AcDbEntity
8
05
100
AcDbLine
62
2
6
CONTINUOUS
10
178.5577390000
20
121.9213720000
11
178.5577390000
21
193.9213720000
0
ARC
5
272
100
AcDbEntity
8
05
100
AcDbCircle
62
2
6
CONTINUOUS
10
217.5577390000
20
157.9213720000
40
19.3500000000
100
AcDbArc
50
114.1702150000
51
65.8297850000
0
LINE
5
273
100
AcDbEntity
8
05
100
AcDbLine
62
2
6
CONTINUOUS
10
246.0577390000
20
111.4213720000
11
189.0577390000
21
111.4213720000
0
LINE
5
274
100
AcDbEntity
8
05
100
AcDbLine
62
2
6
CONTINUOUS
10
246.0577390000
20
204.4213720000
11
231.9401220000
21
204.4213720000
0
LINE
5
275
100
AcDbEntity
8
05
100
AcDbLine
62
2
6
CONTINUOUS
10
232.0600460000
20
176.6663200000
11
233.5737070000
21
178.1799810000
0
ARC
5
276
100
AcDbEntity
8
05
100
AcDbCircle
62
2
6
CONTINUOUS
10
217.5577390000
20
157.9213720000
40
27.0750000000
100
AcDbArc
50
37.6711310000
51
73.9182680000
0
ARC
5
277
100
AcDbEntity
8
05
100
AcDbCircle
62
2
6
CONTINUOUS
10
217.5577390000
20
157.9213720000
40
27.0750000000
100
AcDbArc
50
142.3288690000
51
37.6711310000
0
ARC
5
278
100
AcDbEntity
8
05
100
AcDbCircle
62
2
6
CONTINUOUS
10
217.5577390000
20
157.9213720000
40
29.2500000000
100
AcDbArc
50
104.8571660000
51
75.1428340000
0
ARC
5
279
100
AcDbEntity
8
05
100
AcDbCircle
62
2
6
CONTINUOUS
10
217.5577390000
20
157.9213720000
40
23.7000000000
100
AcDbArc
50
140.6926960000
51
129.3073040000
0
CIRCLE
5
27A
100
AcDbEntity
8
05
100
AcDbCircle
62
2
6
CONTINUOUS
10
229.7377390000
20
161.4913720000
40
2.4000000000
0
LINE
5
27B
100
AcDbEntity
8
05
100
AcDbLine
62
2
6
CONTINUOUS
10
207.0577390000
20
132.9652980000
11
207.0577390000
21
130.6209600000
0
LINE
5
27C
100
AcDbEntity
8
05
100
AcDbLine
62
2
6
CONTINUOUS
10
192.0223590000
20
148.9213720000
11
189.7267760000
21
148.9213720000
0
LINE
5
27D
100
AcDbEntity
8
05
100
AcDbLine
62
2
6
CONTINUOUS
10
192.6016650000
20
147.4213720000
11
190.2573270000
21
147.4213720000
0
CIRCLE
5
27E
100
AcDbEntity
8
05
100
AcDbCircle
62
2
6
CONTINUOUS
10
205.3777390000
20
154.2013720000
40
2.4000000000
0
LINE
5
27F
100
AcDbEntity
8
05
100
AcDbLine
62
2
6
CONTINUOUS
10
228.0577390000
20
132.9652980000
11
228.0577390000
21
130.6209600000
0
LINE
5
280
100
AcDbEntity
8
05
100
AcDbLine
62
2
6
CONTINUOUS
10
208.5577390000
20
132.3859920000
11
208.5577390000
21
130.0904090000
0
LINE
5
281
100
AcDbEntity
8
05
100
AcDbLine
62
2
6
CONTINUOUS
10
226.5577390000
20
132.3859920000
11
226.5577390000
21
130.0904090000
0
CIRCLE
5
282
100
AcDbEntity
8
05
100
AcDbCircle
62
2
6
CONTINUOUS
10
221.2777390000
20
145.7413720000
40
2.4000000000
0
CIRCLE
5
283
100
AcDbEntity
8
05
100
AcDbCircle
62
2
6
CONTINUOUS
10
211.5277390000
20
146.7913720000
40
2.4000000000
0
CIRCLE
5
284
100
AcDbEntity
8
05
100
AcDbCircle
62
2
6
CONTINUOUS
10
217.5577390000
20
157.9213720000
40
2.4000000000
0
CIRCLE
5
285
100
AcDbEntity
8
05
100
AcDbCircle
62
2
6
CONTINUOUS
10
228.8377390000
20
151.8913720000
40
2.4000000000
0
CIRCLE
5
286
100
AcDbEntity
8
05
100
AcDbCircle
62
2
6
CONTINUOUS
10
206.2777390000
20
163.9513720000
40
2.4000000000
0
ARC
5
287
100
AcDbEntity
8
05
100
AcDbCircle
62
2
6
CONTINUOUS
10
217.5577390000
20
157.9213720000
40
27.0750000000
100
AcDbArc
50
106.0817320000
51
142.3288690000
0
ARC
5
288
100
AcDbEntity
8
05
100
AcDbCircle
62
2
6
CONTINUOUS
10
217.5577390000
20
157.9213720000
40
35.4000000000
100
AcDbArc
50
104.9610180000
51
108.9039750000
0
LINE
5
289
100
AcDbEntity
8
05
100
AcDbLine
62
2
6
CONTINUOUS
10
198.8329650000
20
174.4676700000
11
196.1270220000
21
174.4676700000
0
LINE
5
28A
100
AcDbEntity
8
05
100
AcDbLine
62
2
6
CONTINUOUS
10
195.4971240000
20
173.6180250000
11
193.9391180000
21
175.1760310000
0
LINE
5
28B
100
AcDbEntity
8
05
100
AcDbLine
62
2
6
CONTINUOUS
10
192.0223590000
20
166.9213720000
11
189.7267760000
21
166.9213720000
0
LINE
5
28C
100
AcDbEntity
8
05
100
AcDbLine
62
2
6
CONTINUOUS
10
192.6016650000
20
168.4213720000
11
190.2573270000
21
168.4213720000
0
ARC
5
28D
100
AcDbEntity
8
05
100
AcDbCircle
62
2
6
CONTINUOUS
10
201.2235720000
20
174.2555380000
40
2.4000000000
100
AcDbArc
50
22.9756870000
51
247.0243130000
0
LINE
5
28E
100
AcDbEntity
8
05
100
AcDbLine
62
2
6
CONTINUOUS
10
201.8610850000
20
179.9819860000
11
200.3030790000
21
181.5399920000
0
LINE
5
28F
100
AcDbEntity
8
05
100
AcDbLine
62
2
6
CONTINUOUS
10
201.0114400000
20
176.6461450000
11
201.0114400000
21
179.3520890000
0
LINE
5
290
100
AcDbEntity
8
05
100
AcDbLine
62
2
6
CONTINUOUS
10
203.1753550000
20
204.4213720000
11
189.0577390000
21
204.4213720000
0
LINE
5
291
100
AcDbEntity
8
05
100
AcDbLine
62
2
6
CONTINUOUS
10
225.0577390000
20
166.9013490000
11
210.0495410000
21
166.9013490000
0
LINE
5
292
100
AcDbEntity
8
05
100
AcDbLine
62
2
6
CONTINUOUS
10
210.0577390000
20
175.3013170000
11
210.0577390000
21
166.9013490000
0
ARC
5
293
100
AcDbEntity
8
05
100
AcDbCircle
62
2
6
CONTINUOUS
10
209.7577390000
20
175.3013170000
40
0.3000000000
100
AcDbArc
50
0.0000000000
51
114.1702150000
0
LINE
5
294
100
AcDbEntity
8
05
100
AcDbLine
62
2
6
CONTINUOUS
10
225.0577390000
20
175.3013170000
11
225.0577390000
21
166.9013490000
0
ARC
5
295
100
AcDbEntity
8
05
100
AcDbCircle
62
2
6
CONTINUOUS
10
225.3577390000
20
175.3013170000
40
0.3000000000
100
AcDbArc
50
65.8297850000
51
180.0000000000
0
ARC
5
296
100
AcDbEntity
8
05
100
AcDbCircle
62
2
6
CONTINUOUS
10
217.5577390000
20
157.9213720000
40
35.4000000000
100
AcDbArc
50
71.0960250000
51
75.0389820000
0
LINE
5
297
100
AcDbEntity
8
05
100
AcDbLine
62
2
6
CONTINUOUS
10
256.5577390000
20
193.9213720000
11
256.5577390000
21
121.9213720000
0
ARC
5
298
100
AcDbEntity
8
05
100
AcDbCircle
62
2
6
CONTINUOUS
10
246.0577390000
20
121.9213720000
40
10.5000000000
100
AcDbArc
50
270.0000000000
51
360.0000000000
0
CIRCLE
5
299
100
AcDbEntity
8
05
100
AcDbCircle
62
2
6
CONTINUOUS
10
246.0577390000
20
121.9213720000
40
5.2500000000
0
CIRCLE
5
29A
100
AcDbEntity
8
05
100
AcDbCircle
62
2
6
CONTINUOUS
10
246.0577390000
20
121.9213720000
40
9.0000000000
0
LINE
5
29B
100
AcDbEntity
8
05
100
AcDbLine
62
2
6
CONTINUOUS
10
242.5138130000
20
147.4213720000
11
244.8581510000
21
147.4213720000
0
LINE
5
29C
100
AcDbEntity
8
05
100
AcDbLine
62
2
6
CONTINUOUS
10
243.0931190000
20
148.9213720000
11
245.3887020000
21
148.9213720000
0
ARC
5
29D
100
AcDbEntity
8
05
100
AcDbCircle
62
2
6
CONTINUOUS
10
246.0577390000
20
193.9213720000
40
10.5000000000
100
AcDbArc
50
0.0000000000
51
90.0000000000
0
LINE
5
29E
100
AcDbEntity
8
05
100
AcDbLine
62
2
6
CONTINUOUS
10
242.5138130000
20
168.4213720000
11
244.8581510000
21
168.4213720000
0
LINE
5
29F
100
AcDbEntity
8
05
100
AcDbLine
62
2
6
CONTINUOUS
10
243.0931190000
20
166.9213720000
11
245.3887020000
21
166.9213720000
0
LINE
5
2A0
100
AcDbEntity
8
05
100
AcDbLine
62
2
6
CONTINUOUS
10
237.8163480000
20
174.9980000000
11
234.6343670000
21
178.1799810000
0
LINE
5
2A1
100
AcDbEntity
8
05
100
AcDbLine
62
2
6
CONTINUOUS
10
238.0360180000
20
174.4676700000
11
238.9884560000
21
174.4676700000
0
ARC
5
2A2
100
AcDbEntity
8
05
100
AcDbCircle
62
2
6
CONTINUOUS
10
237.2860180000
20
174.4676700000
40
0.7500000000
100
AcDbArc
50
315.0000000000
51
45.0000000000
0
LINE
5
2A3
100
AcDbEntity
8
05
100
AcDbLine
62
2
6
CONTINUOUS
10
236.3026870000
20
172.4236790000
11
237.8163480000
21
173.9373400000
0
ARC
5
2A4
100
AcDbEntity
8
05
100
AcDbCircle
62
2
6
CONTINUOUS
10
234.1040370000
20
177.6496510000
40
0.7500000000
100
AcDbArc
50
45.0000000000
51
135.0000000000
0
LINE
5
2A5
100
AcDbEntity
8
05
100
AcDbLine
62
2
6
CONTINUOUS
10
234.1040370000
20
178.3996510000
11
234.1040370000
21
179.3520890000
0
LINE
5
2A6
100
AcDbEntity
8
05
100
AcDbLine
62
2
6
CONTINUOUS
10
309.4452950000
20
175.3213720000
11
309.4452950000
21
136.9213720000
0
LINE
5
2A7
100
AcDbEntity
8
05
100
AcDbLine
62
2
6
CONTINUOUS
10
318.4452950000
20
188.0713720000
11
318.4452950000
21
124.7713720000
0
LINE
5
2A8
100
AcDbEntity
8
05
100
AcDbLine
62
2
6
CONTINUOUS
10
301.9452950000
20
150.9583930000
11
301.9452950000
21
149.4899850000
0
LINE
5
2A9
100
AcDbEntity
8
05
100
AcDbLine
62
2
6
CONTINUOUS
10
301.9452950000
20
160.6808650000
11
301.9452950000
21
157.3513720000
0
LINE
5
2AA
100
AcDbEntity
8
05
100
AcDbLine
62
2
6
CONTINUOUS
10
318.4452950000
20
136.9213720000
11
309.4452950000
21
136.9213720000
0
LINE
5
2AB
100
AcDbEntity
8
05
100
AcDbLine
62
2
6
CONTINUOUS
10
309.4452950000
20
142.2913720000
11
303.1894070000
21
142.2913720000
0
LINE
5
2AC
100
AcDbEntity
8
05
100
AcDbLine
62
2
6
CONTINUOUS
10
318.4452950000
20
175.3213720000
11
309.4452950000
21
175.3213720000
0
ARC
5
2AD
100
AcDbEntity
8
05
100
AcDbCircle
62
2
6
CONTINUOUS
10
91.9603800000
20
76.5740580000
40
37.5000000000
100
AcDbArc
50
66.4218220000
51
113.5781780000
0
ARC
5
2AE
100
AcDbEntity
8
05
100
AcDbCircle
62
2
6
CONTINUOUS
10
91.9603800000
20
76.5740580000
40
27.0644100000
100
AcDbArc
50
142.3115580000
51
37.6884420000
0
ARC
5
2AF
100
AcDbEntity
8
05
100
AcDbCircle
62
2
6
CONTINUOUS
10
91.9603800000
20
76.5740580000
40
27.0644100000
100
AcDbArc
50
52.3115580000
51
73.9118050000
0
ARC
5
2B0
100
AcDbEntity
8
05
100
AcDbCircle
62
2
6
CONTINUOUS
10
91.9603800000
20
76.5740580000
40
22.5000000000
100
AcDbArc
50
34.1588580000
51
53.3469950000
0
CIRCLE
5
2B1
100
AcDbEntity
8
05
100
AcDbCircle
62
2
6
CONTINUOUS
10
91.9603800000
20
76.5740580000
40
31.5000000000
0
LINE
5
2B2
100
AcDbEntity
8
05
100
AcDbLine
62
2
6
CONTINUOUS
10
63.4603800000
20
30.0740580000
11
120.4603800000
21
30.0740580000
0
LINE
5
2B3
100
AcDbEntity
8
05
100
AcDbLine
62
2
6
CONTINUOUS
10
91.9603800000
20
123.0740580000
11
120.4603800000
21
123.0740580000
0
ARC
5
2B4
100
AcDbEntity
8
05
100
AcDbCircle
62
2
6
CONTINUOUS
10
91.9603800000
20
76.5740580000
40
19.3500000000
100
AcDbArc
50
112.8050540000
51
32.5783860000
0
LINE
5
2B5
100
AcDbEntity
8
05
100
AcDbLine
62
2
6
CONTINUOUS
10
381.4452950000
20
192.1213720000
11
373.3452950000
21
192.1213720000
0
LINE
5
2B6
100
AcDbEntity
8
05
100
AcDbLine
62
2
6
CONTINUOUS
10
381.4452950000
20
122.5213720000
11
373.3452950000
21
122.5213720000
0
LINE
5
2B7
100
AcDbEntity
8
05
100
AcDbLine
62
2
6
CONTINUOUS
10
367.3452950000
20
204.4213720000
11
367.3452950000
21
111.4213720000
0
ARC
5
2B8
100
AcDbEntity
8
05
100
AcDbCircle
62
2
6
CONTINUOUS
10
351.1967790000
20
157.9213720000
40
4.4759010000
100
AcDbArc
50
90.0000000000
51
270.0000000000
0
LINE
5
2B9
100
AcDbEntity
8
05
100
AcDbLine
62
2
6
CONTINUOUS
10
373.3452950000
20
203.2213720000
11
373.3452950000
21
112.6213720000
0
LINE
5
2BA
100
AcDbEntity
8
05
100
AcDbLine
62
2
6
CONTINUOUS
10
367.3452950000
20
125.0283510000
11
349.0452950000
21
125.0283510000
0
LINE
5
2BB
100
AcDbEntity
8
05
100
AcDbLine
62
2
6
CONTINUOUS
10
367.3452950000
20
122.5213720000
11
350.5452950000
21
122.5213720000
0
LINE
5
2BC
100
AcDbEntity
8
05
100
AcDbLine
62
2
6
CONTINUOUS
10
330.4452950000
20
125.0703000000
11
340.3452950000
21
124.7713720000
0
LINE
5
2BD
100
AcDbEntity
8
05
100
AcDbLine
62
2
6
CONTINUOUS
10
330.4452950000
20
125.0703000000
11
330.4452950000
21
124.7713720000
0
LINE
5
2BE
100
AcDbEntity
8
05
100
AcDbLine
62
2
6
CONTINUOUS
10
340.3452950000
20
124.7713720000
11
346.6481810000
21
124.7713720000
0
ARC
5
2BF
100
AcDbEntity
8
05
100
AcDbCircle
62
2
6
CONTINUOUS
10
349.0453072142
20
102.6715082661
40
22.3568427339
100
AcDbArc
50
90.0000313023
51
92.5424845117
0
ARC
5
2C0
100
AcDbEntity
8
05
100
AcDbCircle
62
2
6
CONTINUOUS
10
348.5548901787
20
113.7163577503
40
11.3011107818
100
AcDbArc
50
92.5425710340
51
96.1189124572
0
ARC
5
2C1
100
AcDbEntity
8
05
100
AcDbCircle
62
2
6
CONTINUOUS
10
347.8341498500
20
120.4395808882
40
4.5393657421
100
AcDbArc
50
96.1190330561
51
104.5104878932
0
LINE
5
2C2
100
AcDbEntity
8
05
100
AcDbLine
62
2
6
CONTINUOUS
10
346.6967790000
20
124.8341490000
11
346.6481810000
21
124.7713720000
0
ARC
5
2C3
100
AcDbEntity
8
05
100
AcDbCircle
62
2
6
CONTINUOUS
10
350.5452950000
20
127.0213720000
40
4.5000000000
100
AcDbArc
50
210.0000000000
51
270.0000000000
0
LINE
5
2C4
100
AcDbEntity
8
05
100
AcDbLine
62
2
6
CONTINUOUS
10
372.1452950000
20
111.4213720000
11
367.3452950000
21
111.4213720000
0
ARC
5
2C5
100
AcDbEntity
8
05
100
AcDbCircle
62
2
6
CONTINUOUS
10
372.1452950000
20
112.6213720000
40
1.2000000000
100
AcDbArc
50
270.0000000000
51
360.0000000000
0
LINE
5
2C6
100
AcDbEntity
8
05
100
AcDbLine
62
2
6
CONTINUOUS
10
367.3452950000
20
153.4454700000
11
351.1967790000
21
153.4454700000
0
LINE
5
2C7
100
AcDbEntity
8
05
100
AcDbLine
62
2
6
CONTINUOUS
10
367.3452950000
20
192.0833590000
11
349.0452950000
21
192.0833590000
0
LINE
5
2C8
100
AcDbEntity
8
05
100
AcDbLine
62
2
6
CONTINUOUS
10
367.3452950000
20
190.0018310000
11
327.5385620000
21
190.0018310000
0
LINE
5
2C9
100
AcDbEntity
8
05
100
AcDbLine
62
2
6
CONTINUOUS
10
349.0452950000
20
192.4210470000
11
331.3452950000
21
192.4210470000
0
LINE
5
2CA
100
AcDbEntity
8
05
100
AcDbLine
62
2
6
CONTINUOUS
10
331.3452950000
20
193.3213720000
11
327.5385620000
21
193.3213720000
0
LINE
5
2CB
100
AcDbEntity
8
05
100
AcDbLine
62
2
6
CONTINUOUS
10
331.3452950000
20
193.3213720000
11
331.3452950000
21
192.4210470000
0
LINE
5
2CC
100
AcDbEntity
8
05
100
AcDbLine
62
2
6
CONTINUOUS
10
327.5385620000
20
193.3213720000
11
327.5385620000
21
190.0018310000
0
LINE
5
2CD
100
AcDbEntity
8
05
100
AcDbLine
62
2
6
CONTINUOUS
10
349.0452950000
20
192.4210470000
11
349.0452950000
21
192.0833590000
0
LINE
5
2CE
100
AcDbEntity
8
05
100
AcDbLine
62
2
6
CONTINUOUS
10
367.3452950000
20
162.3972730000
11
351.1967790000
21
162.3972730000
0
LINE
5
2CF
100
AcDbEntity
8
05
100
AcDbLine
62
2
6
CONTINUOUS
10
367.3452950000
20
193.3213720000
11
367.3452950000
21
192.0833590000
0
LINE
5
2D0
100
AcDbEntity
8
05
100
AcDbLine
62
2
6
CONTINUOUS
10
372.1452950000
20
204.4213720000
11
367.3452950000
21
204.4213720000
0
ARC
5
2D1
100
AcDbEntity
8
05
100
AcDbCircle
62
2
6
CONTINUOUS
10
372.1452950000
20
203.2213720000
40
1.2000000000
100
AcDbArc
50
0.0000000000
51
90.0000000000
0
LINE
5
2D2
100
AcDbEntity
8
05
100
AcDbLine
62
2
6
CONTINUOUS
10
381.4452950000
20
192.1213720000
11
381.4452950000
21
122.5213720000
0
ARC
5
2D3
100
AcDbEntity
8
05
100
AcDbCircle
62
2
6
CONTINUOUS
10
61.8838160000
20
76.5740580000
40
4.5000000000
100
AcDbArc
50
104.4180570000
51
255.5819430000
0
ARC
5
2D4
100
AcDbEntity
8
05
100
AcDbCircle
62
2
6
CONTINUOUS
10
63.4603800000
20
112.5740580000
40
10.5000000000
100
AcDbArc
50
90.0000000000
51
180.0000000000
0
ARC
5
2D5
100
AcDbEntity
8
05
100
AcDbCircle
62
2
6
CONTINUOUS
10
63.4603800000
20
40.5740580000
40
10.5000000000
100
AcDbArc
50
180.0000000000
51
270.0000000000
0
LINE
5
2D6
100
AcDbEntity
8
05
100
AcDbLine
62
2
6
CONTINUOUS
10
52.9603800000
20
112.5740580000
11
52.9603800000
21
40.5740580000
0
ARC
5
2D7
100
AcDbEntity
8
05
100
AcDbCircle
62
2
6
CONTINUOUS
10
103.2403800000
20
82.6040580000
40
4.2794830000
100
AcDbArc
50
199.2047350000
51
275.2738960000
0
ARC
5
2D8
100
AcDbEntity
8
05
100
AcDbCircle
62
2
6
CONTINUOUS
10
79.7803800000
20
80.1440580000
40
4.2794830000
100
AcDbArc
50
275.3558250000
51
14.2345030000
0
ARC
5
2D9
100
AcDbEntity
8
05
100
AcDbCircle
62
2
6
CONTINUOUS
10
91.9603800000
20
76.5740580000
40
5.8799450000
100
AcDbArc
50
180.0000000000
51
360.0000000000
0
LINE
5
2DA
100
AcDbEntity
8
05
100
AcDbLine
62
2
6
CONTINUOUS
10
97.8403260000
20
76.5740580000
11
97.8403260000
21
82.5655690000
0
LINE
5
2DB
100
AcDbEntity
8
05
100
AcDbLine
62
2
6
CONTINUOUS
10
86.0804350000
20
76.5740580000
11
86.0804350000
21
82.5655690000
0
ARC
5
2DC
100
AcDbEntity
8
05
100
AcDbCircle
62
2
6
CONTINUOUS
10
80.6803800000
20
70.5440580000
40
4.2794830000
100
AcDbArc
50
320.8719190000
51
95.3558250000
0
CIRCLE
5
2DD
100
AcDbEntity
8
05
100
AcDbCircle
62
2
6
CONTINUOUS
10
63.4603800000
20
40.5740580000
40
5.2500000000
0
LINE
5
2DE
100
AcDbEntity
8
05
100
AcDbLine
62
2
6
CONTINUOUS
10
80.1798300000
20
75.8832590000
11
80.2809310000
21
74.8048570000
0
ARC
5
2DF
100
AcDbEntity
8
05
100
AcDbCircle
62
2
6
CONTINUOUS
10
91.9603800000
20
46.4974930000
40
4.5000000000
100
AcDbArc
50
194.4180570000
51
345.5819430000
0
LINE
5
2E0
100
AcDbEntity
8
05
100
AcDbLine
62
2
6
CONTINUOUS
10
92.4952610000
20
64.8522760000
11
93.7355000000
21
64.9858400000
0
ARC
5
2E1
100
AcDbEntity
8
05
100
AcDbCircle
62
2
6
CONTINUOUS
10
97.9903800000
20
65.4440580000
40
4.2794830000
100
AcDbArc
50
50.3087000000
51
186.1466260000
0
ARC
5
2E2
100
AcDbEntity
8
05
100
AcDbCircle
62
2
6
CONTINUOUS
10
91.9603800000
20
76.5740580000
40
22.5000000000
100
AcDbArc
50
260.4059320000
51
279.5940680000
0
ARC
5
2E3
100
AcDbEntity
8
05
100
AcDbCircle
62
2
6
CONTINUOUS
10
88.2403800000
20
64.3940580000
40
4.2794830000
100
AcDbArc
50
6.1466260000
51
140.8719190000
0
LINE
5
2E4
100
AcDbEntity
8
05
100
AcDbLine
62
2
6
CONTINUOUS
10
88.2103800000
20
57.5909080000
11
88.2103800000
21
54.3887590000
0
LINE
5
2E5
100
AcDbEntity
8
05
100
AcDbLine
62
2
6
CONTINUOUS
10
84.0001340000
20
67.8434640000
11
84.9206260000
21
67.0946510000
0
LINE
5
2E6
100
AcDbEntity
8
05
100
AcDbLine
62
2
6
CONTINUOUS
10
95.7103800000
20
57.5909080000
11
95.7103800000
21
54.3887590000
0
ARC
5
2E7
100
AcDbEntity
8
05
100
AcDbCircle
62
2
6
CONTINUOUS
10
104.1403800000
20
72.8540580000
40
4.2794830000
100
AcDbArc
50
95.2738960000
51
230.3087000000
0
LINE
5
2E8
100
AcDbEntity
8
05
100
AcDbLine
62
2
6
CONTINUOUS
10
103.7470240000
20
77.1154240000
11
103.6337370000
21
78.3426920000
0
LINE
5
2E9
100
AcDbEntity
8
05
100
AcDbLine
62
2
6
CONTINUOUS
10
100.7234760000
20
68.7371050000
11
101.4072850000
21
69.5610110000
0
ARC
5
2EA
100
AcDbEntity
8
05
100
AcDbCircle
62
2
6
CONTINUOUS
10
91.9603800000
20
76.5740580000
40
27.0644100000
100
AcDbArc
50
106.0881950000
51
127.6884420000
0
LINE
5
2EB
100
AcDbEntity
8
05
100
AcDbLine
62
2
6
CONTINUOUS
10
63.4603800000
20
123.0740580000
11
91.9603800000
21
123.0740580000
0
LINE
5
2EC
100
AcDbEntity
8
05
100
AcDbLine
62
2
6
CONTINUOUS
10
76.9603800000
20
110.9433760000
11
76.9603800000
21
104.2733360000
0
LINE
5
2ED
100
AcDbEntity
8
05
100
AcDbLine
62
2
6
CONTINUOUS
10
72.6469960000
20
90.1890190000
11
78.7422900000
21
95.7355030000
0
LINE
5
2EE
100
AcDbEntity
8
05
100
AcDbLine
62
2
6
CONTINUOUS
10
77.9864950000
20
96.5311830000
11
72.0269690000
21
90.8703950000
0
ARC
5
2EF
100
AcDbEntity
8
05
100
AcDbCircle
62
2
6
CONTINUOUS
10
91.9603800000
20
76.5740580000
40
24.9879400000
100
AcDbArc
50
131.4656860000
51
138.5343140000
0
LINE
5
2F0
100
AcDbEntity
8
05
100
AcDbLine
62
2
6
CONTINUOUS
10
72.0269690000
20
90.8703950000
11
72.6469960000
21
90.1890190000
0
LINE
5
2F1
100
AcDbEntity
8
05
100
AcDbLine
62
2
6
CONTINUOUS
10
73.2356070000
20
93.1203570000
11
70.5296640000
21
93.1203570000
0
LINE
5
2F2
100
AcDbEntity
8
05
100
AcDbLine
62
2
6
CONTINUOUS
10
75.4140820000
20
95.2988310000
11
75.4140820000
21
98.0047750000
0
LINE
5
2F3
100
AcDbEntity
8
05
100
AcDbLine
62
2
6
CONTINUOUS
10
78.7422900000
20
95.7355030000
11
77.9864950000
21
96.5311830000
0
LINE
5
2F4
100
AcDbEntity
8
05
100
AcDbLine
62
2
6
CONTINUOUS
10
83.9284720000
20
81.1963450000
11
99.1990540000
21
81.1963450000
0
LINE
5
2F5
100
AcDbEntity
8
05
100
AcDbLine
62
2
6
CONTINUOUS
10
99.4603800000
20
105.5524630000
11
91.9603800000
21
105.5524630000
0
LINE
5
2F6
100
AcDbEntity
8
05
100
AcDbLine
62
2
6
CONTINUOUS
10
85.9740290000
20
82.9067980000
11
97.9044290000
21
82.9067980000
0
LINE
5
2F7
100
AcDbEntity
8
05
100
AcDbLine
62
2
6
CONTINUOUS
10
85.9740290000
20
82.5655690000
11
97.9044290000
21
82.5655690000
0
LINE
5
2F8
100
AcDbEntity
8
05
100
AcDbLine
62
2
6
CONTINUOUS
10
85.0959400000
20
88.1944330000
11
85.0959400000
21
105.5524630000
0
LINE
5
2F9
100
AcDbEntity
8
05
100
AcDbLine
62
2
6
CONTINUOUS
10
84.4603800000
20
94.4114480000
11
84.4603800000
21
88.1944330000
0
LINE
5
2FA
100
AcDbEntity
8
05
100
AcDbLine
62
2
6
CONTINUOUS
10
86.2728630000
20
82.9067980000
11
86.2728630000
21
88.1944330000
0
LINE
5
2FB
100
AcDbEntity
8
05
100
AcDbLine
62
2
6
CONTINUOUS
10
85.9740290000
20
82.9067980000
11
85.9740290000
21
82.5655690000
0
LINE
5
2FC
100
AcDbEntity
8
05
100
AcDbLine
62
2
6
CONTINUOUS
10
86.2728630000
20
88.1944330000
11
84.4603800000
21
88.1944330000
0
LINE
5
2FD
100
AcDbEntity
8
05
100
AcDbLine
62
2
6
CONTINUOUS
10
84.4603800000
20
105.5524630000
11
91.9603800000
21
105.5524630000
0
LINE
5
2FE
100
AcDbEntity
8
05
100
AcDbLine
62
2
6
CONTINUOUS
10
84.4603800000
20
107.1681750000
11
84.4603800000
21
94.4114480000
0
ARC
5
2FF
100
AcDbEntity
8
05
100
AcDbCircle
62
2
6
CONTINUOUS
10
91.9603800000
20
76.5740580000
40
19.3500000000
100
AcDbArc
50
54.9274680000
51
67.1949460000
0
LINE
5
300
100
AcDbEntity
8
05
100
AcDbLine
62
2
6
CONTINUOUS
10
98.8248210000
20
88.1944330000
11
98.8248210000
21
105.5524630000
0
LINE
5
301
100
AcDbEntity
8
05
100
AcDbLine
62
2
6
CONTINUOUS
10
99.4603800000
20
94.4114480000
11
99.4603800000
21
88.1944330000
0
LINE
5
302
100
AcDbEntity
8
05
100
AcDbLine
62
2
6
CONTINUOUS
10
103.0791410000
20
92.4105870000
11
105.3921450000
21
94.6250330000
0
LINE
5
303
100
AcDbEntity
8
05
100
AcDbLine
62
2
6
CONTINUOUS
10
97.6478980000
20
88.1944330000
11
99.4603800000
21
88.1944330000
0
LINE
5
304
100
AcDbEntity
8
05
100
AcDbLine
62
2
6
CONTINUOUS
10
97.6478980000
20
82.9067980000
11
97.6478980000
21
88.1944330000
0
LINE
5
305
100
AcDbEntity
8
05
100
AcDbLine
62
2
6
CONTINUOUS
10
97.9044290000
20
82.9067980000
11
97.9044290000
21
82.5655690000
0
LINE
5
306
100
AcDbEntity
8
05
100
AcDbLine
62
2
6
CONTINUOUS
10
99.4603800000
20
107.1681750000
11
99.4603800000
21
94.4114480000
0
ARC
5
307
100
AcDbEntity
8
05
100
AcDbCircle
62
2
6
CONTINUOUS
10
122.0369450000
20
76.5740580000
40
4.5000000000
100
AcDbArc
50
284.4180570000
51
75.5819430000
0
LINE
5
308
100
AcDbEntity
8
05
100
AcDbLine
62
2
6
CONTINUOUS
10
130.9603800000
20
40.5740580000
11
130.9603800000
21
112.5740580000
0
ARC
5
309
100
AcDbEntity
8
05
100
AcDbCircle
62
2
6
CONTINUOUS
10
120.4603800000
20
40.5740580000
40
10.5000000000
100
AcDbArc
50
270.0000000000
51
360.0000000000
0
ARC
5
30A
100
AcDbEntity
8
05
100
AcDbCircle
62
2
6
CONTINUOUS
10
120.4603800000
20
112.5740580000
40
10.5000000000
100
AcDbArc
50
0.0000000000
51
90.0000000000
0
CIRCLE
5
30B
100
AcDbEntity
8
05
100
AcDbCircle
62
2
6
CONTINUOUS
10
120.4603800000
20
112.5740580000
40
5.2500000000
0
LINE
5
30C
100
AcDbEntity
8
05
100
AcDbLine
62
2
6
CONTINUOUS
10
106.9603800000
20
110.9433760000
11
106.9603800000
21
104.2733360000
0
ARC
5
30D
100
AcDbEntity
8
05
100
AcDbCircle
62
2
6
CONTINUOUS
10
91.9603800000
20
76.5740580000
40
24.9879400000
100
AcDbArc
50
41.4656860000
51
48.5343140000
0
LINE
5
30E
100
AcDbEntity
8
05
100
AcDbLine
62
2
6
CONTINUOUS
10
110.6851540000
20
93.1203570000
11
113.3910970000
21
93.1203570000
0
LINE
5
30F
100
AcDbEntity
8
05
100
AcDbLine
62
2
6
CONTINUOUS
10
108.2657660000
20
86.9931220000
11
110.5787700000
21
89.2075680000
0
LINE
5
310
100
AcDbEntity
8
05
100
AcDbLine
62
2
6
CONTINUOUS
10
108.5066790000
20
95.2988310000
11
108.5066790000
21
98.0047750000
0
CIRCLE
5
311
100
AcDbEntity
8
05
100
AcDbCircle
62
2
6
CONTINUOUS
10
91.9603800000
20
193.8873300000
40
35.4000000000
0
CIRCLE
5
312
100
AcDbEntity
8
05
100
AcDbCircle
62
2
6
CONTINUOUS
10
63.4603800000
20
157.8873300000
40
4.6500000000
0
CIRCLE
5
313
100
AcDbEntity
8
05
100
AcDbCircle
62
2
6
CONTINUOUS
10
120.4603800000
20
229.8873300000
40
4.6500000000
0
LINE
5
314
100
AcDbEntity
8
05
100
AcDbLine
62
2
6
CONTINUOUS
10
330.4452950000
20
171.4213720000
11
330.4452950000
21
144.4213720000
0
LINE
5
315
100
AcDbEntity
8
05
100
AcDbLine
62
2
6
CONTINUOUS
10
208.4188110000
20
192.1213720000
11
208.5577390000
21
192.1213720000
0
LINE
5
316
100
AcDbEntity
8
05
100
AcDbLine
62
2
6
CONTINUOUS
10
226.6966660000
20
192.1213720000
11
226.5577390000
21
192.1213720000
0
LINE
5
317
100
AcDbEntity
8
05
100
AcDbLine
62
2
6
CONTINUOUS
10
206.0887390000
20
189.1213720000
11
206.0887390000
21
191.4119980000
0
LINE
5
318
100
AcDbEntity
8
05
100
AcDbLine
62
2
6
CONTINUOUS
10
210.0577390000
20
189.1213720000
11
206.0887390000
21
189.1213720000
0
LINE
5
319
100
AcDbEntity
8
05
100
AcDbLine
62
2
6
CONTINUOUS
10
210.0577390000
20
180.4033640000
11
210.0577390000
21
189.1213720000
0
LINE
5
31A
100
AcDbEntity
8
05
100
AcDbLine
62
2
6
CONTINUOUS
10
225.0577390000
20
180.4033640000
11
225.0577390000
21
189.1213720000
0
LINE
5
31B
100
AcDbEntity
8
05
100
AcDbLine
62
2
6
CONTINUOUS
10
229.0267390000
20
189.1213720000
11
225.0577390000
21
189.1213720000
0
LINE
5
31C
100
AcDbEntity
8
05
100
AcDbLine
62
2
6
CONTINUOUS
10
229.0267390000
20
189.1213720000
11
229.0267390000
21
191.4119980000
0
LINE
5
31D
100
AcDbEntity
8
05
100
AcDbLine
62
2
6
CONTINUOUS
10
212.9077390000
20
184.0055910000
11
222.2077390000
21
184.0055910000
0
CIRCLE
5
31E
100
AcDbEntity
8
05
100
AcDbCircle
62
2
6
CONTINUOUS
10
189.0577390000
20
121.9213720000
40
7.5000000000
0
ARC
5
31F
100
AcDbEntity
8
05
100
AcDbCircle
62
2
6
CONTINUOUS
10
189.0577390000
20
121.9213720000
40
10.5000000000
100
AcDbArc
50
180.0000000000
51
270.0000000000
0
CIRCLE
5
320
100
AcDbEntity
8
05
100
AcDbCircle
62
2
6
CONTINUOUS
10
246.0577390000
20
193.9213720000
40
7.5000000000
0
ARC
5
321
100
AcDbEntity
8
05
100
AcDbCircle
62
2
6
CONTINUOUS
10
246.0577390000
20
193.9213720000
40
10.5000000000
100
AcDbArc
50
0.0000000000
51
90.0000000000
0
LINE
5
322
100
AcDbEntity
8
0
100
AcDbLine
62
7
6
CONTINUOUS
10
0.0000000000
20
0.0000000000
11
420.0000000000
21
0.0000000000
0
LINE
5
323
100
AcDbEntity
8
0
100
AcDbLine
62
7
6
CONTINUOUS
10
420.0000000000
20
0.0000000000
11
420.0000000000
21
297.0000000000
0
LINE
5
324
100
AcDbEntity
8
0
100
AcDbLine
62
7
6
CONTINUOUS
10
420.0000000000
20
297.0000000000
11
0.0000000000
21
297.0000000000
0
LINE
5
325
100
AcDbEntity
8
0
100
AcDbLine
62
7
6
CONTINUOUS
10
0.0000000000
20
297.0000000000
11
0.0000000000
21
0.0000000000
0
LINE
5
326
100
AcDbEntity
8
0
100
AcDbLine
62
7
6
CONTINUOUS
10
230.0000000000
20
0.0000000000
11
230.0000000000
21
2.0000000000
0
LINE
5
327
100
AcDbEntity
8
0
100
AcDbLine
62
7
6
CONTINUOUS
10
20.0000000000
20
0.0000000000
11
20.0000000000
21
2.0000000000
0
LINE
5
328
100
AcDbEntity
8
0
100
AcDbLine
62
7
6
CONTINUOUS
10
230.0000000000
20
295.0000000000
11
230.0000000000
21
297.0000000000
0
LINE
5
329
100
AcDbEntity
8
0
100
AcDbLine
62
7
6
CONTINUOUS
10
20.0000000000
20
295.0000000000
11
20.0000000000
21
297.0000000000
0
LINE
5
32A
100
AcDbEntity
8
05
100
AcDbLine
62
7
6
CONTINUOUS
10
302.5761270000
20
13.2089520000
11
302.8594800000
21
13.4923040000
0
LINE
5
32B
100
AcDbEntity
8
05
100
AcDbLine
62
7
6
CONTINUOUS
10
304.6202690000
20
15.2530940000
11
305.0602470000
21
15.6930720000
0
LINE
5
32C
100
AcDbEntity
8
05
100
AcDbLine
62
7
6
CONTINUOUS
10
303.5024150000
20
14.1352400000
11
303.7923930000
21
14.4252180000
0
LINE
5
32D
100
AcDbEntity
8
05
100
AcDbLine
62
7
6
CONTINUOUS
10
302.2579290000
20
13.2089520000
11
302.9501160000
21
13.9011390000
0
LINE
5
32E
100
AcDbEntity
8
05
100
AcDbLine
62
7
6
CONTINUOUS
10
304.3020710000
20
15.2530940000
11
304.7420490000
21
15.6930720000
0
LINE
5
32F
100
AcDbEntity
8
05
100
AcDbLine
62
7
6
CONTINUOUS
10
303.1842170000
20
14.1352400000
11
303.4741950000
21
14.4252180000
0
LINE
5
330
100
AcDbEntity
8
05
100
AcDbLine
62
7
6
CONTINUOUS
10
301.9397310000
20
13.2089520000
11
303.1559970000
21
14.4252180000
0
LINE
5
331
100
AcDbEntity
8
05
100
AcDbLine
62
7
6
CONTINUOUS
10
303.9838730000
20
15.2530940000
11
304.4238510000
21
15.6930720000
0
LINE
5
332
100
AcDbEntity
8
05
100
AcDbLine
62
7
6
CONTINUOUS
10
301.6215330000
20
13.2089520000
11
303.1313890000
21
14.7188080000
0
LINE
5
333
100
AcDbEntity
8
05
100
AcDbLine
62
7
6
CONTINUOUS
10
303.6656750000
20
15.2530940000
11
304.1056530000
21
15.6930720000
0
LINE
5
334
100
AcDbEntity
8
05
100
AcDbLine
62
7
6
CONTINUOUS
10
301.3033350000
20
13.2089520000
11
303.2220250000
21
15.1276420000
0
LINE
5
335
100
AcDbEntity
8
05
100
AcDbLine
62
7
6
CONTINUOUS
10
303.3474770000
20
15.2530940000
11
303.7874550000
21
15.6930720000
0
LINE
5
336
100
AcDbEntity
8
05
100
AcDbLine
62
7
6
CONTINUOUS
10
301.1183660000
20
13.3421810000
11
303.4692570000
21
15.6930720000
0
LINE
5
337
100
AcDbEntity
8
05
100
AcDbLine
62
7
6
CONTINUOUS
10
301.2090020000
20
13.7510150000
11
303.1510590000
21
15.6930720000
0
LINE
5
338
100
AcDbEntity
8
05
100
AcDbLine
62
7
6
CONTINUOUS
10
301.2996390000
20
14.1598500000
11
302.8328610000
21
15.6930720000
0
LINE
5
339
100
AcDbEntity
8
05
100
AcDbLine
62
7
6
CONTINUOUS
10
301.3902750000
20
14.5686840000
11
302.5146630000
21
15.6930720000
0
LINE
5
33A
100
AcDbEntity
8
05
100
AcDbLine
62
7
6
CONTINUOUS
10
301.4809110000
20
14.9775190000
11
302.1964650000
21
15.6930720000
0
LINE
5
33B
100
AcDbEntity
8
05
100
AcDbLine
62
7
6
CONTINUOUS
10
301.5715480000
20
15.3863530000
11
301.8782670000
21
15.6930720000
0
LINE
5
33C
100
AcDbEntity
8
05
100
AcDbLine
62
7
6
CONTINUOUS
10
300.9390390000
20
15.0720420000
11
300.9639990000
21
15.0970020000
0
LINE
5
33D
100
AcDbEntity
8
05
100
AcDbLine
62
7
6
CONTINUOUS
10
298.7577510000
20
13.2089520000
11
298.9600800000
21
13.4112820000
0
LINE
5
33E
100
AcDbEntity
8
05
100
AcDbLine
62
7
6
CONTINUOUS
10
300.6208410000
20
15.0720420000
11
301.0546360000
21
15.5058370000
0
LINE
5
33F
100
AcDbEntity
8
05
100
AcDbLine
62
7
6
CONTINUOUS
10
298.4395530000
20
13.2089520000
11
299.0507170000
21
13.8201160000
0
LINE
5
340
100
AcDbEntity
8
05
100
AcDbLine
62
7
6
CONTINUOUS
10
300.3026430000
20
15.0720420000
11
300.9236730000
21
15.6930720000
0
LINE
5
341
100
AcDbEntity
8
05
100
AcDbLine
62
7
6
CONTINUOUS
10
298.1213550000
20
13.2089520000
11
299.1413530000
21
14.2289510000
0
LINE
5
342
100
AcDbEntity
8
05
100
AcDbLine
62
7
6
CONTINUOUS
10
299.9844450000
20
15.0720420000
11
300.6054740000
21
15.6930720000
0
LINE
5
343
100
AcDbEntity
8
05
100
AcDbLine
62
7
6
CONTINUOUS
10
297.8031570000
20
13.2089520000
11
299.2319900000
21
14.6377850000
0
LINE
5
344
100
AcDbEntity
8
05
100
AcDbLine
62
7
6
CONTINUOUS
10
299.6662460000
20
15.0720420000
11
300.2872760000
21
15.6930720000
0
LINE
5
345
100
AcDbEntity
8
05
100
AcDbLine
62
7
6
CONTINUOUS
10
297.4849590000
20
13.2089520000
11
299.3226260000
21
15.0466200000
0
LINE
5
346
100
AcDbEntity
8
05
100
AcDbLine
62
7
6
CONTINUOUS
10
299.3480480000
20
15.0720420000
11
299.9690780000
21
15.6930720000
0
LINE
5
347
100
AcDbEntity
8
05
100
AcDbLine
62
7
6
CONTINUOUS
10
297.2189660000
20
13.2611580000
11
299.6508800000
21
15.6930720000
0
LINE
5
348
100
AcDbEntity
8
05
100
AcDbLine
62
7
6
CONTINUOUS
10
297.3096030000
20
13.6699920000
11
299.3326820000
21
15.6930720000
0
LINE
5
349
100
AcDbEntity
8
05
100
AcDbLine
62
7
6
CONTINUOUS
10
297.4002390000
20
14.0788270000
11
299.0144840000
21
15.6930720000
0
LINE
5
34A
100
AcDbEntity
8
05
100
AcDbLine
62
7
6
CONTINUOUS
10
297.4908760000
20
14.4876610000
11
298.6962860000
21
15.6930720000
0
LINE
5
34B
100
AcDbEntity
8
05
100
AcDbLine
62
7
6
CONTINUOUS
10
297.5815120000
20
14.8964960000
11
298.3780880000
21
15.6930720000
0
LINE
5
34C
100
AcDbEntity
8
05
100
AcDbLine
62
7
6
CONTINUOUS
10
297.4388600000
20
15.0720420000
11
298.0598900000
21
15.6930720000
0
LINE
5
34D
100
AcDbEntity
8
05
100
AcDbLine
62
7
6
CONTINUOUS
10
297.1206620000
20
15.0720420000
11
297.7416920000
21
15.6930720000
0
LINE
5
34E
100
AcDbEntity
8
05
100
AcDbLine
62
7
6
CONTINUOUS
10
296.8024640000
20
15.0720420000
11
297.4234940000
21
15.6930720000
0
LINE
5
34F
100
AcDbEntity
8
05
100
AcDbLine
62
7
6
CONTINUOUS
10
294.8883760000
20
13.4761520000
11
295.3685390000
21
13.9563150000
0
LINE
5
350
100
AcDbEntity
8
05
100
AcDbLine
62
7
6
CONTINUOUS
10
296.4842660000
20
15.0720420000
11
297.1052960000
21
15.6930720000
0
LINE
5
351
100
AcDbEntity
8
05
100
AcDbLine
62
7
6
CONTINUOUS
10
294.4054660000
20
13.3114400000
11
295.4591750000
21
14.3651490000
0
LINE
5
352
100
AcDbEntity
8
05
100
AcDbLine
62
7
6
CONTINUOUS
10
296.1660680000
20
15.0720420000
11
296.7870980000
21
15.6930720000
0
LINE
5
353
100
AcDbEntity
8
05
100
AcDbLine
62
7
6
CONTINUOUS
10
294.0027690000
20
13.2269410000
11
295.5498110000
21
14.7739840000
0
LINE
5
354
100
AcDbEntity
8
05
100
AcDbLine
62
7
6
CONTINUOUS
10
296.1305160000
20
15.3546880000
11
296.4689000000
21
15.6930720000
0
LINE
5
355
100
AcDbEntity
8
05
100
AcDbLine
62
7
6
CONTINUOUS
10
293.6368590000
20
13.1792300000
11
295.6404480000
21
15.1828180000
0
LINE
5
356
100
AcDbEntity
8
05
100
AcDbLine
62
7
6
CONTINUOUS
10
293.2894110000
20
13.1499790000
11
295.7310840000
21
15.5916520000
0
LINE
5
357
100
AcDbEntity
8
05
100
AcDbLine
62
7
6
CONTINUOUS
10
292.9558910000
20
13.1346570000
11
295.5143060000
21
15.6930720000
0
LINE
5
358
100
AcDbEntity
8
05
100
AcDbLine
62
7
6
CONTINUOUS
10
292.6346880000
20
13.1316520000
11
293.3351190000
21
13.8320840000
0
LINE
5
359
100
AcDbEntity
8
05
100
AcDbLine
62
7
6
CONTINUOUS
10
293.7236060000
20
14.2205700000
11
295.1961080000
21
15.6930720000
0
LINE
5
35A
100
AcDbEntity
8
05
100
AcDbLine
62
7
6
CONTINUOUS
10
292.3245180000
20
13.1396810000
11
292.9444690000
21
13.7596310000
0
LINE
5
35B
100
AcDbEntity
8
05
100
AcDbLine
62
7
6
CONTINUOUS
10
293.8142420000
20
14.6294040000
11
294.8779100000
21
15.6930720000
0
LINE
5
35C
100
AcDbEntity
8
05
100
AcDbLine
62
7
6
CONTINUOUS
10
292.0243430000
20
13.1577030000
11
292.6233120000
21
13.7566730000
0
LINE
5
35D
100
AcDbEntity
8
05
100
AcDbLine
62
7
6
CONTINUOUS
10
293.9048780000
20
15.0382390000
11
294.5597110000
21
15.6930720000
0
LINE
5
35E
100
AcDbEntity
8
05
100
AcDbLine
62
7
6
CONTINUOUS
10
291.7333060000
20
13.1848640000
11
292.3407990000
21
13.7923570000
0
LINE
5
35F
100
AcDbEntity
8
05
100
AcDbLine
62
7
6
CONTINUOUS
10
293.9955150000
20
15.4470730000
11
294.2415130000
21
15.6930720000
0
LINE
5
360
100
AcDbEntity
8
05
100
AcDbLine
62
7
6
CONTINUOUS
10
291.4520070000
20
13.2217640000
11
292.0972290000
21
13.8669850000
0
LINE
5
361
100
AcDbEntity
8
05
100
AcDbLine
62
7
6
CONTINUOUS
10
291.1841710000
20
13.2721250000
11
291.9024090000
21
13.9903630000
0
LINE
5
362
100
AcDbEntity
8
05
100
AcDbLine
62
7
6
CONTINUOUS
10
290.9287580000
20
13.3349100000
11
291.8448360000
21
14.2509890000
0
LINE
5
363
100
AcDbEntity
8
05
100
AcDbLine
62
7
6
CONTINUOUS
10
290.6873210000
20
13.4116710000
11
291.9354730000
21
14.6598230000
0
LINE
5
364
100
AcDbEntity
8
05
100
AcDbLine
62
7
6
CONTINUOUS
10
290.4667180000
20
13.5092670000
11
292.0261090000
21
15.0686580000
0
LINE
5
365
100
AcDbEntity
8
05
100
AcDbLine
62
7
6
CONTINUOUS
10
290.2651030000
20
13.6258500000
11
292.1167450000
21
15.4774920000
0
LINE
5
366
100
AcDbEntity
8
05
100
AcDbLine
62
7
6
CONTINUOUS
10
290.1018940000
20
13.7808390000
11
292.0141270000
21
15.6930720000
0
LINE
5
367
100
AcDbEntity
8
05
100
AcDbLine
62
7
6
CONTINUOUS
10
290.1092480000
20
14.1063910000
11
291.6959290000
21
15.6930720000
0
LINE
5
368
100
AcDbEntity
8
05
100
AcDbLine
62
7
6
CONTINUOUS
10
288.8936110000
20
13.2089520000
11
289.2024780000
21
13.5178190000
0
LINE
5
369
100
AcDbEntity
8
05
100
AcDbLine
62
7
6
CONTINUOUS
10
290.1998850000
20
14.5152260000
11
291.3777310000
21
15.6930720000
0
LINE
5
36A
100
AcDbEntity
8
05
100
AcDbLine
62
7
6
CONTINUOUS
10
288.5754130000
20
13.2089520000
11
289.0153920000
21
13.6489310000
0
LINE
5
36B
100
AcDbEntity
8
05
100
AcDbLine
62
7
6
CONTINUOUS
10
290.2905210000
20
14.9240600000
11
291.0595330000
21
15.6930720000
0
LINE
5
36C
100
AcDbEntity
8
05
100
AcDbLine
62
7
6
CONTINUOUS
10
288.2572150000
20
13.2089520000
11
288.6971940000
21
13.6489310000
0
LINE
5
36D
100
AcDbEntity
8
05
100
AcDbLine
62
7
6
CONTINUOUS
10
290.3811580000
20
15.3328950000
11
290.7413350000
21
15.6930720000
0
LINE
5
36E
100
AcDbEntity
8
05
100
AcDbLine
62
7
6
CONTINUOUS
10
287.9390170000
20
13.2089520000
11
288.3789960000
21
13.6489310000
0
LINE
5
36F
100
AcDbEntity
8
05
100
AcDbLine
62
7
6
CONTINUOUS
10
289.0360880000
20
14.3060230000
11
289.1751650000
21
14.4451000000
0
LINE
5
370
100
AcDbEntity
8
05
100
AcDbLine
62
7
6
CONTINUOUS
10
287.6208190000
20
13.2089520000
11
288.0607970000
21
13.6489310000
0
LINE
5
371
100
AcDbEntity
8
05
100
AcDbLine
62
7
6
CONTINUOUS
10
288.7178900000
20
14.3060230000
11
289.0078680000
21
14.5960010000
0
LINE
5
372
100
AcDbEntity
8
05
100
AcDbLine
62
7
6
CONTINUOUS
10
287.3026210000
20
13.2089520000
11
287.7425990000
21
13.6489310000
0
LINE
5
373
100
AcDbEntity
8
05
100
AcDbLine
62
7
6
CONTINUOUS
10
289.3467620000
20
15.2530940000
11
289.6556600000
21
15.5619910000
0
LINE
5
374
100
AcDbEntity
8
05
100
AcDbLine
62
7
6
CONTINUOUS
10
288.3996920000
20
14.3060230000
11
288.6896700000
21
14.5960010000
0
LINE
5
375
100
AcDbEntity
8
05
100
AcDbLine
62
7
6
CONTINUOUS
10
286.9844230000
20
13.2089520000
11
287.4244010000
21
13.6489310000
0
LINE
5
376
100
AcDbEntity
8
05
100
AcDbLine
62
7
6
CONTINUOUS
10
289.0285640000
20
15.2530940000
11
289.4685430000
21
15.6930720000
0
LINE
5
377
100
AcDbEntity
8
05
100
AcDbLine
62
7
6
CONTINUOUS
10
288.0814940000
20
14.3060230000
11
288.3714720000
21
14.5960010000
0
LINE
5
378
100
AcDbEntity
8
05
100
AcDbLine
62
7
6
CONTINUOUS
10
286.6662250000
20
13.2089520000
11
287.1062030000
21
13.6489310000
0
LINE
5
379
100
AcDbEntity
8
05
100
AcDbLine
62
7
6
CONTINUOUS
10
288.7103660000
20
15.2530940000
11
289.1503450000
21
15.6930720000
0
LINE
5
37A
100
AcDbEntity
8
05
100
AcDbLine
62
7
6
CONTINUOUS
10
287.7632960000
20
14.3060230000
11
288.0532740000
21
14.5960010000
0
LINE
5
37B
100
AcDbEntity
8
05
100
AcDbLine
62
7
6
CONTINUOUS
10
286.3480270000
20
13.2089520000
11
286.7880050000
21
13.6489310000
0
LINE
5
37C
100
AcDbEntity
8
05
100
AcDbLine
62
7
6
CONTINUOUS
10
288.3921680000
20
15.2530940000
11
288.8321470000
21
15.6930720000
0
LINE
5
37D
100
AcDbEntity
8
05
100
AcDbLine
62
7
6
CONTINUOUS
10
287.4450970000
20
14.3060230000
11
287.7350760000
21
14.5960010000
0
LINE
5
37E
100
AcDbEntity
8
05
100
AcDbLine
62
7
6
CONTINUOUS
10
286.0298290000
20
13.2089520000
11
286.4698070000
21
13.6489310000
0
LINE
5
37F
100
AcDbEntity
8
05
100
AcDbLine
62
7
6
CONTINUOUS
10
288.0739700000
20
15.2530940000
11
288.5139480000
21
15.6930720000
0
LINE
5
380
100
AcDbEntity
8
05
100
AcDbLine
62
7
6
CONTINUOUS
10
287.1268990000
20
14.3060230000
11
287.4168780000
21
14.5960010000
0
LINE
5
381
100
AcDbEntity
8
05
100
AcDbLine
62
7
6
CONTINUOUS
10
285.7116310000
20
13.2089520000
11
286.3186940000
21
13.8160160000
0
LINE
5
382
100
AcDbEntity
8
05
100
AcDbLine
62
7
6
CONTINUOUS
10
287.7557720000
20
15.2530940000
11
288.1957500000
21
15.6930720000
0
LINE
5
383
100
AcDbEntity
8
05
100
AcDbLine
62
7
6
CONTINUOUS
10
286.8087010000
20
14.3060230000
11
287.0986800000
21
14.5960010000
0
LINE
5
384
100
AcDbEntity
8
05
100
AcDbLine
62
7
6
CONTINUOUS
10
285.3934330000
20
13.2089520000
11
286.4093310000
21
14.2248500000
0
LINE
5
385
100
AcDbEntity
8
05
100
AcDbLine
62
7
6
CONTINUOUS
10
287.4375740000
20
15.2530940000
11
287.8775520000
21
15.6930720000
0
LINE
5
386
100
AcDbEntity
8
05
100
AcDbLine
62
7
6
CONTINUOUS
10
286.4905030000
20
14.3060230000
11
286.7804820000
21
14.5960010000
0
LINE
5
387
100
AcDbEntity
8
05
100
AcDbLine
62
7
6
CONTINUOUS
10
285.0752350000
20
13.2089520000
11
286.4999670000
21
14.6336850000
0
LINE
5
388
100
AcDbEntity
8
05
100
AcDbLine
62
7
6
CONTINUOUS
10
287.1193760000
20
15.2530940000
11
287.5593540000
21
15.6930720000
0
LINE
5
389
100
AcDbEntity
8
05
100
AcDbLine
62
7
6
CONTINUOUS
10
284.7570370000
20
13.2089520000
11
286.5906030000
21
15.0425190000
0
LINE
5
38A
100
AcDbEntity
8
05
100
AcDbLine
62
7
6
CONTINUOUS
10
286.8011780000
20
15.2530940000
11
287.2411560000
21
15.6930720000
0
LINE
5
38B
100
AcDbEntity
8
05
100
AcDbLine
62
7
6
CONTINUOUS
10
284.4869440000
20
13.2570570000
11
286.9229580000
21
15.6930720000
0
LINE
5
38C
100
AcDbEntity
8
05
100
AcDbLine
62
7
6
CONTINUOUS
10
284.5775800000
20
13.6658920000
11
286.6047600000
21
15.6930720000
0
LINE
5
38D
100
AcDbEntity
8
05
100
AcDbLine
62
7
6
CONTINUOUS
10
284.6682170000
20
14.0747260000
11
286.2865620000
21
15.6930720000
0
LINE
5
38E
100
AcDbEntity
8
05
100
AcDbLine
62
7
6
CONTINUOUS
10
283.4842440000
20
13.2089520000
11
283.6617050000
21
13.3864130000
0
LINE
5
38F
100
AcDbEntity
8
05
100
AcDbLine
62
7
6
CONTINUOUS
10
284.7588530000
20
14.4835610000
11
285.9683640000
21
15.6930720000
0
LINE
5
390
100
AcDbEntity
8
05
100
AcDbLine
62
7
6
CONTINUOUS
10
283.1660460000
20
13.2089520000
11
283.7523410000
21
13.7952470000
0
LINE
5
391
100
AcDbEntity
8
05
100
AcDbLine
62
7
6
CONTINUOUS
10
284.8494890000
20
14.8923950000
11
285.6501660000
21
15.6930720000
0
LINE
5
392
100
AcDbEntity
8
05
100
AcDbLine
62
7
6
CONTINUOUS
10
282.8478480000
20
13.2089520000
11
283.8429780000
21
14.2040820000
0
LINE
5
393
100
AcDbEntity
8
05
100
AcDbLine
62
7
6
CONTINUOUS
10
284.9401260000
20
15.3012300000
11
285.3319680000
21
15.6930720000
0
LINE
5
394
100
AcDbEntity
8
05
100
AcDbLine
62
7
6
CONTINUOUS
10
282.5296500000
20
13.2089520000
11
283.9336140000
21
14.6129160000
0
LINE
5
395
100
AcDbEntity
8
05
100
AcDbLine
62
7
6
CONTINUOUS
10
282.2114520000
20
13.2089520000
11
284.0242510000
21
15.0217510000
0
LINE
5
396
100
AcDbEntity
8
05
100
AcDbLine
62
7
6
CONTINUOUS
10
281.8932540000
20
13.2089520000
11
284.1148870000
21
15.4305850000
0
LINE
5
397
100
AcDbEntity
8
05
100
AcDbLine
62
7
6
CONTINUOUS
10
281.6255330000
20
13.2594290000
11
284.0591760000
21
15.6930720000
0
LINE
5
398
100
AcDbEntity
8
05
100
AcDbLine
62
7
6
CONTINUOUS
10
281.4580220000
20
13.4101170000
11
283.7409780000
21
15.6930720000
0
LINE
5
399
100
AcDbEntity
8
05
100
AcDbLine
62
7
6
CONTINUOUS
10
281.2905120000
20
13.5608040000
11
283.4227800000
21
15.6930720000
0
LINE
5
39A
100
AcDbEntity
8
05
100
AcDbLine
62
7
6
CONTINUOUS
10
281.1230020000
20
13.7114920000
11
282.1030810000
21
14.6915710000
0
LINE
5
39B
100
AcDbEntity
8
05
100
AcDbLine
62
7
6
CONTINUOUS
10
282.2831370000
20
14.8716270000
11
283.1045820000
21
15.6930720000
0
LINE
5
39C
100
AcDbEntity
8
05
100
AcDbLine
62
7
6
CONTINUOUS
10
280.9554910000
20
13.8621800000
11
281.9163070000
21
14.8229950000
0
LINE
5
39D
100
AcDbEntity
8
05
100
AcDbLine
62
7
6
CONTINUOUS
10
282.3737730000
20
15.2804620000
11
282.7863840000
21
15.6930720000
0
LINE
5
39E
100
AcDbEntity
8
05
100
AcDbLine
62
7
6
CONTINUOUS
10
280.7879810000
20
14.0128680000
11
281.7295320000
21
14.9544190000
0
LINE
5
39F
100
AcDbEntity
8
05
100
AcDbLine
62
7
6
CONTINUOUS
10
282.4644100000
20
15.6892960000
11
282.4681860000
21
15.6930720000
0
LINE
5
3A0
100
AcDbEntity
8
05
100
AcDbLine
62
7
6
CONTINUOUS
10
279.6658680000
20
13.2089520000
11
279.8620460000
21
13.4051310000
0
LINE
5
3A1
100
AcDbEntity
8
05
100
AcDbLine
62
7
6
CONTINUOUS
10
280.6204710000
20
14.1635550000
11
281.5427580000
21
15.0858420000
0
LINE
5
3A2
100
AcDbEntity
8
05
100
AcDbLine
62
7
6
CONTINUOUS
10
279.3476700000
20
13.2089520000
11
279.9526830000
21
13.8139650000
0
LINE
5
3A3
100
AcDbEntity
8
05
100
AcDbLine
62
7
6
CONTINUOUS
10
280.4529600000
20
14.3142430000
11
281.3559830000
21
15.2172660000
0
LINE
5
3A4
100
AcDbEntity
8
05
100
AcDbLine
62
7
6
CONTINUOUS
10
279.0294720000
20
13.2089520000
11
280.0433190000
21
14.2228000000
0
LINE
5
3A5
100
AcDbEntity
8
05
100
AcDbLine
62
7
6
CONTINUOUS
10
280.2854500000
20
14.4649310000
11
281.1692090000
21
15.3486900000
0
LINE
5
3A6
100
AcDbEntity
8
05
100
AcDbLine
62
7
6
CONTINUOUS
10
278.7112740000
20
13.2089520000
11
280.9824350000
21
15.4801130000
0
LINE
5
3A7
100
AcDbEntity
8
05
100
AcDbLine
62
7
6
CONTINUOUS
10
278.3930760000
20
13.2089520000
11
280.7956600000
21
15.6115370000
0
LINE
5
3A8
100
AcDbEntity
8
05
100
AcDbLine
62
7
6
CONTINUOUS
10
278.1209320000
20
13.2550070000
11
280.5589970000
21
15.6930720000
0
LINE
5
3A9
100
AcDbEntity
8
05
100
AcDbLine
62
7
6
CONTINUOUS
10
278.2115690000
20
13.6638420000
11
280.2407990000
21
15.6930720000
0
LINE
5
3AA
100
AcDbEntity
8
05
100
AcDbLine
62
7
6
CONTINUOUS
10
278.3022050000
20
14.0726760000
11
279.9226010000
21
15.6930720000
0
LINE
5
3AB
100
AcDbEntity
8
05
100
AcDbLine
62
7
6
CONTINUOUS
10
278.3928420000
20
14.4815110000
11
279.6044030000
21
15.6930720000
0
LINE
5
3AC
100
AcDbEntity
8
05
100
AcDbLine
62
7
6
CONTINUOUS
10
278.4834780000
20
14.8903450000
11
279.2862050000
21
15.6930720000
0
LINE
5
3AD
100
AcDbEntity
8
05
100
AcDbLine
62
7
6
CONTINUOUS
10
278.5741150000
20
15.2991800000
11
278.9680070000
21
15.6930720000
0
LINE
5
3AE
100
AcDbEntity
8
05
100
AcDbLine
62
7
6
CONTINUOUS
10
303.8206130000
20
14.1352400000
11
304.1105910000
21
14.4252180000
0
LINE
5
3AF
100
AcDbEntity
8
05
100
AcDbLine
62
7
6
CONTINUOUS
10
304.8666600000
20
15.1812870000
11
305.3784450000
21
15.6930720000
0
LINE
5
3B0
100
AcDbEntity
8
05
100
AcDbLine
62
7
6
CONTINUOUS
10
304.1388110000
20
14.1352400000
11
304.4292410000
21
14.4256700000
0
LINE
5
3B1
100
AcDbEntity
8
05
100
AcDbLine
62
7
6
CONTINUOUS
10
304.9467390000
20
14.9431670000
11
305.6966430000
21
15.6930720000
0
LINE
5
3B2
100
AcDbEntity
8
05
100
AcDbLine
62
7
6
CONTINUOUS
10
304.4562560000
20
14.1344860000
11
306.0146710000
21
15.6929020000
0
LINE
5
3B3
100
AcDbEntity
8
05
100
AcDbLine
62
7
6
CONTINUOUS
10
304.6305160000
20
13.9905480000
11
306.2989430000
21
15.6589760000
0
LINE
5
3B4
100
AcDbEntity
8
05
100
AcDbLine
62
7
6
CONTINUOUS
10
304.6130000000
20
13.6548350000
11
306.5351130000
21
15.5769480000
0
LINE
5
3B5
100
AcDbEntity
8
05
100
AcDbLine
62
7
6
CONTINUOUS
10
304.6052610000
20
13.3288970000
11
306.7250750000
21
15.4487110000
0
LINE
5
3B6
100
AcDbEntity
8
05
100
AcDbLine
62
7
6
CONTINUOUS
10
304.8035140000
20
13.2089520000
11
306.8509000000
21
15.2563380000
0
LINE
5
3B7
100
AcDbEntity
8
05
100
AcDbLine
62
7
6
CONTINUOUS
10
305.1217120000
20
13.2089520000
11
306.2212130000
21
14.3084530000
0
LINE
5
3B8
100
AcDbEntity
8
05
100
AcDbLine
62
7
6
CONTINUOUS
10
306.2660830000
20
14.3533230000
11
306.8342290000
21
14.9214690000
0
LINE
5
3B9
100
AcDbEntity
8
05
100
AcDbLine
62
7
6
CONTINUOUS
10
305.4399100000
20
13.2089520000
11
306.3457580000
21
14.1148000000
0
LINE
5
3BA
100
AcDbEntity
8
05
100
AcDbLine
62
7
6
CONTINUOUS
10
307.6292330000
20
15.3982750000
11
307.9240300000
21
15.6930720000
0
LINE
5
3BB
100
AcDbEntity
8
05
100
AcDbLine
62
7
6
CONTINUOUS
10
305.7581080000
20
13.2089520000
11
306.3299420000
21
13.7807860000
0
LINE
5
3BC
100
AcDbEntity
8
05
100
AcDbLine
62
7
6
CONTINUOUS
10
307.5385960000
20
14.9894400000
11
308.2422280000
21
15.6930720000
0
LINE
5
3BD
100
AcDbEntity
8
05
100
AcDbLine
62
7
6
CONTINUOUS
10
306.0763060000
20
13.2089520000
11
306.3071930000
21
13.4398390000
0
LINE
5
3BE
100
AcDbEntity
8
05
100
AcDbLine
62
7
6
CONTINUOUS
10
307.4479600000
20
14.5806060000
11
308.5604260000
21
15.6930720000
0
LINE
5
3BF
100
AcDbEntity
8
05
100
AcDbLine
62
7
6
CONTINUOUS
10
307.3573230000
20
14.1717720000
11
308.8786240000
21
15.6930720000
0
LINE
5
3C0
100
AcDbEntity
8
05
100
AcDbLine
62
7
6
CONTINUOUS
10
307.2666870000
20
13.7629370000
11
309.1968220000
21
15.6930720000
0
LINE
5
3C1
100
AcDbEntity
8
05
100
AcDbLine
62
7
6
CONTINUOUS
10
307.1760510000
20
13.3541030000
11
309.3703470000
21
15.5483990000
0
LINE
5
3C2
100
AcDbEntity
8
05
100
AcDbLine
62
7
6
CONTINUOUS
10
307.3490980000
20
13.2089520000
11
309.2797100000
21
15.1395640000
0
LINE
5
3C3
100
AcDbEntity
8
05
100
AcDbLine
62
7
6
CONTINUOUS
10
307.6672960000
20
13.2089520000
11
309.1890740000
21
14.7307300000
0
LINE
5
3C4
100
AcDbEntity
8
05
100
AcDbLine
62
7
6
CONTINUOUS
10
307.9854940000
20
13.2089520000
11
309.0984370000
21
14.3218950000
0
LINE
5
3C5
100
AcDbEntity
8
05
100
AcDbLine
62
7
6
CONTINUOUS
10
310.3950670000
20
15.6185250000
11
310.4696140000
21
15.6930720000
0
LINE
5
3C6
100
AcDbEntity
8
05
100
AcDbLine
62
7
6
CONTINUOUS
10
308.3036920000
20
13.2089520000
11
309.0078010000
21
13.9130610000
0
LINE
5
3C7
100
AcDbEntity
8
05
100
AcDbLine
62
7
6
CONTINUOUS
10
310.3044300000
20
15.2096900000
11
310.7878120000
21
15.6930720000
0
LINE
5
3C8
100
AcDbEntity
8
05
100
AcDbLine
62
7
6
CONTINUOUS
10
308.6218900000
20
13.2089520000
11
308.9171640000
21
13.5042260000
0
LINE
5
3C9
100
AcDbEntity
8
05
100
AcDbLine
62
7
6
CONTINUOUS
10
310.2137940000
20
14.8008560000
11
311.1060100000
21
15.6930720000
0
LINE
5
3CA
100
AcDbEntity
8
05
100
AcDbLine
62
7
6
CONTINUOUS
10
310.1231580000
20
14.3920210000
11
311.4242080000
21
15.6930720000
0
LINE
5
3CB
100
AcDbEntity
8
05
100
AcDbLine
62
7
6
CONTINUOUS
10
310.0325210000
20
13.9831870000
11
311.7424060000
21
15.6930720000
0
LINE
5
3CC
100
AcDbEntity
8
05
100
AcDbLine
62
7
6
CONTINUOUS
10
309.9418850000
20
13.5743520000
11
312.0364400000
21
15.6689080000
0
LINE
5
3CD
100
AcDbEntity
8
05
100
AcDbLine
62
7
6
CONTINUOUS
10
309.8946830000
20
13.2089520000
11
311.9458040000
21
15.2600730000
0
LINE
5
3CE
100
AcDbEntity
8
05
100
AcDbLine
62
7
6
CONTINUOUS
10
310.2128810000
20
13.2089520000
11
311.8577180000
21
14.8537890000
0
LINE
5
3CF
100
AcDbEntity
8
05
100
AcDbLine
62
7
6
CONTINUOUS
10
310.5310790000
20
13.2089520000
11
312.4121960000
21
15.0900700000
0
LINE
5
3D0
100
AcDbEntity
8
05
100
AcDbLine
62
7
6
CONTINUOUS
10
310.8492770000
20
13.2089520000
11
312.9666750000
21
15.3263510000
0
LINE
5
3D1
100
AcDbEntity
8
05
100
AcDbLine
62
7
6
CONTINUOUS
10
311.1674750000
20
13.2089520000
11
311.5832580000
21
13.6247350000
0
LINE
5
3D2
100
AcDbEntity
8
05
100
AcDbLine
62
7
6
CONTINUOUS
10
311.9071250000
20
13.9486020000
11
313.5211540000
21
15.5626310000
0
LINE
5
3D3
100
AcDbEntity
8
05
100
AcDbLine
62
7
6
CONTINUOUS
10
311.4856730000
20
13.2089520000
11
311.4926210000
21
13.2159010000
0
LINE
5
3D4
100
AcDbEntity
8
05
100
AcDbLine
62
7
6
CONTINUOUS
10
312.3871300000
20
14.1104090000
11
313.9697930000
21
15.6930720000
0
LINE
5
3D5
100
AcDbEntity
8
05
100
AcDbLine
62
7
6
CONTINUOUS
10
312.5451590000
20
13.9502400000
11
314.2879910000
21
15.6930720000
0
LINE
5
3D6
100
AcDbEntity
8
05
100
AcDbLine
62
7
6
CONTINUOUS
10
312.7031880000
20
13.7900710000
11
314.6061890000
21
15.6930720000
0
LINE
5
3D7
100
AcDbEntity
8
05
100
AcDbLine
62
7
6
CONTINUOUS
10
312.8612170000
20
13.6299020000
11
314.0334790000
21
14.8021650000
0
LINE
5
3D8
100
AcDbEntity
8
05
100
AcDbLine
62
7
6
CONTINUOUS
10
314.1250400000
20
14.8937250000
11
314.9243870000
21
15.6930720000
0
LINE
5
3D9
100
AcDbEntity
8
05
100
AcDbLine
62
7
6
CONTINUOUS
10
313.0192460000
20
13.4697330000
11
314.1915080000
21
14.6419950000
0
LINE
5
3DA
100
AcDbEntity
8
05
100
AcDbLine
62
7
6
CONTINUOUS
10
314.6795190000
20
15.1300060000
11
315.2425850000
21
15.6930720000
0
LINE
5
3DB
100
AcDbEntity
8
05
100
AcDbLine
62
7
6
CONTINUOUS
10
313.1772750000
20
13.3095640000
11
314.3495370000
21
14.4818260000
0
LINE
5
3DC
100
AcDbEntity
8
05
100
AcDbLine
62
7
6
CONTINUOUS
10
315.2339980000
20
15.3662870000
11
315.5607830000
21
15.6930720000
0
LINE
5
3DD
100
AcDbEntity
8
05
100
AcDbLine
62
7
6
CONTINUOUS
10
313.3948610000
20
13.2089520000
11
314.5075660000
21
14.3216570000
0
LINE
5
3DE
100
AcDbEntity
8
05
100
AcDbLine
62
7
6
CONTINUOUS
10
315.7884760000
20
15.6025670000
11
315.8789810000
21
15.6930720000
0
LINE
5
3DF
100
AcDbEntity
8
05
100
AcDbLine
62
7
6
CONTINUOUS
10
313.7130590000
20
13.2089520000
11
314.6655950000
21
14.1614880000
0
LINE
5
3E0
100
AcDbEntity
8
05
100
AcDbLine
62
7
6
CONTINUOUS
10
314.0312570000
20
13.2089520000
11
314.8236240000
21
14.0013190000
0
LINE
5
3E1
100
AcDbEntity
8
05
100
AcDbLine
62
7
6
CONTINUOUS
10
314.3494550000
20
13.2089520000
11
314.9816530000
21
13.8411500000
0
LINE
5
3E2
100
AcDbEntity
8
05
100
AcDbLine
62
7
6
CONTINUOUS
10
314.6676530000
20
13.2089520000
11
315.1396820000
21
13.6809810000
0
LINE
5
3E3
100
AcDbEntity
8
05
100
AcDbLine
62
7
6
CONTINUOUS
10
314.9858510000
20
13.2089520000
11
315.2977110000
21
13.5208120000
0
LINE
5
3E4
100
AcDbEntity
8
05
100
AcDbLine
62
7
6
CONTINUOUS
10
315.3040500000
20
13.2089520000
11
315.4557400000
21
13.3606430000
0
LINE
5
3E5
100
AcDbEntity
8
05
100
AcDbLine
62
7
6
CONTINUOUS
10
320.3077010000
20
15.6670200000
11
320.3344820000
21
15.6938010000
0
LINE
5
3E6
100
AcDbEntity
8
05
100
AcDbLine
62
7
6
CONTINUOUS
10
319.3531070000
20
14.3942270000
11
320.6526800000
21
15.6938010000
0
LINE
5
3E7
100
AcDbEntity
8
05
100
AcDbLine
62
7
6
CONTINUOUS
10
318.4860300000
20
13.2089520000
11
320.9708790000
21
15.6938010000
0
LINE
5
3E8
100
AcDbEntity
8
05
100
AcDbLine
62
7
6
CONTINUOUS
10
318.8042280000
20
13.2089520000
11
321.2890770000
21
15.6938010000
0
LINE
5
3E9
100
AcDbEntity
8
05
100
AcDbLine
62
7
6
CONTINUOUS
10
319.1224260000
20
13.2089520000
11
321.6072750000
21
15.6938010000
0
LINE
5
3EA
100
AcDbEntity
8
05
100
AcDbLine
62
7
6
CONTINUOUS
10
319.4406240000
20
13.2089520000
11
321.9254730000
21
15.6938010000
0
LINE
5
3EB
100
AcDbEntity
8
05
100
AcDbLine
62
7
6
CONTINUOUS
10
319.7588220000
20
13.2089520000
11
321.2846820000
21
14.7348120000
0
LINE
5
3EC
100
AcDbEntity
8
05
100
AcDbLine
62
7
6
CONTINUOUS
10
321.8285960000
20
15.2787260000
11
322.2436710000
21
15.6938010000
0
LINE
5
3ED
100
AcDbEntity
8
05
100
AcDbLine
62
7
6
CONTINUOUS
10
320.0770200000
20
13.2089520000
11
320.3300880000
21
13.4620200000
0
LINE
5
3EE
100
AcDbEntity
8
05
100
AcDbLine
62
7
6
CONTINUOUS
10
321.8922360000
20
15.0241680000
11
322.5618690000
21
15.6938010000
0
LINE
5
3EF
100
AcDbEntity
8
05
100
AcDbLine
62
7
6
CONTINUOUS
10
320.5570520000
20
13.6889840000
11
320.9302400000
21
14.0621710000
0
LINE
5
3F0
100
AcDbEntity
8
05
100
AcDbLine
62
7
6
CONTINUOUS
10
320.8752500000
20
13.6889840000
11
321.2484380000
21
14.0621710000
0
LINE
5
3F1
100
AcDbEntity
8
05
100
AcDbLine
62
7
6
CONTINUOUS
10
321.9558760000
20
14.7696100000
11
322.8800670000
21
15.6938010000
0
LINE
5
3F2
100
AcDbEntity
8
05
100
AcDbLine
62
7
6
CONTINUOUS
10
321.1934480000
20
13.6889840000
11
321.5666360000
21
14.0621710000
0
LINE
5
3F3
100
AcDbEntity
8
05
100
AcDbLine
62
7
6
CONTINUOUS
10
322.0195150000
20
14.5150510000
11
323.1982650000
21
15.6938010000
0
LINE
5
3F4
100
AcDbEntity
8
05
100
AcDbLine
62
7
6
CONTINUOUS
10
321.5116460000
20
13.6889840000
11
321.8848340000
21
14.0621710000
0
LINE
5
3F5
100
AcDbEntity
8
05
100
AcDbLine
62
7
6
CONTINUOUS
10
322.0831550000
20
14.2604930000
11
323.3292860000
21
15.5066230000
0
LINE
5
3F6
100
AcDbEntity
8
05
100
AcDbLine
62
7
6
CONTINUOUS
10
321.8298440000
20
13.6889840000
11
323.3929250000
21
15.2520650000
0
LINE
5
3F7
100
AcDbEntity
8
05
100
AcDbLine
62
7
6
CONTINUOUS
10
322.1480420000
20
13.6889840000
11
323.4565650000
21
14.9975060000
0
LINE
5
3F8
100
AcDbEntity
8
05
100
AcDbLine
62
7
6
CONTINUOUS
10
322.2740740000
20
13.4968170000
11
323.5202040000
21
14.7429480000
0
LINE
5
3F9
100
AcDbEntity
8
05
100
AcDbLine
62
7
6
CONTINUOUS
10
322.3377130000
20
13.2422590000
11
323.5838440000
21
14.4883900000
0
LINE
5
3FA
100
AcDbEntity
8
05
100
AcDbLine
62
7
6
CONTINUOUS
10
322.6226050000
20
13.2089520000
11
323.6474840000
21
14.2338310000
0
LINE
5
3FB
100
AcDbEntity
8
05
100
AcDbLine
62
7
6
CONTINUOUS
10
322.9408030000
20
13.2089520000
11
323.7111230000
21
13.9792730000
0
LINE
5
3FC
100
AcDbEntity
8
05
100
AcDbLine
62
7
6
CONTINUOUS
10
324.8640330000
20
15.1321820000
11
325.2440540000
21
15.5122030000
0
LINE
5
3FD
100
AcDbEntity
8
05
100
AcDbLine
62
7
6
CONTINUOUS
10
323.2590010000
20
13.2089520000
11
323.7747630000
21
13.7247140000
0
LINE
5
3FE
100
AcDbEntity
8
05
100
AcDbLine
62
7
6
CONTINUOUS
10
324.7959150000
20
14.7458660000
11
325.6185860000
21
15.5685370000
0
LINE
5
3FF
100
AcDbEntity
8
05
100
AcDbLine
62
7
6
CONTINUOUS
10
323.5771990000
20
13.2089520000
11
323.8384020000
21
13.4701560000
0
LINE
5
400
100
AcDbEntity
8
05
100
AcDbLine
62
7
6
CONTINUOUS
10
324.7277970000
20
14.3595500000
11
325.9813030000
21
15.6130560000
0
LINE
5
401
100
AcDbEntity
8
05
100
AcDbLine
62
7
6
CONTINUOUS
10
323.8953970000
20
13.2089520000
11
323.9020420000
21
13.2155970000
0
LINE
5
402
100
AcDbEntity
8
05
100
AcDbLine
62
7
6
CONTINUOUS
10
324.6596790000
20
13.9732340000
11
326.3333580000
21
15.6469130000
0
LINE
5
403
100
AcDbEntity
8
05
100
AcDbLine
62
7
6
CONTINUOUS
10
324.6152770000
20
13.6106340000
11
326.6757100000
21
15.6710670000
0
LINE
5
404
100
AcDbEntity
8
05
100
AcDbLine
62
7
6
CONTINUOUS
10
324.7378940000
20
13.4150530000
11
327.0091650000
21
15.6863240000
0
LINE
5
405
100
AcDbEntity
8
05
100
AcDbLine
62
7
6
CONTINUOUS
10
324.9839510000
20
13.3429130000
11
326.3408190000
21
14.6997800000
0
LINE
5
406
100
AcDbEntity
8
05
100
AcDbLine
62
7
6
CONTINUOUS
10
326.8827100000
20
15.2416710000
11
327.3344090000
21
15.6933700000
0
LINE
5
407
100
AcDbEntity
8
05
100
AcDbLine
62
7
6
CONTINUOUS
10
325.2652030000
20
13.3059660000
11
326.2727010000
21
14.3134640000
0
LINE
5
408
100
AcDbEntity
8
05
100
AcDbLine
62
7
6
CONTINUOUS
10
327.2192190000
20
15.2599820000
11
327.6520320000
21
15.6927950000
0
LINE
5
409
100
AcDbEntity
8
05
100
AcDbLine
62
7
6
CONTINUOUS
10
325.5518220000
20
13.2743870000
11
326.2250940000
21
13.9476590000
0
LINE
5
40A
100
AcDbEntity
8
05
100
AcDbLine
62
7
6
CONTINUOUS
10
327.5263210000
20
15.2488860000
11
327.9625450000
21
15.6851100000
0
LINE
5
40B
100
AcDbEntity
8
05
100
AcDbLine
62
7
6
CONTINUOUS
10
325.8440880000
20
13.2484550000
11
326.3438720000
21
13.7482390000
0
LINE
5
40C
100
AcDbEntity
8
05
100
AcDbLine
62
7
6
CONTINUOUS
10
327.8104210000
20
15.2147880000
11
328.2663950000
21
15.6707620000
0
LINE
5
40D
100
AcDbEntity
8
05
100
AcDbLine
62
7
6
CONTINUOUS
10
326.1423120000
20
13.2284810000
11
326.5883040000
21
13.6744730000
0
LINE
5
40E
100
AcDbEntity
8
05
100
AcDbLine
62
7
6
CONTINUOUS
10
328.0259950000
20
15.1121640000
11
328.5639730000
21
15.6501420000
0
LINE
5
40F
100
AcDbEntity
8
05
100
AcDbLine
62
7
6
CONTINUOUS
10
326.4468470000
20
13.2148180000
11
326.8836220000
21
13.6515930000
0
LINE
5
410
100
AcDbEntity
8
05
100
AcDbLine
62
7
6
CONTINUOUS
10
328.1960220000
20
14.9639930000
11
328.8556280000
21
15.6235990000
0
LINE
5
411
100
AcDbEntity
8
05
100
AcDbLine
62
7
6
CONTINUOUS
10
327.3537820000
20
14.1217520000
11
327.5334060000
21
14.3013760000
0
LINE
5
412
100
AcDbEntity
8
05
100
AcDbLine
62
7
6
CONTINUOUS
10
326.7580900000
20
13.2078620000
11
327.2048330000
21
13.6546050000
0
LINE
5
413
100
AcDbEntity
8
05
100
AcDbLine
62
7
6
CONTINUOUS
10
328.5142200000
20
14.9639930000
11
329.1416670000
21
15.5914400000
0
LINE
5
414
100
AcDbEntity
8
05
100
AcDbLine
62
7
6
CONTINUOUS
10
327.6288760000
20
14.0786490000
11
327.8516040000
21
14.3013760000
0
LINE
5
415
100
AcDbEntity
8
05
100
AcDbLine
62
7
6
CONTINUOUS
10
327.0764930000
20
13.2080680000
11
327.5603930000
21
13.6919670000
0
LINE
5
416
100
AcDbEntity
8
05
100
AcDbLine
62
7
6
CONTINUOUS
10
328.8324180000
20
14.9639930000
11
329.4223670000
21
15.5539410000
0
LINE
5
417
100
AcDbEntity
8
05
100
AcDbLine
62
7
6
CONTINUOUS
10
327.9470740000
20
14.0786490000
11
328.1698020000
21
14.3013760000
0
LINE
5
418
100
AcDbEntity
8
05
100
AcDbLine
62
7
6
CONTINUOUS
10
327.4025750000
20
13.2159520000
11
328.4880000000
21
14.3013760000
0
LINE
5
419
100
AcDbEntity
8
05
100
AcDbLine
62
7
6
CONTINUOUS
10
329.1506160000
20
14.9639930000
11
329.6387420000
21
15.4521180000
0
LINE
5
41A
100
AcDbEntity
8
05
100
AcDbLine
62
7
6
CONTINUOUS
10
327.7369360000
20
13.2321150000
11
328.8061980000
21
14.3013760000
0
LINE
5
41B
100
AcDbEntity
8
05
100
AcDbLine
62
7
6
CONTINUOUS
10
329.4688140000
20
14.9639930000
11
329.7195490000
21
15.2147280000
0
LINE
5
41C
100
AcDbEntity
8
05
100
AcDbLine
62
7
6
CONTINUOUS
10
328.0319720000
20
13.2089520000
11
329.1243960000
21
14.3013760000
0
LINE
5
41D
100
AcDbEntity
8
05
100
AcDbLine
62
7
6
CONTINUOUS
10
328.3501700000
20
13.2089520000
11
329.4425940000
21
14.3013760000
0
LINE
5
41E
100
AcDbEntity
8
05
100
AcDbLine
62
7
6
CONTINUOUS
10
328.6683680000
20
13.2089520000
11
329.5166470000
21
14.0572320000
0
LINE
5
41F
100
AcDbEntity
8
05
100
AcDbLine
62
7
6
CONTINUOUS
10
328.9865660000
20
13.2089520000
11
329.4485290000
21
13.6709160000
0
LINE
5
420
100
AcDbEntity
8
05
100
AcDbLine
62
7
6
CONTINUOUS
10
329.3047640000
20
13.2089520000
11
329.3804110000
21
13.2846000000
0
LINE
5
421
100
AcDbEntity
8
05
100
AcDbLine
62
7
6
CONTINUOUS
10
304.8961450000
20
13.2089520000
11
304.6025370000
21
13.5025600000
0
LINE
5
422
100
AcDbEntity
8
05
100
AcDbLine
62
7
6
CONTINUOUS
10
303.1776440000
20
14.9274530000
11
302.4120250000
21
15.6930720000
0
LINE
5
423
100
AcDbEntity
8
05
100
AcDbLine
62
7
6
CONTINUOUS
10
303.9698570000
20
14.1352400000
11
303.6798790000
21
14.4252180000
0
LINE
5
424
100
AcDbEntity
8
05
100
AcDbLine
62
7
6
CONTINUOUS
10
303.6516590000
20
14.1352400000
11
303.3616810000
21
14.4252180000
0
LINE
5
425
100
AcDbEntity
8
05
100
AcDbLine
62
7
6
CONTINUOUS
10
303.1199030000
20
14.6669960000
11
302.0938270000
21
15.6930720000
0
LINE
5
426
100
AcDbEntity
8
05
100
AcDbLine
62
7
6
CONTINUOUS
10
303.3334610000
20
14.1352400000
11
301.7756290000
21
15.6930720000
0
LINE
5
427
100
AcDbEntity
8
05
100
AcDbLine
62
7
6
CONTINUOUS
10
303.0152630000
20
14.1352400000
11
301.6064980000
21
15.5440050000
0
LINE
5
428
100
AcDbEntity
8
05
100
AcDbLine
62
7
6
CONTINUOUS
10
302.9466770000
20
13.8856280000
11
301.5487570000
21
15.2835480000
0
LINE
5
429
100
AcDbEntity
8
05
100
AcDbLine
62
7
6
CONTINUOUS
10
302.8889360000
20
13.6251710000
11
301.4910150000
21
15.0230920000
0
LINE
5
42A
100
AcDbEntity
8
05
100
AcDbLine
62
7
6
CONTINUOUS
10
301.0462220000
20
15.4678850000
11
300.8210350000
21
15.6930720000
0
LINE
5
42B
100
AcDbEntity
8
05
100
AcDbLine
62
7
6
CONTINUOUS
10
302.8311940000
20
13.3647150000
11
301.4332730000
21
14.7626360000
0
LINE
5
42C
100
AcDbEntity
8
05
100
AcDbLine
62
7
6
CONTINUOUS
10
300.9884800000
20
15.2074290000
11
300.5028370000
21
15.6930720000
0
LINE
5
42D
100
AcDbEntity
8
05
100
AcDbLine
62
7
6
CONTINUOUS
10
302.6687580000
20
13.2089520000
11
301.3755310000
21
14.5021790000
0
LINE
5
42E
100
AcDbEntity
8
05
100
AcDbLine
62
7
6
CONTINUOUS
10
300.8056690000
20
15.0720420000
11
300.1846390000
21
15.6930720000
0
LINE
5
42F
100
AcDbEntity
8
05
100
AcDbLine
62
7
6
CONTINUOUS
10
302.3505600000
20
13.2089520000
11
301.3177890000
21
14.2417230000
0
LINE
5
430
100
AcDbEntity
8
05
100
AcDbLine
62
7
6
CONTINUOUS
10
300.4874710000
20
15.0720420000
11
299.8664410000
21
15.6930720000
0
LINE
5
431
100
AcDbEntity
8
05
100
AcDbLine
62
7
6
CONTINUOUS
10
302.0323620000
20
13.2089520000
11
301.2600480000
21
13.9812670000
0
LINE
5
432
100
AcDbEntity
8
05
100
AcDbLine
62
7
6
CONTINUOUS
10
300.1692730000
20
15.0720420000
11
299.5482430000
21
15.6930720000
0
LINE
5
433
100
AcDbEntity
8
05
100
AcDbLine
62
7
6
CONTINUOUS
10
301.7141640000
20
13.2089520000
11
301.2023060000
21
13.7208110000
0
LINE
5
434
100
AcDbEntity
8
05
100
AcDbLine
62
7
6
CONTINUOUS
10
299.8510750000
20
15.0720420000
11
299.2300450000
21
15.6930720000
0
LINE
5
435
100
AcDbEntity
8
05
100
AcDbLine
62
7
6
CONTINUOUS
10
301.3959660000
20
13.2089520000
11
301.1445640000
21
13.4603540000
0
LINE
5
436
100
AcDbEntity
8
05
100
AcDbLine
62
7
6
CONTINUOUS
10
299.5328760000
20
15.0720420000
11
298.9118470000
21
15.6930720000
0
LINE
5
437
100
AcDbEntity
8
05
100
AcDbLine
62
7
6
CONTINUOUS
10
299.3076510000
20
14.9790700000
11
298.5936480000
21
15.6930720000
0
LINE
5
438
100
AcDbEntity
8
05
100
AcDbLine
62
7
6
CONTINUOUS
10
299.2499090000
20
14.7186140000
11
298.2754500000
21
15.6930720000
0
LINE
5
439
100
AcDbEntity
8
05
100
AcDbLine
62
7
6
CONTINUOUS
10
299.1921670000
20
14.4581570000
11
297.9572520000
21
15.6930720000
0
LINE
5
43A
100
AcDbEntity
8
05
100
AcDbLine
62
7
6
CONTINUOUS
10
299.1344250000
20
14.1977010000
11
297.6390540000
21
15.6930720000
0
LINE
5
43B
100
AcDbEntity
8
05
100
AcDbLine
62
7
6
CONTINUOUS
10
299.0766830000
20
13.9372450000
11
297.3208560000
21
15.6930720000
0
LINE
5
43C
100
AcDbEntity
8
05
100
AcDbLine
62
7
6
CONTINUOUS
10
299.0189420000
20
13.6767880000
11
297.0026580000
21
15.6930720000
0
LINE
5
43D
100
AcDbEntity
8
05
100
AcDbLine
62
7
6
CONTINUOUS
10
298.9612000000
20
13.4163320000
11
297.5632790000
21
14.8142530000
0
LINE
5
43E
100
AcDbEntity
8
05
100
AcDbLine
62
7
6
CONTINUOUS
10
297.3054900000
20
15.0720420000
11
296.6844600000
21
15.6930720000
0
LINE
5
43F
100
AcDbEntity
8
05
100
AcDbLine
62
7
6
CONTINUOUS
10
298.8503820000
20
13.2089520000
11
297.5055370000
21
14.5537970000
0
LINE
5
440
100
AcDbEntity
8
05
100
AcDbLine
62
7
6
CONTINUOUS
10
296.9872920000
20
15.0720420000
11
296.3662620000
21
15.6930720000
0
LINE
5
441
100
AcDbEntity
8
05
100
AcDbLine
62
7
6
CONTINUOUS
10
298.5321840000
20
13.2089520000
11
297.4477960000
21
14.2933400000
0
LINE
5
442
100
AcDbEntity
8
05
100
AcDbLine
62
7
6
CONTINUOUS
10
296.6690940000
20
15.0720420000
11
296.1769590000
21
15.5641770000
0
LINE
5
443
100
AcDbEntity
8
05
100
AcDbLine
62
7
6
CONTINUOUS
10
298.2139860000
20
13.2089520000
11
297.3900540000
21
14.0328840000
0
LINE
5
444
100
AcDbEntity
8
05
100
AcDbLine
62
7
6
CONTINUOUS
10
295.7492670000
20
15.6736710000
11
295.7298660000
21
15.6930720000
0
LINE
5
445
100
AcDbEntity
8
05
100
AcDbLine
62
7
6
CONTINUOUS
10
296.3508960000
20
15.0720420000
11
296.1192170000
21
15.3037210000
0
LINE
5
446
100
AcDbEntity
8
05
100
AcDbLine
62
7
6
CONTINUOUS
10
297.8957880000
20
13.2089520000
11
297.3323120000
21
13.7724280000
0
LINE
5
447
100
AcDbEntity
8
05
100
AcDbLine
62
7
6
CONTINUOUS
10
295.6915250000
20
15.4132140000
11
295.4116680000
21
15.6930720000
0
LINE
5
448
100
AcDbEntity
8
05
100
AcDbLine
62
7
6
CONTINUOUS
10
297.5775900000
20
13.2089520000
11
297.2745700000
21
13.5119710000
0
LINE
5
449
100
AcDbEntity
8
05
100
AcDbLine
62
7
6
CONTINUOUS
10
295.6337840000
20
15.1527580000
11
295.0934700000
21
15.6930720000
0
LINE
5
44A
100
AcDbEntity
8
05
100
AcDbLine
62
7
6
CONTINUOUS
10
297.2593920000
20
13.2089520000
11
297.2168290000
21
13.2515150000
0
LINE
5
44B
100
AcDbEntity
8
05
100
AcDbLine
62
7
6
CONTINUOUS
10
295.5760420000
20
14.8923020000
11
294.7752720000
21
15.6930720000
0
LINE
5
44C
100
AcDbEntity
8
05
100
AcDbLine
62
7
6
CONTINUOUS
10
295.5183000000
20
14.6318460000
11
294.4570740000
21
15.6930720000
0
LINE
5
44D
100
AcDbEntity
8
05
100
AcDbLine
62
7
6
CONTINUOUS
10
295.4605580000
20
14.3713890000
11
294.1388760000
21
15.6930720000
0
LINE
5
44E
100
AcDbEntity
8
05
100
AcDbLine
62
7
6
CONTINUOUS
10
295.4028170000
20
14.1109330000
11
294.0084280000
21
15.5053220000
0
LINE
5
44F
100
AcDbEntity
8
05
100
AcDbLine
62
7
6
CONTINUOUS
10
295.3450750000
20
13.8504770000
11
293.9506860000
21
15.2448650000
0
LINE
5
450
100
AcDbEntity
8
05
100
AcDbLine
62
7
6
CONTINUOUS
10
295.2138080000
20
13.6635450000
11
293.8929450000
21
14.9844090000
0
LINE
5
451
100
AcDbEntity
8
05
100
AcDbLine
62
7
6
CONTINUOUS
10
295.0174480000
20
13.5417070000
11
293.8352030000
21
14.7239530000
0
LINE
5
452
100
AcDbEntity
8
05
100
AcDbLine
62
7
6
CONTINUOUS
10
294.8026520000
20
13.4383050000
11
293.7774610000
21
14.4634960000
0
LINE
5
453
100
AcDbEntity
8
05
100
AcDbLine
62
7
6
CONTINUOUS
10
294.5671730000
20
13.3555860000
11
293.7197190000
21
14.2030400000
0
LINE
5
454
100
AcDbEntity
8
05
100
AcDbLine
62
7
6
CONTINUOUS
10
294.3151830000
20
13.2893790000
11
293.6187120000
21
13.9858500000
0
LINE
5
455
100
AcDbEntity
8
05
100
AcDbLine
62
7
6
CONTINUOUS
10
292.1186190000
20
15.4859430000
11
291.9114890000
21
15.6930720000
0
LINE
5
456
100
AcDbEntity
8
05
100
AcDbLine
62
7
6
CONTINUOUS
10
294.0511440000
20
13.2352190000
11
293.4221760000
21
13.8641880000
0
LINE
5
457
100
AcDbEntity
8
05
100
AcDbLine
62
7
6
CONTINUOUS
10
292.0608770000
20
15.2254860000
11
291.5932910000
21
15.6930720000
0
LINE
5
458
100
AcDbEntity
8
05
100
AcDbLine
62
7
6
CONTINUOUS
10
293.7736700000
20
13.1944950000
11
293.1774040000
21
13.7907610000
0
LINE
5
459
100
AcDbEntity
8
05
100
AcDbLine
62
7
6
CONTINUOUS
10
292.0031350000
20
14.9650300000
11
291.2750930000
21
15.6930720000
0
LINE
5
45A
100
AcDbEntity
8
05
100
AcDbLine
62
7
6
CONTINUOUS
10
293.4851820000
20
13.1647850000
11
292.8938350000
21
13.7561320000
0
LINE
5
45B
100
AcDbEntity
8
05
100
AcDbLine
62
7
6
CONTINUOUS
10
291.9453930000
20
14.7045740000
11
290.9568950000
21
15.6930720000
0
LINE
5
45C
100
AcDbEntity
8
05
100
AcDbLine
62
7
6
CONTINUOUS
10
293.1877790000
20
13.1439900000
11
292.5712750000
21
13.7604950000
0
LINE
5
45D
100
AcDbEntity
8
05
100
AcDbLine
62
7
6
CONTINUOUS
10
291.8876520000
20
14.4441170000
11
290.6386970000
21
15.6930720000
0
LINE
5
45E
100
AcDbEntity
8
05
100
AcDbLine
62
7
6
CONTINUOUS
10
292.8806500000
20
13.1329210000
11
292.1766500000
21
13.8369210000
0
LINE
5
45F
100
AcDbEntity
8
05
100
AcDbLine
62
7
6
CONTINUOUS
10
291.8299100000
20
14.1836610000
11
290.4355100000
21
15.5780610000
0
LINE
5
460
100
AcDbEntity
8
05
100
AcDbLine
62
7
6
CONTINUOUS
10
292.5628170000
20
13.1325560000
11
290.3777680000
21
15.3176050000
0
LINE
5
461
100
AcDbEntity
8
05
100
AcDbLine
62
7
6
CONTINUOUS
10
292.2330740000
20
13.1441010000
11
290.3200260000
21
15.0571490000
0
LINE
5
462
100
AcDbEntity
8
05
100
AcDbLine
62
7
6
CONTINUOUS
10
289.6846080000
20
15.6925670000
11
289.6841030000
21
15.6930720000
0
LINE
5
463
100
AcDbEntity
8
05
100
AcDbLine
62
7
6
CONTINUOUS
10
291.8899190000
20
13.1690580000
11
290.2622840000
21
14.7966920000
0
LINE
5
464
100
AcDbEntity
8
05
100
AcDbLine
62
7
6
CONTINUOUS
10
289.6268660000
20
15.4321110000
11
289.3659050000
21
15.6930720000
0
LINE
5
465
100
AcDbEntity
8
05
100
AcDbLine
62
7
6
CONTINUOUS
10
291.5309040000
20
13.2098750000
11
290.2045430000
21
14.5362360000
0
LINE
5
466
100
AcDbEntity
8
05
100
AcDbLine
62
7
6
CONTINUOUS
10
289.4876850000
20
15.2530940000
11
289.0477070000
21
15.6930720000
0
LINE
5
467
100
AcDbEntity
8
05
100
AcDbLine
62
7
6
CONTINUOUS
10
291.1408320000
20
13.2817490000
11
290.1468010000
21
14.2757800000
0
LINE
5
468
100
AcDbEntity
8
05
100
AcDbLine
62
7
6
CONTINUOUS
10
289.1694870000
20
15.2530940000
11
288.7295090000
21
15.6930720000
0
LINE
5
469
100
AcDbEntity
8
05
100
AcDbLine
62
7
6
CONTINUOUS
10
290.6959590000
20
13.4084240000
11
290.0890590000
21
14.0153240000
0
LINE
5
46A
100
AcDbEntity
8
05
100
AcDbLine
62
7
6
CONTINUOUS
10
288.8512890000
20
15.2530940000
11
288.4113110000
21
15.6930720000
0
LINE
5
46B
100
AcDbEntity
8
05
100
AcDbLine
62
7
6
CONTINUOUS
10
289.2052730000
20
14.5809110000
11
289.1901830000
21
14.5960010000
0
LINE
5
46C
100
AcDbEntity
8
05
100
AcDbLine
62
7
6
CONTINUOUS
10
288.5330910000
20
15.2530940000
11
288.0931130000
21
15.6930720000
0
LINE
5
46D
100
AcDbEntity
8
05
100
AcDbLine
62
7
6
CONTINUOUS
10
289.1475320000
20
14.3204550000
11
288.8719850000
21
14.5960010000
0
LINE
5
46E
100
AcDbEntity
8
05
100
AcDbLine
62
7
6
CONTINUOUS
10
288.2148930000
20
15.2530940000
11
287.7749150000
21
15.6930720000
0
LINE
5
46F
100
AcDbEntity
8
05
100
AcDbLine
62
7
6
CONTINUOUS
10
288.8437660000
20
14.3060230000
11
288.5537870000
21
14.5960010000
0
LINE
5
470
100
AcDbEntity
8
05
100
AcDbLine
62
7
6
CONTINUOUS
10
287.8966950000
20
15.2530940000
11
287.4567170000
21
15.6930720000
0
LINE
5
471
100
AcDbEntity
8
05
100
AcDbLine
62
7
6
CONTINUOUS
10
289.2226740000
20
13.6089170000
11
289.1826600000
21
13.6489310000
0
LINE
5
472
100
AcDbEntity
8
05
100
AcDbLine
62
7
6
CONTINUOUS
10
287.5784970000
20
15.2530940000
11
287.1385190000
21
15.6930720000
0
LINE
5
473
100
AcDbEntity
8
05
100
AcDbLine
62
7
6
CONTINUOUS
10
288.5255680000
20
14.3060230000
11
288.2355890000
21
14.5960010000
0
LINE
5
474
100
AcDbEntity
8
05
100
AcDbLine
62
7
6
CONTINUOUS
10
289.1649320000
20
13.3484610000
11
288.8644620000
21
13.6489310000
0
LINE
5
475
100
AcDbEntity
8
05
100
AcDbLine
62
7
6
CONTINUOUS
10
287.2602990000
20
15.2530940000
11
286.8203210000
21
15.6930720000
0
LINE
5
476
100
AcDbEntity
8
05
100
AcDbLine
62
7
6
CONTINUOUS
10
288.2073700000
20
14.3060230000
11
287.9173910000
21
14.5960010000
0
LINE
5
477
100
AcDbEntity
8
05
100
AcDbLine
62
7
6
CONTINUOUS
10
288.9862420000
20
13.2089520000
11
288.5462640000
21
13.6489310000
0
LINE
5
478
100
AcDbEntity
8
05
100
AcDbLine
62
7
6
CONTINUOUS
10
286.9421010000
20
15.2530940000
11
286.5021230000
21
15.6930720000
0
LINE
5
479
100
AcDbEntity
8
05
100
AcDbLine
62
7
6
CONTINUOUS
10
287.8891720000
20
14.3060230000
11
287.5991930000
21
14.5960010000
0
LINE
5
47A
100
AcDbEntity
8
05
100
AcDbLine
62
7
6
CONTINUOUS
10
288.6680440000
20
13.2089520000
11
288.2280660000
21
13.6489310000
0
LINE
5
47B
100
AcDbEntity
8
05
100
AcDbLine
62
7
6
CONTINUOUS
10
286.6348580000
20
15.2421380000
11
286.1839240000
21
15.6930720000
0
LINE
5
47C
100
AcDbEntity
8
05
100
AcDbLine
62
7
6
CONTINUOUS
10
287.5709740000
20
14.3060230000
11
287.2809950000
21
14.5960010000
0
LINE
5
47D
100
AcDbEntity
8
05
100
AcDbLine
62
7
6
CONTINUOUS
10
288.3498460000
20
13.2089520000
11
287.9098680000
21
13.6489310000
0
LINE
5
47E
100
AcDbEntity
8
05
100
AcDbLine
62
7
6
CONTINUOUS
10
286.5771160000
20
14.9816820000
11
285.8657260000
21
15.6930720000
0
LINE
5
47F
100
AcDbEntity
8
05
100
AcDbLine
62
7
6
CONTINUOUS
10
287.2527750000
20
14.3060230000
11
286.9627970000
21
14.5960010000
0
LINE
5
480
100
AcDbEntity
8
05
100
AcDbLine
62
7
6
CONTINUOUS
10
288.0316480000
20
13.2089520000
11
287.5916700000
21
13.6489310000
0
LINE
5
481
100
AcDbEntity
8
05
100
AcDbLine
62
7
6
CONTINUOUS
10
286.5193740000
20
14.7212260000
11
285.5475280000
21
15.6930720000
0
LINE
5
482
100
AcDbEntity
8
05
100
AcDbLine
62
7
6
CONTINUOUS
10
286.9345770000
20
14.3060230000
11
286.6445990000
21
14.5960010000
0
LINE
5
483
100
AcDbEntity
8
05
100
AcDbLine
62
7
6
CONTINUOUS
10
287.7134500000
20
13.2089520000
11
287.2734720000
21
13.6489310000
0
LINE
5
484
100
AcDbEntity
8
05
100
AcDbLine
62
7
6
CONTINUOUS
10
286.6163790000
20
14.3060230000
11
285.2293300000
21
15.6930720000
0
LINE
5
485
100
AcDbEntity
8
05
100
AcDbLine
62
7
6
CONTINUOUS
10
287.3952520000
20
13.2089520000
11
286.9552740000
21
13.6489310000
0
LINE
5
486
100
AcDbEntity
8
05
100
AcDbLine
62
7
6
CONTINUOUS
10
286.4038910000
20
14.2003130000
11
285.0059700000
21
15.5982340000
0
LINE
5
487
100
AcDbEntity
8
05
100
AcDbLine
62
7
6
CONTINUOUS
10
287.0770540000
20
13.2089520000
11
286.6370750000
21
13.6489310000
0
LINE
5
488
100
AcDbEntity
8
05
100
AcDbLine
62
7
6
CONTINUOUS
10
286.3461490000
20
13.9398570000
11
284.9482280000
21
15.3377780000
0
LINE
5
489
100
AcDbEntity
8
05
100
AcDbLine
62
7
6
CONTINUOUS
10
286.7588560000
20
13.2089520000
11
286.3188770000
21
13.6489310000
0
LINE
5
48A
100
AcDbEntity
8
05
100
AcDbLine
62
7
6
CONTINUOUS
10
286.2884070000
20
13.6794010000
11
284.8904870000
21
15.0773220000
0
LINE
5
48B
100
AcDbEntity
8
05
100
AcDbLine
62
7
6
CONTINUOUS
10
286.4406580000
20
13.2089520000
11
284.8327450000
21
14.8168650000
0
LINE
5
48C
100
AcDbEntity
8
05
100
AcDbLine
62
7
6
CONTINUOUS
10
284.1337840000
20
15.5158260000
11
283.9565380000
21
15.6930720000
0
LINE
5
48D
100
AcDbEntity
8
05
100
AcDbLine
62
7
6
CONTINUOUS
10
286.1224600000
20
13.2089520000
11
284.7750030000
21
14.5564090000
0
LINE
5
48E
100
AcDbEntity
8
05
100
AcDbLine
62
7
6
CONTINUOUS
10
284.0760430000
20
15.2553690000
11
283.6383400000
21
15.6930720000
0
LINE
5
48F
100
AcDbEntity
8
05
100
AcDbLine
62
7
6
CONTINUOUS
10
285.8042620000
20
13.2089520000
11
284.7172610000
21
14.2959530000
0
LINE
5
490
100
AcDbEntity
8
05
100
AcDbLine
62
7
6
CONTINUOUS
10
284.0183010000
20
14.9949130000
11
283.3201420000
21
15.6930720000
0
LINE
5
491
100
AcDbEntity
8
05
100
AcDbLine
62
7
6
CONTINUOUS
10
285.4860640000
20
13.2089520000
11
284.6595200000
21
14.0354960000
0
LINE
5
492
100
AcDbEntity
8
05
100
AcDbLine
62
7
6
CONTINUOUS
10
283.9605590000
20
14.7344570000
11
283.0019440000
21
15.6930720000
0
LINE
5
493
100
AcDbEntity
8
05
100
AcDbLine
62
7
6
CONTINUOUS
10
285.1678660000
20
13.2089520000
11
284.6017780000
21
13.7750400000
0
LINE
5
494
100
AcDbEntity
8
05
100
AcDbLine
62
7
6
CONTINUOUS
10
283.9028170000
20
14.4740000000
11
282.6837460000
21
15.6930720000
0
LINE
5
495
100
AcDbEntity
8
05
100
AcDbLine
62
7
6
CONTINUOUS
10
284.8496680000
20
13.2089520000
11
284.5440360000
21
13.5145840000
0
LINE
5
496
100
AcDbEntity
8
05
100
AcDbLine
62
7
6
CONTINUOUS
10
283.8450760000
20
14.2135440000
11
282.4471550000
21
15.6114650000
0
LINE
5
497
100
AcDbEntity
8
05
100
AcDbLine
62
7
6
CONTINUOUS
10
284.5314700000
20
13.2089520000
11
284.4862940000
21
13.2541280000
0
LINE
5
498
100
AcDbEntity
8
05
100
AcDbLine
62
7
6
CONTINUOUS
10
283.7873340000
20
13.9530880000
11
282.3894130000
21
15.3510090000
0
LINE
5
499
100
AcDbEntity
8
05
100
AcDbLine
62
7
6
CONTINUOUS
10
283.7295920000
20
13.6926320000
11
282.3316710000
21
15.0905520000
0
LINE
5
49A
100
AcDbEntity
8
05
100
AcDbLine
62
7
6
CONTINUOUS
10
283.6718500000
20
13.4321750000
11
282.2739300000
21
14.8300960000
0
LINE
5
49B
100
AcDbEntity
8
05
100
AcDbLine
62
7
6
CONTINUOUS
10
283.5768750000
20
13.2089520000
11
282.0733040000
21
14.7125240000
0
LINE
5
49C
100
AcDbEntity
8
05
100
AcDbLine
62
7
6
CONTINUOUS
10
283.2586770000
20
13.2089520000
11
280.9995820000
21
15.4680470000
0
LINE
5
49D
100
AcDbEntity
8
05
100
AcDbLine
62
7
6
CONTINUOUS
10
282.9404790000
20
13.2089520000
11
280.4563600000
21
15.6930720000
0
LINE
5
49E
100
AcDbEntity
8
05
100
AcDbLine
62
7
6
CONTINUOUS
10
282.6222810000
20
13.2089520000
11
280.1381610000
21
15.6930720000
0
LINE
5
49F
100
AcDbEntity
8
05
100
AcDbLine
62
7
6
CONTINUOUS
10
282.3040830000
20
13.2089520000
11
279.8199630000
21
15.6930720000
0
LINE
5
4A0
100
AcDbEntity
8
05
100
AcDbLine
62
7
6
CONTINUOUS
10
281.9858850000
20
13.2089520000
11
279.5017650000
21
15.6930720000
0
LINE
5
4A1
100
AcDbEntity
8
05
100
AcDbLine
62
7
6
CONTINUOUS
10
281.5426650000
20
13.3339750000
11
279.1835670000
21
15.6930720000
0
LINE
5
4A2
100
AcDbEntity
8
05
100
AcDbLine
62
7
6
CONTINUOUS
10
280.0963650000
20
14.4620760000
11
278.8653690000
21
15.6930720000
0
LINE
5
4A3
100
AcDbEntity
8
05
100
AcDbLine
62
7
6
CONTINUOUS
10
280.0386240000
20
14.2016200000
11
278.6407030000
21
15.5995400000
0
LINE
5
4A4
100
AcDbEntity
8
05
100
AcDbLine
62
7
6
CONTINUOUS
10
279.9808820000
20
13.9411630000
11
278.5829610000
21
15.3390840000
0
LINE
5
4A5
100
AcDbEntity
8
05
100
AcDbLine
62
7
6
CONTINUOUS
10
279.9231400000
20
13.6807070000
11
278.5252190000
21
15.0786280000
0
LINE
5
4A6
100
AcDbEntity
8
05
100
AcDbLine
62
7
6
CONTINUOUS
10
279.8653980000
20
13.4202510000
11
278.4674780000
21
14.8181710000
0
LINE
5
4A7
100
AcDbEntity
8
05
100
AcDbLine
62
7
6
CONTINUOUS
10
279.7584990000
20
13.2089520000
11
278.4097360000
21
14.5577150000
0
LINE
5
4A8
100
AcDbEntity
8
05
100
AcDbLine
62
7
6
CONTINUOUS
10
279.4403010000
20
13.2089520000
11
278.3519940000
21
14.2972590000
0
LINE
5
4A9
100
AcDbEntity
8
05
100
AcDbLine
62
7
6
CONTINUOUS
10
279.1221030000
20
13.2089520000
11
278.2942520000
21
14.0368030000
0
LINE
5
4AA
100
AcDbEntity
8
05
100
AcDbLine
62
7
6
CONTINUOUS
10
278.8039050000
20
13.2089520000
11
278.2365110000
21
13.7763460000
0
LINE
5
4AB
100
AcDbEntity
8
05
100
AcDbLine
62
7
6
CONTINUOUS
10
278.4857070000
20
13.2089520000
11
278.1787690000
21
13.5158900000
0
LINE
5
4AC
100
AcDbEntity
8
05
100
AcDbLine
62
7
6
CONTINUOUS
10
278.1675080000
20
13.2089520000
11
278.1210270000
21
13.2554340000
0
LINE
5
4AD
100
AcDbEntity
8
05
100
AcDbLine
62
7
6
CONTINUOUS
10
305.2143430000
20
13.2089520000
11
304.6229950000
21
13.8003000000
0
LINE
5
4AE
100
AcDbEntity
8
05
100
AcDbLine
62
7
6
CONTINUOUS
10
303.2353860000
20
15.1879090000
11
302.7302230000
21
15.6930720000
0
LINE
5
4AF
100
AcDbEntity
8
05
100
AcDbLine
62
7
6
CONTINUOUS
10
304.2880550000
20
14.1352400000
11
303.9980770000
21
14.4252180000
0
LINE
5
4B0
100
AcDbEntity
8
05
100
AcDbLine
62
7
6
CONTINUOUS
10
305.5325410000
20
13.2089520000
11
304.3162750000
21
14.4252180000
0
LINE
5
4B1
100
AcDbEntity
8
05
100
AcDbLine
62
7
6
CONTINUOUS
10
303.4884000000
20
15.2530940000
11
303.0484210000
21
15.6930720000
0
LINE
5
4B2
100
AcDbEntity
8
05
100
AcDbLine
62
7
6
CONTINUOUS
10
305.8507390000
20
13.2089520000
11
304.5865410000
21
14.4731500000
0
LINE
5
4B3
100
AcDbEntity
8
05
100
AcDbLine
62
7
6
CONTINUOUS
10
303.8065980000
20
15.2530940000
11
303.3666190000
21
15.6930720000
0
LINE
5
4B4
100
AcDbEntity
8
05
100
AcDbLine
62
7
6
CONTINUOUS
10
306.1689370000
20
13.2089520000
11
304.7895650000
21
14.5883250000
0
LINE
5
4B5
100
AcDbEntity
8
05
100
AcDbLine
62
7
6
CONTINUOUS
10
304.1247960000
20
15.2530940000
11
303.6848170000
21
15.6930720000
0
LINE
5
4B6
100
AcDbEntity
8
05
100
AcDbLine
62
7
6
CONTINUOUS
10
306.3114220000
20
13.3846650000
11
304.9276840000
21
14.7684040000
0
LINE
5
4B7
100
AcDbEntity
8
05
100
AcDbLine
62
7
6
CONTINUOUS
10
304.4429940000
20
15.2530940000
11
304.0030150000
21
15.6930720000
0
LINE
5
4B8
100
AcDbEntity
8
05
100
AcDbLine
62
7
6
CONTINUOUS
10
306.3236390000
20
13.6906470000
11
304.9146710000
21
15.0996140000
0
LINE
5
4B9
100
AcDbEntity
8
05
100
AcDbLine
62
7
6
CONTINUOUS
10
304.7916150000
20
15.2226700000
11
304.3212130000
21
15.6930720000
0
LINE
5
4BA
100
AcDbEntity
8
05
100
AcDbLine
62
7
6
CONTINUOUS
10
306.3444350000
20
13.9880480000
11
304.6394110000
21
15.6930720000
0
LINE
5
4BB
100
AcDbEntity
8
05
100
AcDbLine
62
7
6
CONTINUOUS
10
307.4417290000
20
13.2089520000
11
307.1979220000
21
13.4527590000
0
LINE
5
4BC
100
AcDbEntity
8
05
100
AcDbLine
62
7
6
CONTINUOUS
10
306.2866150000
20
14.3640660000
11
304.9576100000
21
15.6930720000
0
LINE
5
4BD
100
AcDbEntity
8
05
100
AcDbLine
62
7
6
CONTINUOUS
10
307.7599270000
20
13.2089520000
11
307.2556640000
21
13.7132160000
0
LINE
5
4BE
100
AcDbEntity
8
05
100
AcDbLine
62
7
6
CONTINUOUS
10
306.4817000000
20
14.4871790000
11
305.2758080000
21
15.6930720000
0
LINE
5
4BF
100
AcDbEntity
8
05
100
AcDbLine
62
7
6
CONTINUOUS
10
308.0781250000
20
13.2089520000
11
307.3134060000
21
13.9736720000
0
LINE
5
4C0
100
AcDbEntity
8
05
100
AcDbLine
62
7
6
CONTINUOUS
10
306.6502860000
20
14.6367910000
11
305.5940060000
21
15.6930720000
0
LINE
5
4C1
100
AcDbEntity
8
05
100
AcDbLine
62
7
6
CONTINUOUS
10
308.3963230000
20
13.2089520000
11
307.3711480000
21
14.2341280000
0
LINE
5
4C2
100
AcDbEntity
8
05
100
AcDbLine
62
7
6
CONTINUOUS
10
306.7853460000
20
14.8199300000
11
305.9122040000
21
15.6930720000
0
LINE
5
4C3
100
AcDbEntity
8
05
100
AcDbLine
62
7
6
CONTINUOUS
10
308.7145210000
20
13.2089520000
11
307.4288890000
21
14.4945840000
0
LINE
5
4C4
100
AcDbEntity
8
05
100
AcDbLine
62
7
6
CONTINUOUS
10
306.8709020000
20
15.0525710000
11
306.2554280000
21
15.6680460000
0
LINE
5
4C5
100
AcDbEntity
8
05
100
AcDbLine
62
7
6
CONTINUOUS
10
308.8845520000
20
13.3571200000
11
307.4866310000
21
14.7550410000
0
LINE
5
4C6
100
AcDbEntity
8
05
100
AcDbLine
62
7
6
CONTINUOUS
10
308.9422940000
20
13.6175760000
11
307.5443730000
21
15.0154970000
0
LINE
5
4C7
100
AcDbEntity
8
05
100
AcDbLine
62
7
6
CONTINUOUS
10
309.0000350000
20
13.8780330000
11
307.6021150000
21
15.2759530000
0
LINE
5
4C8
100
AcDbEntity
8
05
100
AcDbLine
62
7
6
CONTINUOUS
10
309.9873140000
20
13.2089520000
11
309.8838210000
21
13.3124450000
0
LINE
5
4C9
100
AcDbEntity
8
05
100
AcDbLine
62
7
6
CONTINUOUS
10
309.0577770000
20
14.1384890000
11
307.6598560000
21
15.5364100000
0
LINE
5
4CA
100
AcDbEntity
8
05
100
AcDbLine
62
7
6
CONTINUOUS
10
310.3055120000
20
13.2089520000
11
309.9415630000
21
13.5729010000
0
LINE
5
4CB
100
AcDbEntity
8
05
100
AcDbLine
62
7
6
CONTINUOUS
10
309.1155190000
20
14.3989450000
11
307.8213920000
21
15.6930720000
0
LINE
5
4CC
100
AcDbEntity
8
05
100
AcDbLine
62
7
6
CONTINUOUS
10
310.6237100000
20
13.2089520000
11
309.9993050000
21
13.8333570000
0
LINE
5
4CD
100
AcDbEntity
8
05
100
AcDbLine
62
7
6
CONTINUOUS
10
309.1732610000
20
14.6594010000
11
308.1395900000
21
15.6930720000
0
LINE
5
4CE
100
AcDbEntity
8
05
100
AcDbLine
62
7
6
CONTINUOUS
10
310.9419080000
20
13.2089520000
11
310.0570460000
21
14.0938140000
0
LINE
5
4CF
100
AcDbEntity
8
05
100
AcDbLine
62
7
6
CONTINUOUS
10
309.2310020000
20
14.9198580000
11
308.4577880000
21
15.6930720000
0
LINE
5
4D0
100
AcDbEntity
8
05
100
AcDbLine
62
7
6
CONTINUOUS
10
311.2601060000
20
13.2089520000
11
310.1147880000
21
14.3542700000
0
LINE
5
4D1
100
AcDbEntity
8
05
100
AcDbLine
62
7
6
CONTINUOUS
10
309.2887440000
20
15.1803140000
11
308.7759860000
21
15.6930720000
0
LINE
5
4D2
100
AcDbEntity
8
05
100
AcDbLine
62
7
6
CONTINUOUS
10
311.5069090000
20
13.2803470000
11
310.1725300000
21
14.6147260000
0
LINE
5
4D3
100
AcDbEntity
8
05
100
AcDbLine
62
7
6
CONTINUOUS
10
309.3464860000
20
15.4407700000
11
309.0941840000
21
15.6930720000
0
LINE
5
4D4
100
AcDbEntity
8
05
100
AcDbLine
62
7
6
CONTINUOUS
10
311.5646510000
20
13.5408040000
11
310.2302720000
21
14.8751820000
0
LINE
5
4D5
100
AcDbEntity
8
05
100
AcDbLine
62
7
6
CONTINUOUS
10
311.6223920000
20
13.8012600000
11
310.2880140000
21
15.1356390000
0
LINE
5
4D6
100
AcDbEntity
8
05
100
AcDbLine
62
7
6
CONTINUOUS
10
311.8272750000
20
13.9145760000
11
310.3457550000
21
15.3960950000
0
LINE
5
4D7
100
AcDbEntity
8
05
100
AcDbLine
62
7
6
CONTINUOUS
10
312.0503950000
20
14.0096540000
11
310.4034970000
21
15.6565510000
0
LINE
5
4D8
100
AcDbEntity
8
05
100
AcDbLine
62
7
6
CONTINUOUS
10
312.2735140000
20
14.1047320000
11
310.6851740000
21
15.6930720000
0
LINE
5
4D9
100
AcDbEntity
8
05
100
AcDbLine
62
7
6
CONTINUOUS
10
313.4874920000
20
13.2089520000
11
311.0033720000
21
15.6930720000
0
LINE
5
4DA
100
AcDbEntity
8
05
100
AcDbLine
62
7
6
CONTINUOUS
10
313.8056900000
20
13.2089520000
11
312.0702760000
21
14.9443670000
0
LINE
5
4DB
100
AcDbEntity
8
05
100
AcDbLine
62
7
6
CONTINUOUS
10
311.9111010000
20
15.1035410000
11
311.3215710000
21
15.6930720000
0
LINE
5
4DC
100
AcDbEntity
8
05
100
AcDbLine
62
7
6
CONTINUOUS
10
314.1238880000
20
13.2089520000
11
312.2933950000
21
15.0394450000
0
LINE
5
4DD
100
AcDbEntity
8
05
100
AcDbLine
62
7
6
CONTINUOUS
10
311.9688430000
20
15.3639980000
11
311.6397690000
21
15.6930720000
0
LINE
5
4DE
100
AcDbEntity
8
05
100
AcDbLine
62
7
6
CONTINUOUS
10
314.4420860000
20
13.2089520000
11
312.5165150000
21
15.1345230000
0
LINE
5
4DF
100
AcDbEntity
8
05
100
AcDbLine
62
7
6
CONTINUOUS
10
312.0265850000
20
15.6244540000
11
311.9579670000
21
15.6930720000
0
LINE
5
4E0
100
AcDbEntity
8
05
100
AcDbLine
62
7
6
CONTINUOUS
10
314.7602840000
20
13.2089520000
11
312.7396350000
21
15.2296020000
0
LINE
5
4E1
100
AcDbEntity
8
05
100
AcDbLine
62
7
6
CONTINUOUS
10
315.0784820000
20
13.2089520000
11
312.9627550000
21
15.3246800000
0
LINE
5
4E2
100
AcDbEntity
8
05
100
AcDbLine
62
7
6
CONTINUOUS
10
315.3966810000
20
13.2089520000
11
313.1858740000
21
15.4197580000
0
LINE
5
4E3
100
AcDbEntity
8
05
100
AcDbLine
62
7
6
CONTINUOUS
10
314.0584720000
20
14.8653590000
11
313.4089940000
21
15.5148370000
0
LINE
5
4E4
100
AcDbEntity
8
05
100
AcDbLine
62
7
6
CONTINUOUS
10
314.2815920000
20
14.9604370000
11
313.6321140000
21
15.6099150000
0
LINE
5
4E5
100
AcDbEntity
8
05
100
AcDbLine
62
7
6
CONTINUOUS
10
314.5047120000
20
15.0555150000
11
313.8671550000
21
15.6930720000
0
LINE
5
4E6
100
AcDbEntity
8
05
100
AcDbLine
62
7
6
CONTINUOUS
10
314.7278310000
20
15.1505930000
11
314.1853530000
21
15.6930720000
0
LINE
5
4E7
100
AcDbEntity
8
05
100
AcDbLine
62
7
6
CONTINUOUS
10
314.9509510000
20
15.2456720000
11
314.5035510000
21
15.6930720000
0
LINE
5
4E8
100
AcDbEntity
8
05
100
AcDbLine
62
7
6
CONTINUOUS
10
315.1740710000
20
15.3407500000
11
314.8217490000
21
15.6930720000
0
LINE
5
4E9
100
AcDbEntity
8
05
100
AcDbLine
62
7
6
CONTINUOUS
10
315.3971910000
20
15.4358280000
11
315.1399470000
21
15.6930720000
0
LINE
5
4EA
100
AcDbEntity
8
05
100
AcDbLine
62
7
6
CONTINUOUS
10
315.6203100000
20
15.5309070000
11
315.4581450000
21
15.6930720000
0
LINE
5
4EB
100
AcDbEntity
8
05
100
AcDbLine
62
7
6
CONTINUOUS
10
315.8434300000
20
15.6259850000
11
315.7763430000
21
15.6930720000
0
LINE
5
4EC
100
AcDbEntity
8
05
100
AcDbLine
62
7
6
CONTINUOUS
10
318.5786610000
20
13.2089520000
11
318.5132270000
21
13.2743870000
0
LINE
5
4ED
100
AcDbEntity
8
05
100
AcDbLine
62
7
6
CONTINUOUS
10
318.8968590000
20
13.2089520000
11
318.6495970000
21
13.4562140000
0
LINE
5
4EE
100
AcDbEntity
8
05
100
AcDbLine
62
7
6
CONTINUOUS
10
319.2150570000
20
13.2089520000
11
318.7859680000
21
13.6380420000
0
LINE
5
4EF
100
AcDbEntity
8
05
100
AcDbLine
62
7
6
CONTINUOUS
10
319.5332550000
20
13.2089520000
11
318.9223380000
21
13.8198690000
0
LINE
5
4F0
100
AcDbEntity
8
05
100
AcDbLine
62
7
6
CONTINUOUS
10
319.8514530000
20
13.2089520000
11
319.0587090000
21
14.0016960000
0
LINE
5
4F1
100
AcDbEntity
8
05
100
AcDbLine
62
7
6
CONTINUOUS
10
320.1528720000
20
13.2257320000
11
319.1950800000
21
14.1835240000
0
LINE
5
4F2
100
AcDbEntity
8
05
100
AcDbLine
62
7
6
CONTINUOUS
10
320.2892420000
20
13.4075590000
11
319.3314500000
21
14.3653510000
0
LINE
5
4F3
100
AcDbEntity
8
05
100
AcDbLine
62
7
6
CONTINUOUS
10
320.4256130000
20
13.5893870000
11
319.4678210000
21
14.5471790000
0
LINE
5
4F4
100
AcDbEntity
8
05
100
AcDbLine
62
7
6
CONTINUOUS
10
320.6442140000
20
13.6889840000
11
319.6041910000
21
14.7290060000
0
LINE
5
4F5
100
AcDbEntity
8
05
100
AcDbLine
62
7
6
CONTINUOUS
10
320.9624120000
20
13.6889840000
11
319.7405620000
21
14.9108340000
0
LINE
5
4F6
100
AcDbEntity
8
05
100
AcDbLine
62
7
6
CONTINUOUS
10
321.2806100000
20
13.6889840000
11
320.9074220000
21
14.0621710000
0
LINE
5
4F7
100
AcDbEntity
8
05
100
AcDbLine
62
7
6
CONTINUOUS
10
320.8347250000
20
14.1348690000
11
319.8769330000
21
15.0926610000
0
LINE
5
4F8
100
AcDbEntity
8
05
100
AcDbLine
62
7
6
CONTINUOUS
10
321.5988080000
20
13.6889840000
11
321.2256200000
21
14.0621710000
0
LINE
5
4F9
100
AcDbEntity
8
05
100
AcDbLine
62
7
6
CONTINUOUS
10
320.9710950000
20
14.3166960000
11
320.0133030000
21
15.2744890000
0
LINE
5
4FA
100
AcDbEntity
8
05
100
AcDbLine
62
7
6
CONTINUOUS
10
322.3970380000
20
13.2089520000
11
322.3290410000
21
13.2769490000
0
LINE
5
4FB
100
AcDbEntity
8
05
100
AcDbLine
62
7
6
CONTINUOUS
10
321.1074660000
20
14.4985240000
11
320.1496740000
21
15.4563160000
0
LINE
5
4FC
100
AcDbEntity
8
05
100
AcDbLine
62
7
6
CONTINUOUS
10
321.9170060000
20
13.6889840000
11
321.5438180000
21
14.0621710000
0
LINE
5
4FD
100
AcDbEntity
8
05
100
AcDbLine
62
7
6
CONTINUOUS
10
322.7152360000
20
13.2089520000
11
321.8620160000
21
14.0621710000
0
LINE
5
4FE
100
AcDbEntity
8
05
100
AcDbLine
62
7
6
CONTINUOUS
10
321.2438370000
20
14.6803510000
11
320.2860440000
21
15.6381440000
0
LINE
5
4FF
100
AcDbEntity
8
05
100
AcDbLine
62
7
6
CONTINUOUS
10
323.0334340000
20
13.2089520000
11
322.1169090000
21
14.1254770000
0
LINE
5
500
100
AcDbEntity
8
05
100
AcDbLine
62
7
6
CONTINUOUS
10
321.3802070000
20
14.8621790000
11
320.5485850000
21
15.6938010000
0
LINE
5
501
100
AcDbEntity
8
05
100
AcDbLine
62
7
6
CONTINUOUS
10
323.3516320000
20
13.2089520000
11
322.0108430000
21
14.5497410000
0
LINE
5
502
100
AcDbEntity
8
05
100
AcDbLine
62
7
6
CONTINUOUS
10
321.5165780000
20
15.0440060000
11
320.8667830000
21
15.6938010000
0
LINE
5
503
100
AcDbEntity
8
05
100
AcDbLine
62
7
6
CONTINUOUS
10
323.6698300000
20
13.2089520000
11
321.9047770000
21
14.9740050000
0
LINE
5
504
100
AcDbEntity
8
05
100
AcDbLine
62
7
6
CONTINUOUS
10
321.6529480000
20
15.2258340000
11
321.1849810000
21
15.6938010000
0
LINE
5
505
100
AcDbEntity
8
05
100
AcDbLine
62
7
6
CONTINUOUS
10
323.8755950000
20
13.3213850000
11
321.7987110000
21
15.3982690000
0
LINE
5
506
100
AcDbEntity
8
05
100
AcDbLine
62
7
6
CONTINUOUS
10
321.7893190000
20
15.4076610000
11
321.5031790000
21
15.6938010000
0
LINE
5
507
100
AcDbEntity
8
05
100
AcDbLine
62
7
6
CONTINUOUS
10
323.7695290000
20
13.7456490000
11
321.8213770000
21
15.6938010000
0
LINE
5
508
100
AcDbEntity
8
05
100
AcDbLine
62
7
6
CONTINUOUS
10
323.6634630000
20
14.1699130000
11
322.1395760000
21
15.6938010000
0
LINE
5
509
100
AcDbEntity
8
05
100
AcDbLine
62
7
6
CONTINUOUS
10
324.7324920000
20
13.4190820000
11
324.6739720000
21
13.4776020000
0
LINE
5
50A
100
AcDbEntity
8
05
100
AcDbLine
62
7
6
CONTINUOUS
10
323.5573970000
20
14.5941770000
11
322.4577740000
21
15.6938010000
0
LINE
5
50B
100
AcDbEntity
8
05
100
AcDbLine
62
7
6
CONTINUOUS
10
325.1492980000
20
13.3204740000
11
324.6352250000
21
13.8345480000
0
LINE
5
50C
100
AcDbEntity
8
05
100
AcDbLine
62
7
6
CONTINUOUS
10
323.4513310000
20
15.0184410000
11
322.7759720000
21
15.6938010000
0
LINE
5
50D
100
AcDbEntity
8
05
100
AcDbLine
62
7
6
CONTINUOUS
10
325.5092820000
20
13.2786890000
11
324.6829220000
21
14.1050490000
0
LINE
5
50E
100
AcDbEntity
8
05
100
AcDbLine
62
7
6
CONTINUOUS
10
323.3452650000
20
15.4427050000
11
323.0941700000
21
15.6938010000
0
LINE
5
50F
100
AcDbEntity
8
05
100
AcDbLine
62
7
6
CONTINUOUS
10
325.8588570000
20
13.2473120000
11
324.7306180000
21
14.3755500000
0
LINE
5
510
100
AcDbEntity
8
05
100
AcDbLine
62
7
6
CONTINUOUS
10
326.1989400000
20
13.2254260000
11
324.7783150000
21
14.6460520000
0
LINE
5
511
100
AcDbEntity
8
05
100
AcDbLine
62
7
6
CONTINUOUS
10
326.5303060000
20
13.2122580000
11
324.8260120000
21
14.9165530000
0
LINE
5
512
100
AcDbEntity
8
05
100
AcDbLine
62
7
6
CONTINUOUS
10
326.8536160000
20
13.2071470000
11
324.8737080000
21
15.1870540000
0
LINE
5
513
100
AcDbEntity
8
05
100
AcDbLine
62
7
6
CONTINUOUS
10
327.1694370000
20
13.2095230000
11
326.7175430000
21
13.6614180000
0
LINE
5
514
100
AcDbEntity
8
05
100
AcDbLine
62
7
6
CONTINUOUS
10
326.2416420000
20
14.1373190000
11
324.9704990000
21
15.4084620000
0
LINE
5
515
100
AcDbEntity
8
05
100
AcDbLine
62
7
6
CONTINUOUS
10
327.4782650000
20
13.2188940000
11
327.0476490000
21
13.6495100000
0
LINE
5
516
100
AcDbEntity
8
05
100
AcDbLine
62
7
6
CONTINUOUS
10
326.2893390000
20
14.4078200000
11
325.1933910000
21
15.5037670000
0
LINE
5
517
100
AcDbEntity
8
05
100
AcDbLine
62
7
6
CONTINUOUS
10
327.7805300000
20
13.2348260000
11
327.3498670000
21
13.6654900000
0
LINE
5
518
100
AcDbEntity
8
05
100
AcDbLine
62
7
6
CONTINUOUS
10
326.3370350000
20
14.6783210000
11
325.4681720000
21
15.5471850000
0
LINE
5
519
100
AcDbEntity
8
05
100
AcDbLine
62
7
6
CONTINUOUS
10
328.1246030000
20
13.2089520000
11
327.6300090000
21
13.7035460000
0
LINE
5
51A
100
AcDbEntity
8
05
100
AcDbLine
62
7
6
CONTINUOUS
10
326.3847320000
20
14.9488230000
11
325.7480050000
21
15.5855500000
0
LINE
5
51B
100
AcDbEntity
8
05
100
AcDbLine
62
7
6
CONTINUOUS
10
328.4428010000
20
13.2089520000
11
327.8555260000
21
13.7962270000
0
LINE
5
51C
100
AcDbEntity
8
05
100
AcDbLine
62
7
6
CONTINUOUS
10
326.5029990000
20
15.1487530000
11
326.0331350000
21
15.6186170000
0
LINE
5
51D
100
AcDbEntity
8
05
100
AcDbLine
62
7
6
CONTINUOUS
10
327.5731040000
20
14.0786490000
11
327.3801960000
21
14.2715570000
0
LINE
5
51E
100
AcDbEntity
8
05
100
AcDbLine
62
7
6
CONTINUOUS
10
328.7609990000
20
13.2089520000
11
327.9559880000
21
14.0139630000
0
LINE
5
51F
100
AcDbEntity
8
05
100
AcDbLine
62
7
6
CONTINUOUS
10
326.7450410000
20
15.2249100000
11
326.3238330000
21
15.6461180000
0
LINE
5
520
100
AcDbEntity
8
05
100
AcDbLine
62
7
6
CONTINUOUS
10
327.8913020000
20
14.0786490000
11
327.6685740000
21
14.3013760000
0
LINE
5
521
100
AcDbEntity
8
05
100
AcDbLine
62
7
6
CONTINUOUS
10
329.0791970000
20
13.2089520000
11
327.9867720000
21
14.3013760000
0
LINE
5
522
100
AcDbEntity
8
05
100
AcDbLine
62
7
6
CONTINUOUS
10
327.0342750000
20
15.2538740000
11
326.6204010000
21
15.6677480000
0
LINE
5
523
100
AcDbEntity
8
05
100
AcDbLine
62
7
6
CONTINUOUS
10
329.3716180000
20
13.2347290000
11
328.3049710000
21
14.3013760000
0
LINE
5
524
100
AcDbEntity
8
05
100
AcDbLine
62
7
6
CONTINUOUS
10
327.3477810000
20
15.2585660000
11
326.9231780000
21
15.6831690000
0
LINE
5
525
100
AcDbEntity
8
05
100
AcDbLine
62
7
6
CONTINUOUS
10
329.4193150000
20
13.5052300000
11
328.6231690000
21
14.3013760000
0
LINE
5
526
100
AcDbEntity
8
05
100
AcDbLine
62
7
6
CONTINUOUS
10
327.6928320000
20
15.2317130000
11
327.2325510000
21
15.6919940000
0
LINE
5
527
100
AcDbEntity
8
05
100
AcDbLine
62
7
6
CONTINUOUS
10
329.4670110000
20
13.7757320000
11
328.9413670000
21
14.3013760000
0
LINE
5
528
100
AcDbEntity
8
05
100
AcDbLine
62
7
6
CONTINUOUS
10
328.2787500000
20
14.9639930000
11
327.5489540000
21
15.6937890000
0
LINE
5
529
100
AcDbEntity
8
05
100
AcDbLine
62
7
6
CONTINUOUS
10
329.5147080000
20
14.0462330000
11
329.2595650000
21
14.3013760000
0
LINE
5
52A
100
AcDbEntity
8
05
100
AcDbLine
62
7
6
CONTINUOUS
10
328.5969480000
20
14.9639930000
11
327.8728890000
21
15.6880520000
0
LINE
5
52B
100
AcDbEntity
8
05
100
AcDbLine
62
7
6
CONTINUOUS
10
328.9151460000
20
14.9639930000
11
328.2049290000
21
15.6742100000
0
LINE
5
52C
100
AcDbEntity
8
05
100
AcDbLine
62
7
6
CONTINUOUS
10
329.2333440000
20
14.9639930000
11
328.5457450000
21
15.6515930000
0
LINE
5
52D
100
AcDbEntity
8
05
100
AcDbLine
62
7
6
CONTINUOUS
10
329.5515420000
20
14.9639930000
11
328.8961190000
21
15.6194160000
0
LINE
5
52E
100
AcDbEntity
8
05
100
AcDbLine
62
7
6
CONTINUOUS
10
329.7054950000
20
15.1282390000
11
329.2569840000
21
15.5767500000
0
LINE
5
52F
100
AcDbEntity
8
035
100
AcDbLine
62
3
6
CONTINUOUS
10
278.1107220000
20
13.2089520000
11
279.8185550000
21
13.2089520000
0
LINE
5
530
100
AcDbEntity
8
035
100
AcDbLine
62
3
6
CONTINUOUS
10
278.6614380000
20
15.6930720000
11
280.6797860000
21
15.6930720000
0
LINE
5
531
100
AcDbEntity
8
035
100
AcDbLine
62
3
6
CONTINUOUS
10
278.1107220000
20
13.2089520000
11
278.6614380000
21
15.6930720000
0
LINE
5
532
100
AcDbEntity
8
035
100
AcDbLine
62
3
6
CONTINUOUS
10
279.8185550000
20
13.2089520000
11
280.1283320000
21
14.6062700000
0
LINE
5
533
100
AcDbEntity
8
035
100
AcDbLine
62
3
6
CONTINUOUS
10
283.6223630000
20
13.2089520000
11
284.1730790000
21
15.6930720000
0
LINE
5
534
100
AcDbEntity
8
035
100
AcDbLine
62
3
6
CONTINUOUS
10
282.2243080000
20
14.6062700000
11
282.4652470000
21
15.6930720000
0
LINE
5
535
100
AcDbEntity
8
035
100
AcDbLine
62
3
6
CONTINUOUS
10
280.1283320000
20
14.6062700000
11
281.6816440000
21
13.2089520000
0
LINE
5
536
100
AcDbEntity
8
035
100
AcDbLine
62
3
6
CONTINUOUS
10
280.6797860000
20
15.6930720000
11
282.2243080000
21
14.6062700000
0
LINE
5
537
100
AcDbEntity
8
035
100
AcDbLine
62
3
6
CONTINUOUS
10
282.4652470000
20
15.6930720000
11
284.1730790000
21
15.6930720000
0
LINE
5
538
100
AcDbEntity
8
035
100
AcDbLine
62
3
6
CONTINUOUS
10
281.6816440000
20
13.2089520000
11
283.6223630000
21
13.2089520000
0
LINE
5
539
100
AcDbEntity
8
035
100
AcDbLine
62
3
6
CONTINUOUS
10
284.4762790000
20
13.2089520000
11
285.0269950000
21
15.6930720000
0
LINE
5
53A
100
AcDbEntity
8
035
100
AcDbLine
62
3
6
CONTINUOUS
10
286.2816520000
20
13.6489310000
11
286.4273260000
21
14.3060230000
0
LINE
5
53B
100
AcDbEntity
8
035
100
AcDbLine
62
3
6
CONTINUOUS
10
289.1443320000
20
14.3060230000
11
289.2086190000
21
14.5960010000
0
LINE
5
53C
100
AcDbEntity
8
035
100
AcDbLine
62
3
6
CONTINUOUS
10
289.1340040000
20
13.2089520000
11
289.2315440000
21
13.6489310000
0
LINE
5
53D
100
AcDbEntity
8
035
100
AcDbLine
62
3
6
CONTINUOUS
10
284.4762790000
20
13.2089520000
11
289.1340040000
21
13.2089520000
0
LINE
5
53E
100
AcDbEntity
8
035
100
AcDbLine
62
3
6
CONTINUOUS
10
285.0269950000
20
15.6930720000
11
289.6847200000
21
15.6930720000
0
LINE
5
53F
100
AcDbEntity
8
035
100
AcDbLine
62
3
6
CONTINUOUS
10
286.4916130000
20
14.5960010000
11
286.6372870000
21
15.2530940000
0
LINE
5
540
100
AcDbEntity
8
035
100
AcDbLine
62
3
6
CONTINUOUS
10
289.5871790000
20
15.2530940000
11
289.6847200000
21
15.6930720000
0
LINE
5
541
100
AcDbEntity
8
035
100
AcDbLine
62
3
6
CONTINUOUS
10
290.0785120000
20
13.9677470000
11
290.4610070000
21
15.6930720000
0
LINE
5
542
100
AcDbEntity
8
035
100
AcDbLine
62
3
6
CONTINUOUS
10
291.8294160000
20
14.1814320000
11
292.1645380000
21
15.6930720000
0
LINE
5
543
100
AcDbEntity
8
035
100
AcDbLine
62
3
6
CONTINUOUS
10
293.6970730000
20
14.1008870000
11
294.0500510000
21
15.6930720000
0
LINE
5
544
100
AcDbEntity
8
035
100
AcDbLine
62
3
6
CONTINUOUS
10
295.3443260000
20
13.8470990000
11
295.7535680000
21
15.6930720000
0
LINE
5
545
100
AcDbEntity
8
035
100
AcDbLine
62
3
6
CONTINUOUS
10
290.4610070000
20
15.6930720000
11
292.1645380000
21
15.6930720000
0
ARC
5
546
100
AcDbEntity
8
035
100
AcDbCircle
62
3
6
CONTINUOUS
10
290.3565382511
20
13.9076074747
40
0.2844562511
100
AcDbArc
50
167.7944635173
51
179.9992899294
0
ARC
5
547
100
AcDbEntity
8
035
100
AcDbCircle
62
3
6
CONTINUOUS
10
290.3565385413
20
13.9076113390
40
0.2844565413
100
AcDbArc
50
180.0000682898
51
234.6229224813
0
ARC
5
548
100
AcDbEntity
8
035
100
AcDbCircle
62
3
6
CONTINUOUS
10
291.4662366591
20
15.4704306902
40
2.2011814138
100
AcDbArc
50
234.6229020698
51
253.6104761870
0
ARC
5
549
100
AcDbEntity
8
035
100
AcDbCircle
62
3
6
CONTINUOUS
10
292.2145988754
20
18.0148393689
40
4.8533619377
100
AcDbArc
50
253.6103910211
51
263.0540333551
0
ARC
5
54A
100
AcDbEntity
8
035
100
AcDbCircle
62
3
6
CONTINUOUS
10
292.7114581813
20
22.0931766141
40
8.9618536141
100
AcDbArc
50
263.0539945915
51
270.0000116273
0
ARC
5
54B
100
AcDbEntity
8
035
100
AcDbCircle
62
3
6
CONTINUOUS
10
292.7114613187
20
22.0931683755
40
8.9618453755
100
AcDbArc
50
269.9999915694
51
276.9460086052
0
ARC
5
54C
100
AcDbEntity
8
035
100
AcDbCircle
62
3
6
CONTINUOUS
10
293.2083201246
20
18.0148393689
40
4.8533619377
100
AcDbArc
50
276.9459666449
51
286.3896089789
0
ARC
5
54D
100
AcDbEntity
8
035
100
AcDbCircle
62
3
6
CONTINUOUS
10
293.9566823409
20
15.4704306902
40
2.2011814138
100
AcDbArc
50
286.3895238130
51
305.3770979302
0
ARC
5
54E
100
AcDbEntity
8
035
100
AcDbCircle
62
3
6
CONTINUOUS
10
295.0663810713
20
13.9076107687
40
0.2844557216
100
AcDbArc
50
305.3770434265
51
347.7177170673
0
ARC
5
54F
100
AcDbEntity
8
035
100
AcDbCircle
62
3
6
CONTINUOUS
10
292.0025297663
20
14.1404964568
40
0.1778877663
100
AcDbArc
50
179.9998250514
51
225.0422913416
0
ARC
5
550
100
AcDbEntity
8
035
100
AcDbCircle
62
3
6
CONTINUOUS
10
292.3618635061
20
14.5003622419
40
0.6864387665
100
AcDbArc
50
225.0423614170
51
247.5300128082
0
ARC
5
551
100
AcDbEntity
8
035
100
AcDbCircle
62
3
6
CONTINUOUS
10
292.6034918176
20
15.0845620937
40
1.3186362892
100
AcDbArc
50
247.5298821870
51
260.2785491795
0
ARC
5
552
100
AcDbEntity
8
035
100
AcDbCircle
62
3
6
CONTINUOUS
10
292.7630903846
20
16.0161117087
40
2.2637587087
100
AcDbArc
50
260.2783770082
51
269.9999902662
0
ARC
5
553
100
AcDbEntity
8
035
100
AcDbCircle
62
3
6
CONTINUOUS
10
292.7630896154
20
16.0161117087
40
2.2637587087
100
AcDbArc
50
270.0000097338
51
279.7216229918
0
ARC
5
554
100
AcDbEntity
8
035
100
AcDbCircle
62
3
6
CONTINUOUS
10
292.9226881824
20
15.0845620937
40
1.3186362892
100
AcDbArc
50
279.7214508205
51
292.4701178130
0
ARC
5
555
100
AcDbEntity
8
035
100
AcDbCircle
62
3
6
CONTINUOUS
10
293.1643164939
20
14.5003622419
40
0.6864387665
100
AcDbArc
50
292.4699871918
51
314.9576385830
0
ARC
5
556
100
AcDbEntity
8
035
100
AcDbCircle
62
3
6
CONTINUOUS
10
293.5236507293
20
14.1404979651
40
0.1778884834
100
AcDbArc
50
314.9572524508
51
347.1339192357
0
ARC
5
557
100
AcDbEntity
8
035
100
AcDbCircle
62
3
6
CONTINUOUS
10
292.0025290776
20
14.1404969937
40
0.1778870776
100
AcDbArc
50
166.6959850486
51
179.9999979692
0
LINE
5
558
100
AcDbEntity
8
035
100
AcDbLine
62
3
6
CONTINUOUS
10
294.0500510000
20
15.6930720000
11
295.7535680000
21
15.6930720000
0
LINE
5
559
100
AcDbEntity
8
035
100
AcDbLine
62
3
6
CONTINUOUS
10
296.0678550000
20
15.0720420000
11
296.2055340000
21
15.6930720000
0
LINE
5
55A
100
AcDbEntity
8
035
100
AcDbLine
62
3
6
CONTINUOUS
10
297.2073930000
20
13.2089520000
11
297.6204300000
21
15.0720420000
0
LINE
5
55B
100
AcDbEntity
8
035
100
AcDbLine
62
3
6
CONTINUOUS
10
298.9152250000
20
13.2089520000
11
299.3282620000
21
15.0720420000
0
LINE
5
55C
100
AcDbEntity
8
035
100
AcDbLine
62
3
6
CONTINUOUS
10
300.9584660000
20
15.0720420000
11
301.0961450000
21
15.6930720000
0
LINE
5
55D
100
AcDbEntity
8
035
100
AcDbLine
62
3
6
CONTINUOUS
10
296.0678550000
20
15.0720420000
11
297.6204300000
21
15.0720420000
0
LINE
5
55E
100
AcDbEntity
8
035
100
AcDbLine
62
3
6
CONTINUOUS
10
297.2073930000
20
13.2089520000
11
298.9152250000
21
13.2089520000
0
LINE
5
55F
100
AcDbEntity
8
035
100
AcDbLine
62
3
6
CONTINUOUS
10
296.2055340000
20
15.6930720000
11
301.0961450000
21
15.6930720000
0
LINE
5
560
100
AcDbEntity
8
035
100
AcDbLine
62
3
6
CONTINUOUS
10
299.3282620000
20
15.0720420000
11
300.9584660000
21
15.0720420000
0
LINE
5
561
100
AcDbEntity
8
035
100
AcDbLine
62
3
6
CONTINUOUS
10
301.0888300000
20
13.2089520000
11
301.6395460000
21
15.6930720000
0
LINE
5
562
100
AcDbEntity
8
035
100
AcDbLine
62
3
6
CONTINUOUS
10
302.7966620000
20
13.2089520000
11
303.0020150000
21
14.1352400000
0
LINE
5
563
100
AcDbEntity
8
035
100
AcDbLine
62
3
6
CONTINUOUS
10
301.0888300000
20
13.2089520000
11
302.7966620000
21
13.2089520000
0
LINE
5
564
100
AcDbEntity
8
035
100
AcDbLine
62
3
6
CONTINUOUS
10
301.6395460000
20
15.6930720000
11
305.9979220000
21
15.6930720000
0
LINE
5
565
100
AcDbEntity
8
035
100
AcDbLine
62
3
6
CONTINUOUS
10
306.3081340000
20
13.4689140000
11
306.3485860000
21
14.0474050000
0
LINE
5
566
100
AcDbEntity
8
035
100
AcDbLine
62
3
6
CONTINUOUS
10
304.5959630000
20
13.4068680000
11
304.6272290000
21
13.8619210000
0
LINE
5
567
100
AcDbEntity
8
035
100
AcDbLine
62
3
6
CONTINUOUS
10
303.0663020000
20
14.4252180000
11
303.2498370000
21
15.2530940000
0
ARC
5
568
100
AcDbEntity
8
035
100
AcDbCircle
62
3
6
CONTINUOUS
10
306.6953320000
20
13.4418380000
40
0.3881440000
100
AcDbArc
50
176.0000000000
51
216.8698980000
0
ARC
5
569
100
AcDbEntity
8
035
100
AcDbCircle
62
3
6
CONTINUOUS
10
304.9697530000
20
13.4119050000
40
0.3738240000
100
AcDbArc
50
180.7720050000
51
212.8818750000
0
LINE
5
56A
100
AcDbEntity
8
035
100
AcDbLine
62
3
6
CONTINUOUS
10
304.6558180000
20
13.2089520000
11
306.3848170000
21
13.2089520000
0
ARC
5
56B
100
AcDbEntity
8
035
100
AcDbCircle
62
3
6
CONTINUOUS
10
306.0645091256
20
14.0692414046
40
0.2849148980
100
AcDbArc
50
355.6044351018
51
14.9998321139
0
ARC
5
56C
100
AcDbEntity
8
035
100
AcDbCircle
62
3
6
CONTINUOUS
10
306.0645115927
20
14.0692393407
40
0.2849130492
100
AcDbArc
50
15.0003614107
51
49.8062951149
0
ARC
5
56D
100
AcDbEntity
8
035
100
AcDbCircle
62
3
6
CONTINUOUS
10
305.8802286242
20
13.8511285638
40
0.5704520544
100
AcDbArc
50
49.8058236467
51
55.6063554031
0
ARC
5
56E
100
AcDbEntity
8
035
100
AcDbCircle
62
3
6
CONTINUOUS
10
305.3132482994
20
16.1994672129
40
2.0775325922
100
AcDbArc
50
295.3416402972
51
298.8636783469
0
ARC
5
56F
100
AcDbEntity
8
035
100
AcDbCircle
62
3
6
CONTINUOUS
10
305.6415395293
20
15.6038639832
40
1.3974455839
100
AcDbArc
50
298.8639281557
51
315.7882926038
0
ARC
5
570
100
AcDbEntity
8
035
100
AcDbCircle
62
3
6
CONTINUOUS
10
305.9889757242
20
15.2658585190
40
0.9127192659
100
AcDbArc
50
315.7883093494
51
340.1939355680
0
ARC
5
571
100
AcDbEntity
8
035
100
AcDbCircle
62
3
6
CONTINUOUS
10
306.4188091494
20
15.1110581593
40
0.4558605079
100
AcDbArc
50
340.1938658204
51
14.9997995246
0
ARC
5
572
100
AcDbEntity
8
035
100
AcDbCircle
62
3
6
CONTINUOUS
10
306.4188087341
20
15.1110565785
40
0.4558613183
100
AcDbArc
50
14.9999779363
51
49.8059116405
0
ARC
5
573
100
AcDbEntity
8
035
100
AcDbCircle
62
3
6
CONTINUOUS
10
306.1239631890
20
14.7620752320
40
0.9127222113
100
AcDbArc
50
49.8061438314
51
74.2117700500
0
ARC
5
574
100
AcDbEntity
8
035
100
AcDbCircle
62
3
6
CONTINUOUS
10
305.9920781414
20
14.2956381767
40
1.3974460423
100
AcDbArc
50
74.2117641360
51
89.7603990413
0
LINE
5
575
100
AcDbEntity
8
035
100
AcDbLine
62
3
6
CONTINUOUS
10
307.1438710000
20
13.2089520000
11
307.6945880000
21
15.6930720000
0
LINE
5
576
100
AcDbEntity
8
035
100
AcDbLine
62
3
6
CONTINUOUS
10
308.8517040000
20
13.2089520000
11
309.4024200000
21
15.6930720000
0
LINE
5
577
100
AcDbEntity
8
035
100
AcDbLine
62
3
6
CONTINUOUS
10
307.1438710000
20
13.2089520000
11
308.8517040000
21
13.2089520000
0
LINE
5
578
100
AcDbEntity
8
035
100
AcDbLine
62
3
6
CONTINUOUS
10
307.6945880000
20
15.6930720000
11
309.4024200000
21
15.6930720000
0
LINE
5
579
100
AcDbEntity
8
035
100
AcDbLine
62
3
6
CONTINUOUS
10
309.8608770000
20
13.2089520000
11
310.4115940000
21
15.6930720000
0
LINE
5
57A
100
AcDbEntity
8
035
100
AcDbLine
62
3
6
CONTINUOUS
10
311.4910810000
20
13.2089520000
11
311.6287600000
21
13.8299820000
0
LINE
5
57B
100
AcDbEntity
8
035
100
AcDbLine
62
3
6
CONTINUOUS
10
310.4115940000
20
15.6930720000
11
312.0417970000
21
15.6930720000
0
LINE
5
57C
100
AcDbEntity
8
035
100
AcDbLine
62
3
6
CONTINUOUS
10
309.8608770000
20
13.2089520000
11
311.4910810000
21
13.2089520000
0
LINE
5
57D
100
AcDbEntity
8
035
100
AcDbLine
62
3
6
CONTINUOUS
10
311.6287600000
20
13.8299820000
11
312.3574440000
21
14.1404970000
0
LINE
5
57E
100
AcDbEntity
8
035
100
AcDbLine
62
3
6
CONTINUOUS
10
311.8555250000
20
14.8528550000
11
313.8272580000
21
15.6930720000
0
LINE
5
57F
100
AcDbEntity
8
035
100
AcDbLine
62
3
6
CONTINUOUS
10
313.8272580000
20
15.6930720000
11
316.0008630000
21
15.6930720000
0
LINE
5
580
100
AcDbEntity
8
035
100
AcDbLine
62
3
6
CONTINUOUS
10
312.3574440000
20
14.1404970000
11
313.2765420000
21
13.2089520000
0
LINE
5
581
100
AcDbEntity
8
035
100
AcDbLine
62
3
6
CONTINUOUS
10
313.9969820000
20
14.8391560000
11
315.6054040000
21
13.2089520000
0
LINE
5
582
100
AcDbEntity
8
035
100
AcDbLine
62
3
6
CONTINUOUS
10
313.9969820000
20
14.8391560000
11
316.0008630000
21
15.6930720000
0
LINE
5
583
100
AcDbEntity
8
035
100
AcDbLine
62
3
6
CONTINUOUS
10
311.8555250000
20
14.8528550000
11
312.0417970000
21
15.6930720000
0
LINE
5
584
100
AcDbEntity
8
035
100
AcDbLine
62
3
6
CONTINUOUS
10
313.2765420000
20
13.2089520000
11
315.6054040000
21
13.2089520000
0
LINE
5
585
100
AcDbEntity
8
035
100
AcDbLine
62
3
6
CONTINUOUS
10
318.4641510000
20
13.2089520000
11
320.1402870000
21
13.2089520000
0
LINE
5
586
100
AcDbEntity
8
035
100
AcDbLine
62
3
6
CONTINUOUS
10
320.3277870000
20
15.6938010000
11
323.2824910000
21
15.6938010000
0
LINE
5
587
100
AcDbEntity
8
035
100
AcDbLine
62
3
6
CONTINUOUS
10
318.4641510000
20
13.2089520000
11
320.3277870000
21
15.6938010000
0
LINE
5
588
100
AcDbEntity
8
035
100
AcDbLine
62
3
6
CONTINUOUS
10
323.2824910000
20
15.6938010000
11
323.9037030000
21
13.2089520000
0
LINE
5
589
100
AcDbEntity
8
035
100
AcDbLine
62
3
6
CONTINUOUS
10
320.5003110000
20
13.6889840000
11
322.2260320000
21
13.6889840000
0
LINE
5
58A
100
AcDbEntity
8
035
100
AcDbLine
62
3
6
CONTINUOUS
10
320.7802020000
20
14.0621710000
11
322.1327350000
21
14.0621710000
0
LINE
5
58B
100
AcDbEntity
8
035
100
AcDbLine
62
3
6
CONTINUOUS
10
324.6150190000
20
13.7199520000
11
324.8833800000
21
15.2419070000
0
LINE
5
58C
100
AcDbEntity
8
035
100
AcDbLine
62
3
6
CONTINUOUS
10
329.3670730000
20
13.2089520000
11
329.5596970000
21
14.3013760000
0
LINE
5
58D
100
AcDbEntity
8
035
100
AcDbLine
62
3
6
CONTINUOUS
10
326.2261250000
20
14.0493180000
11
326.3860210000
21
14.9561340000
0
LINE
5
58E
100
AcDbEntity
8
035
100
AcDbLine
62
3
6
CONTINUOUS
10
327.8140420000
20
13.2089520000
11
327.8190480000
21
13.2373380000
0
LINE
5
58F
100
AcDbEntity
8
035
100
AcDbLine
62
3
6
CONTINUOUS
10
327.3461810000
20
14.0786490000
11
327.3854540000
21
14.3013760000
0
LINE
5
590
100
AcDbEntity
8
035
100
AcDbLine
62
3
6
CONTINUOUS
10
327.3461810000
20
14.0786490000
11
327.9673930000
21
14.0786490000
0
ARC
5
591
100
AcDbEntity
8
035
100
AcDbCircle
62
3
6
CONTINUOUS
10
327.4684270000
20
1.9968720000
40
13.6971530000
100
AcDbArc
50
81.6598950000
51
99.8027900000
0
ARC
5
592
100
AcDbEntity
8
035
100
AcDbCircle
62
3
6
CONTINUOUS
10
326.9084660000
20
26.9041900000
40
13.6971530000
100
AcDbArc
50
261.4614730000
51
273.8118150000
0
ARC
5
593
100
AcDbEntity
8
035
100
AcDbCircle
62
3
6
CONTINUOUS
10
325.1892670000
20
15.1879710000
40
0.3106060000
100
AcDbArc
50
99.8027900000
51
170.0000000000
0
ARC
5
594
100
AcDbEntity
8
035
100
AcDbCircle
62
3
6
CONTINUOUS
10
324.9209060000
20
13.6660160000
40
0.3106060000
100
AcDbArc
50
170.0000000000
51
261.4614730000
0
ARC
5
595
100
AcDbEntity
8
035
100
AcDbCircle
62
3
6
CONTINUOUS
10
329.4101300000
20
15.2418500000
40
0.3106060000
100
AcDbArc
50
350.0000000000
51
81.6598950000
0
LINE
5
596
100
AcDbEntity
8
035
100
AcDbLine
62
3
6
CONTINUOUS
10
328.1015710000
20
14.9639930000
11
329.6765340000
21
14.9639930000
0
LINE
5
597
100
AcDbEntity
8
035
100
AcDbLine
62
3
6
CONTINUOUS
10
329.6765340000
20
14.9639930000
11
329.7160170000
21
15.1879140000
0
LINE
5
598
100
AcDbEntity
8
035
100
AcDbLine
62
3
6
CONTINUOUS
10
327.9478530000
20
13.9678320000
11
327.9673930000
21
14.0786490000
0
ARC
5
599
100
AcDbEntity
8
035
100
AcDbCircle
62
3
6
CONTINUOUS
10
327.2442760000
20
11.6982740000
40
3.5617970000
100
AcDbArc
50
80.2083390000
51
99.7818250000
0
ARC
5
59A
100
AcDbEntity
8
035
100
AcDbCircle
62
3
6
CONTINUOUS
10
327.0108590000
20
17.2111170000
40
3.5617970000
100
AcDbArc
50
261.5304680000
51
281.1930680000
0
ARC
5
59B
100
AcDbEntity
8
035
100
AcDbCircle
62
3
6
CONTINUOUS
10
326.6919080000
20
14.9021980000
40
0.3106060000
100
AcDbArc
50
99.7818250000
51
170.0000000000
0
ARC
5
59C
100
AcDbEntity
8
035
100
AcDbCircle
62
3
6
CONTINUOUS
10
327.7971930000
20
14.9021030000
40
0.3106060000
100
AcDbArc
50
11.4934250000
51
80.2083390000
0
ARC
5
59D
100
AcDbEntity
8
035
100
AcDbCircle
62
3
6
CONTINUOUS
10
326.5320120000
20
13.9953820000
40
0.3106060000
100
AcDbArc
50
170.0000000000
51
261.5304680000
0
ARC
5
59E
100
AcDbEntity
8
035
100
AcDbCircle
62
3
6
CONTINUOUS
10
327.6419660000
20
14.0217680000
40
0.3106060000
100
AcDbArc
50
281.1930680000
51
350.0000000000
0
LINE
5
59F
100
AcDbEntity
8
035
100
AcDbLine
62
3
6
CONTINUOUS
10
327.8140420000
20
13.2089520000
11
329.3670730000
21
13.2089520000
0
LINE
5
5A0
100
AcDbEntity
8
035
100
AcDbLine
62
3
6
CONTINUOUS
10
322.3460400000
20
13.2089520000
11
323.9037030000
21
13.2089520000
0
LINE
5
5A1
100
AcDbEntity
8
035
100
AcDbLine
62
3
6
CONTINUOUS
10
286.6372870000
20
15.2530940000
11
289.5871790000
21
15.2530940000
0
LINE
5
5A2
100
AcDbEntity
8
035
100
AcDbLine
62
3
6
CONTINUOUS
10
286.4916130000
20
14.5960010000
11
289.2086190000
21
14.5960010000
0
LINE
5
5A3
100
AcDbEntity
8
035
100
AcDbLine
62
3
6
CONTINUOUS
10
286.4273260000
20
14.3060230000
11
289.1443320000
21
14.3060230000
0
LINE
5
5A4
100
AcDbEntity
8
035
100
AcDbLine
62
3
6
CONTINUOUS
10
286.2816520000
20
13.6489310000
11
289.2315440000
21
13.6489310000
0
LINE
5
5A5
100
AcDbEntity
8
035
100
AcDbLine
62
3
6
CONTINUOUS
10
303.2498370000
20
15.2530940000
11
304.6563970000
21
15.2530940000
0
LINE
5
5A6
100
AcDbEntity
8
035
100
AcDbLine
62
3
6
CONTINUOUS
10
303.0663020000
20
14.4252180000
11
304.4266270000
21
14.4252180000
0
LINE
5
5A7
100
AcDbEntity
8
035
100
AcDbLine
62
3
6
CONTINUOUS
10
303.0020150000
20
14.1352400000
11
304.4509000000
21
14.1352400000
0
LINE
5
5A8
100
AcDbEntity
8
035
100
AcDbLine
62
3
6
CONTINUOUS
10
304.6563970000
20
15.2530940000
11
304.7674140000
21
15.2349300000
0
LINE
5
5A9
100
AcDbEntity
8
035
100
AcDbLine
62
3
6
CONTINUOUS
10
304.7674140000
20
15.2349300000
11
304.8636110000
21
15.1861990000
0
LINE
5
5AA
100
AcDbEntity
8
035
100
AcDbLine
62
3
6
CONTINUOUS
10
304.8636110000
20
15.1861990000
11
304.9097870000
21
15.1118220000
0
LINE
5
5AB
100
AcDbEntity
8
035
100
AcDbLine
62
3
6
CONTINUOUS
10
304.9097870000
20
15.1118220000
11
304.9456990000
21
15.0220570000
0
LINE
5
5AC
100
AcDbEntity
8
035
100
AcDbLine
62
3
6
CONTINUOUS
10
304.9456990000
20
15.0220570000
11
304.9469830000
21
14.9246000000
0
LINE
5
5AD
100
AcDbEntity
8
035
100
AcDbLine
62
3
6
CONTINUOUS
10
304.9469830000
20
14.9246000000
11
304.9367220000
21
14.7835390000
0
LINE
5
5AE
100
AcDbEntity
8
035
100
AcDbLine
62
3
6
CONTINUOUS
10
304.9367220000
20
14.7835390000
11
304.8854140000
21
14.6976240000
0
LINE
5
5AF
100
AcDbEntity
8
035
100
AcDbLine
62
3
6
CONTINUOUS
10
304.8854140000
20
14.6976240000
11
304.7943500000
21
14.5911860000
0
LINE
5
5B0
100
AcDbEntity
8
035
100
AcDbLine
62
3
6
CONTINUOUS
10
304.7943500000
20
14.5911860000
11
304.6571060000
21
14.5091160000
0
LINE
5
5B1
100
AcDbEntity
8
035
100
AcDbLine
62
3
6
CONTINUOUS
10
304.6571060000
20
14.5091160000
11
304.5262760000
21
14.4424340000
0
LINE
5
5B2
100
AcDbEntity
8
035
100
AcDbLine
62
3
6
CONTINUOUS
10
304.5262760000
20
14.4424340000
11
304.4266270000
21
14.4252180000
0
LINE
5
5B3
100
AcDbEntity
8
035
100
AcDbLine
62
3
6
CONTINUOUS
10
304.4509000000
20
14.1352400000
11
304.5337810000
21
14.1235790000
0
LINE
5
5B4
100
AcDbEntity
8
035
100
AcDbLine
62
3
6
CONTINUOUS
10
304.5337810000
20
14.1235790000
11
304.5869810000
21
14.0899330000
0
LINE
5
5B5
100
AcDbEntity
8
035
100
AcDbLine
62
3
6
CONTINUOUS
10
304.5869810000
20
14.0899330000
11
304.6195510000
21
14.0367450000
0
LINE
5
5B6
100
AcDbEntity
8
035
100
AcDbLine
62
3
6
CONTINUOUS
10
304.6195510000
20
14.0367450000
11
304.6347510000
21
13.9727040000
0
LINE
5
5B7
100
AcDbEntity
8
035
100
AcDbLine
62
3
6
CONTINUOUS
10
304.6347510000
20
13.9727040000
11
304.6272290000
21
13.8619210000
0
LINE
5
5B8
100
AcDbEntity
8
035
100
AcDbLine
62
3
6
CONTINUOUS
10
321.7946020000
20
15.4147050000
11
322.1327350000
21
14.0621710000
0
LINE
5
5B9
100
AcDbEntity
8
035
100
AcDbLine
62
3
6
CONTINUOUS
10
320.7802020000
20
14.0621710000
11
321.7946020000
21
15.4147050000
0
LINE
5
5BA
100
AcDbEntity
8
035
100
AcDbLine
62
3
6
CONTINUOUS
10
322.2260320000
20
13.6889840000
11
322.3460400000
21
13.2089520000
0
LINE
5
5BB
100
AcDbEntity
8
035
100
AcDbLine
62
3
6
CONTINUOUS
10
320.1402870000
20
13.2089520000
11
320.5003110000
21
13.6889840000
0
LINE
5
5BC
100
AcDbEntity
8
035
100
AcDbLine
62
3
6
CONTINUOUS
10
327.3854540000
20
14.3013760000
11
329.5596970000
21
14.3013760000
0
LINE
5
5BD
100
AcDbEntity
8
05
100
AcDbLine
62
3
6
CONTINUOUS
10
296.0769100000
20
165.8565720000
11
296.0769100000
21
144.0911130000
0
LINE
5
5BE
100
AcDbEntity
8
05
100
AcDbLine
62
3
6
CONTINUOUS
10
296.0769100000
20
149.4899850000
11
309.4452950000
21
149.4899850000
0
ARC
5
5BF
100
AcDbEntity
8
05
100
AcDbCircle
62
3
6
CONTINUOUS
10
296.0768901254
20
171.4461309035
40
19.9959829035
100
AcDbArc
50
270.0000569479
51
279.2821659048
0
ARC
5
5C0
100
AcDbEntity
8
05
100
AcDbCircle
62
3
6
CONTINUOUS
10
297.4812861828
20
162.8532289156
40
11.2890722654
100
AcDbArc
50
279.2821627238
51
291.5329239345
0
ARC
5
5C1
100
AcDbEntity
8
05
100
AcDbCircle
62
3
6
CONTINUOUS
10
299.6061256663
20
157.4681014464
40
5.4998978260
100
AcDbArc
50
291.5328664113
51
313.6089240791
0
ARC
5
5C2
100
AcDbEntity
8
05
100
AcDbCircle
62
3
6
CONTINUOUS
10
302.7622462040
20
154.1548816196
40
0.9240347960
100
AcDbArc
50
313.6089347480
51
0.0000235886
0
ARC
5
5C3
100
AcDbEntity
8
05
100
AcDbCircle
62
3
6
CONTINUOUS
10
302.7622462040
20
154.1548823804
40
0.9240347960
100
AcDbArc
50
359.9999764114
51
46.3910652519
0
ARC
5
5C4
100
AcDbEntity
8
05
100
AcDbCircle
62
3
6
CONTINUOUS
10
299.6061231031
20
150.8416630536
40
5.4998992319
100
AcDbArc
50
46.3910529940
51
68.4671106619
0
ARC
5
5C5
100
AcDbEntity
8
05
100
AcDbCircle
62
3
6
CONTINUOUS
10
297.4812861828
20
145.4565360844
40
11.2890722654
100
AcDbArc
50
68.4670760655
51
80.7178372762
0
ARC
5
5C6
100
AcDbEntity
8
05
100
AcDbCircle
62
3
6
CONTINUOUS
10
296.0768901254
20
136.8636340965
40
19.9959829035
100
AcDbArc
50
80.7178340952
51
89.9999430521
0
ARC
5
5C7
100
AcDbEntity
8
05
100
AcDbCircle
62
3
6
CONTINUOUS
10
296.0768905033
20
171.4461373994
40
20.4877443994
100
AcDbArc
50
270.0000545244
51
279.2821634812
0
ARC
5
5C8
100
AcDbEntity
8
05
100
AcDbCircle
62
3
6
CONTINUOUS
10
297.4812865953
20
162.8532227891
40
11.7808212986
100
AcDbArc
50
279.2821683774
51
291.5329295882
0
ARC
5
5C9
100
AcDbEntity
8
05
100
AcDbCircle
62
3
6
CONTINUOUS
10
299.6061246757
20
157.4681014011
40
5.9916530310
100
AcDbArc
50
291.5328733846
51
313.6089310525
0
ARC
5
5CA
100
AcDbEntity
8
05
100
AcDbCircle
62
3
6
CONTINUOUS
10
302.7622460337
20
154.1548809267
40
1.4157889663
100
AcDbArc
50
313.6089545946
51
0.0000434352
0
ARC
5
5CB
100
AcDbEntity
8
05
100
AcDbCircle
62
3
6
CONTINUOUS
10
302.7622460337
20
154.1548830733
40
1.4157889663
100
AcDbArc
50
359.9999565648
51
46.3910454054
0
ARC
5
5CC
100
AcDbEntity
8
05
100
AcDbCircle
62
3
6
CONTINUOUS
10
299.6061221125
20
150.8416630989
40
5.9916544369
100
AcDbArc
50
46.3910479023
51
68.4671055702
0
ARC
5
5CD
100
AcDbEntity
8
05
100
AcDbCircle
62
3
6
CONTINUOUS
10
297.4812865953
20
145.4565422109
40
11.7808212986
100
AcDbArc
50
68.4670704118
51
80.7178316226
0
ARC
5
5CE
100
AcDbEntity
8
05
100
AcDbCircle
62
3
6
CONTINUOUS
10
296.0768905033
20
136.8636276006
40
20.4877443994
100
AcDbArc
50
80.7178365188
51
89.9999454756
0
LINE
5
5CF
100
AcDbEntity
8
05
100
AcDbLine
62
3
6
CONTINUOUS
10
309.4452950000
20
150.9583930000
11
296.0769100000
21
150.9583930000
0
LINE
5
5D0
100
AcDbEntity
8
05
100
AcDbLine
62
3
6
CONTINUOUS
10
309.4452950000
20
157.3513720000
11
296.0769100000
21
157.3513720000
0
LINE
5
5D1
100
AcDbEntity
8
05
100
AcDbLine
62
3
6
CONTINUOUS
10
309.4452950000
20
160.6808650000
11
296.0769100000
21
160.6808650000
0
ARC
5
5D2
100
AcDbEntity
8
05
100
AcDbCircle
62
3
6
CONTINUOUS
10
300.0190666767
20
135.7605568459
40
8.5993445486
100
AcDbArc
50
67.9704179274
51
79.2721223811
0
ARC
5
5D3
100
AcDbEntity
8
05
100
AcDbCircle
62
3
6
CONTINUOUS
10
297.7596702443
20
123.8348761232
40
20.7371669620
100
AcDbArc
50
79.2721076325
51
85.5128252899
0
ARC
5
5D4
100
AcDbEntity
8
05
100
AcDbCircle
62
3
6
CONTINUOUS
10
296.2453250059
20
104.5379413282
40
40.0934303923
100
AcDbArc
50
85.5128399555
51
90.2406752759
0
ARC
5
5D5
100
AcDbEntity
8
05
100
AcDbCircle
62
3
6
CONTINUOUS
10
298.5236143931
20
143.1913709940
40
4.7518016415
100
AcDbArc
50
349.0821337057
51
26.8188782313
0
ARC
5
5D6
100
AcDbEntity
8
05
100
AcDbCircle
62
3
6
CONTINUOUS
10
297.4236014301
20
142.6352492279
40
5.9844004965
100
AcDbArc
50
26.8189657070
51
50.6711076529
0
ARC
5
5D7
100
AcDbEntity
8
05
100
AcDbCircle
62
3
6
CONTINUOUS
10
296.7099283199
20
141.7641889003
40
7.1104890376
100
AcDbArc
50
50.6712031388
51
71.2538557417
0
ARC
5
5D8
100
AcDbEntity
8
05
100
AcDbCircle
62
3
6
CONTINUOUS
10
296.2453018376
20
140.3951438946
40
8.5562282934
100
AcDbArc
50
71.2538489651
51
91.1276890014
0
LINE
5
5D9
100
AcDbEntity
8
05
100
AcDbLine
62
3
6
CONTINUOUS
10
303.2754160000
20
143.1913720000
11
303.1086850000
21
143.4174170000
0
ARC
5
5DA
100
AcDbEntity
8
05
100
AcDbCircle
62
3
6
CONTINUOUS
10
299.7885879945
20
132.6751773832
40
11.2436095677
100
AcDbArc
50
72.8252239662
51
82.7046845669
0
ARC
5
5DB
100
AcDbEntity
8
05
100
AcDbCircle
62
3
6
CONTINUOUS
10
297.6760709291
20
116.1739935656
40
27.8794682992
100
AcDbArc
50
82.7046072116
51
86.9646306836
0
ARC
5
5DC
100
AcDbEntity
8
05
100
AcDbCircle
62
3
6
CONTINUOUS
10
296.2452723046
20
89.1918580551
40
54.8995131069
100
AcDbArc
50
86.9646075869
51
90.1757112961
0
ARC
5
5DD
100
AcDbEntity
8
05
100
AcDbCircle
62
3
6
CONTINUOUS
10
299.6429347796
20
143.9113719767
40
4.1688639320
100
AcDbArc
50
337.1328911593
51
29.3218955722
0
ARC
5
5DE
100
AcDbEntity
8
05
100
AcDbCircle
62
3
6
CONTINUOUS
10
298.0090920646
20
142.9936852575
40
6.0427878717
100
AcDbArc
50
29.3218606439
51
53.5926549806
0
ARC
5
5DF
100
AcDbEntity
8
05
100
AcDbCircle
62
3
6
CONTINUOUS
10
296.9422971329
20
141.5470925295
40
7.8401976600
100
AcDbArc
50
53.5927225129
51
73.0138319365
0
ARC
5
5E0
100
AcDbEntity
8
05
100
AcDbCircle
62
3
6
CONTINUOUS
10
296.2452981909
20
139.2653444132
40
10.2260270737
100
AcDbArc
50
73.0138275304
51
90.9435109695
0
LINE
5
5E1
100
AcDbEntity
8
05
100
AcDbLine
62
3
6
CONTINUOUS
10
303.4841620000
20
142.2913720000
11
309.4452950000
21
142.2913720000
0
ARC
5
5E2
100
AcDbEntity
8
05
100
AcDbCircle
62
3
6
CONTINUOUS
10
296.0769128263
20
180.7555887797
40
19.6526227797
100
AcDbArc
50
269.9999917600
51
279.1821101259
0
ARC
5
5E3
100
AcDbEntity
8
05
100
AcDbCircle
62
3
6
CONTINUOUS
10
297.4148088450
20
172.4788320506
40
11.2684312439
100
AcDbArc
50
279.1820804349
51
291.3178885392
0
ARC
5
5E4
100
AcDbEntity
8
05
100
AcDbCircle
62
3
6
CONTINUOUS
10
299.4388109510
20
167.2923314666
40
5.7009926198
100
AcDbArc
50
291.3178477756
51
313.2933121814
0
ARC
5
5E5
100
AcDbEntity
8
05
100
AcDbCircle
62
3
6
CONTINUOUS
10
302.4443680634
20
164.1021675032
40
1.3180119366
100
AcDbArc
50
313.2932602742
51
0.0000650677
0
ARC
5
5E6
100
AcDbEntity
8
05
100
AcDbCircle
62
3
6
CONTINUOUS
10
302.4443680634
20
164.1021704968
40
1.3180119366
100
AcDbArc
50
359.9999349323
51
46.7067397258
0
ARC
5
5E7
100
AcDbEntity
8
05
100
AcDbCircle
62
3
6
CONTINUOUS
10
299.4388109510
20
160.9120065334
40
5.7009926198
100
AcDbArc
50
46.7066878186
51
68.6821522244
0
ARC
5
5E8
100
AcDbEntity
8
05
100
AcDbCircle
62
3
6
CONTINUOUS
10
297.4148088450
20
155.7255059494
40
11.2684312439
100
AcDbArc
50
68.6821114608
51
80.8179195651
0
ARC
5
5E9
100
AcDbEntity
8
05
100
AcDbCircle
62
3
6
CONTINUOUS
10
296.0769128263
20
147.4487492203
40
19.6526227797
100
AcDbArc
50
80.8178898741
51
90.0000082400
0
ARC
5
5EA
100
AcDbEntity
8
05
100
AcDbCircle
62
3
6
CONTINUOUS
10
296.0769171694
20
180.7555876187
40
19.1608666187
100
AcDbArc
50
269.9999785617
51
279.1820969276
0
ARC
5
5EB
100
AcDbEntity
8
05
100
AcDbCircle
62
3
6
CONTINUOUS
10
297.4148054920
20
172.4788368137
40
10.7766821592
100
AcDbArc
50
279.1820909808
51
291.3178990851
0
ARC
5
5EC
100
AcDbEntity
8
05
100
AcDbCircle
62
3
6
CONTINUOUS
10
299.4388112881
20
167.2923299962
40
5.2092363865
100
AcDbArc
50
291.3178528590
51
313.2933172648
0
ARC
5
5ED
100
AcDbEntity
8
05
100
AcDbCircle
62
3
6
CONTINUOUS
10
302.4443670184
20
164.1021692347
40
0.8262589816
100
AcDbArc
50
313.2931789338
51
359.9999837273
0
ARC
5
5EE
100
AcDbEntity
8
05
100
AcDbCircle
62
3
6
CONTINUOUS
10
302.4443670184
20
164.1021687653
40
0.8262589816
100
AcDbArc
50
0.0000162727
51
46.7068210662
0
ARC
5
5EF
100
AcDbEntity
8
05
100
AcDbCircle
62
3
6
CONTINUOUS
10
299.4388112881
20
160.9120080038
40
5.2092363865
100
AcDbArc
50
46.7066827352
51
68.6821471410
0
ARC
5
5F0
100
AcDbEntity
8
05
100
AcDbCircle
62
3
6
CONTINUOUS
10
297.4148054920
20
155.7255011863
40
10.7766821592
100
AcDbArc
50
68.6821009149
51
80.8179090192
0
ARC
5
5F1
100
AcDbEntity
8
05
100
AcDbCircle
62
3
6
CONTINUOUS
10
296.0769171694
20
147.4487503813
40
19.1608666187
100
AcDbArc
50
80.8179030724
51
90.0000214383
0
LINE
5
5F2
100
AcDbEntity
8
05
100
AcDbLine
62
3
6
CONTINUOUS
10
309.4452950000
20
167.1013720000
11
296.0769100000
21
167.1013720000
0
ARC
5
5F3
100
AcDbEntity
8
05
100
AcDbCircle
62
3
6
CONTINUOUS
10
301.9150988847
20
175.3161901798
40
1.5242992049
100
AcDbArc
50
200.3596645866
51
210.3612788750
0
ARC
5
5F4
100
AcDbEntity
8
05
100
AcDbCircle
62
3
6
CONTINUOUS
10
302.6236051673
20
175.7312234318
40
2.3454165855
100
AcDbArc
50
210.3612464364
51
234.7356022297
0
ARC
5
5F5
100
AcDbEntity
8
05
100
AcDbCircle
62
3
6
CONTINUOUS
10
303.0873921374
20
176.3871083946
40
3.1487119471
100
AcDbArc
50
234.7355112088
51
253.6750580185
0
ARC
5
5F6
100
AcDbEntity
8
05
100
AcDbCircle
62
3
6
CONTINUOUS
10
303.3907950164
20
177.4229846377
40
4.2281066377
100
AcDbArc
50
253.6750332048
51
270.0000404315
0
ARC
5
5F7
100
AcDbEntity
8
05
100
AcDbCircle
62
3
6
CONTINUOUS
10
303.3908014836
20
176.3623281236
40
4.2281101236
100
AcDbArc
50
269.9999527929
51
286.3249600197
0
ARC
5
5F8
100
AcDbEntity
8
05
100
AcDbCircle
62
3
6
CONTINUOUS
10
303.6942078602
20
175.3264478946
40
3.1487106247
100
AcDbArc
50
286.3248921920
51
305.2644390017
0
ARC
5
5F9
100
AcDbEntity
8
05
100
AcDbCircle
62
3
6
CONTINUOUS
10
304.1579913327
20
174.6705601167
40
2.3454149839
100
AcDbArc
50
305.2644403955
51
329.6387961888
0
ARC
5
5FA
100
AcDbEntity
8
05
100
AcDbCircle
62
3
6
CONTINUOUS
10
304.8664758435
20
174.2555382749
40
1.5243221565
100
AcDbArc
50
329.6388302835
51
359.9999896677
0
ARC
5
5FB
100
AcDbEntity
8
05
100
AcDbCircle
62
3
6
CONTINUOUS
10
304.8664758435
20
174.2555377251
40
1.5243221565
100
AcDbArc
50
0.0000103323
51
30.3611697165
0
ARC
5
5FC
100
AcDbEntity
8
05
100
AcDbCircle
62
3
6
CONTINUOUS
10
304.1579913327
20
173.8405158833
40
2.3454149839
100
AcDbArc
50
30.3612038112
51
54.7355596045
0
ARC
5
5FD
100
AcDbEntity
8
05
100
AcDbCircle
62
3
6
CONTINUOUS
10
303.6942078602
20
173.1846281054
40
3.1487106247
100
AcDbArc
50
54.7355609983
51
73.6751078080
0
ARC
5
5FE
100
AcDbEntity
8
05
100
AcDbCircle
62
3
6
CONTINUOUS
10
303.3907979977
20
172.1487483764
40
4.2281106236
100
AcDbArc
50
73.6749927421
51
89.9999999689
0
ARC
5
5FF
100
AcDbEntity
8
05
100
AcDbCircle
62
3
6
CONTINUOUS
10
303.3907985023
20
172.1487518623
40
4.2281071377
100
AcDbArc
50
90.0000068067
51
106.3250140335
0
ARC
5
600
100
AcDbEntity
8
05
100
AcDbCircle
62
3
6
CONTINUOUS
10
303.0873891398
20
173.1846281054
40
3.1487106247
100
AcDbArc
50
106.3248921920
51
125.2644390017
0
ARC
5
601
100
AcDbEntity
8
05
100
AcDbCircle
62
3
6
CONTINUOUS
10
302.6236051673
20
173.8405135682
40
2.3454165855
100
AcDbArc
50
125.2643977703
51
149.6387535636
0
ARC
5
602
100
AcDbEntity
8
05
100
AcDbCircle
62
3
6
CONTINUOUS
10
301.9151201565
20
174.2555377251
40
1.5243221565
100
AcDbArc
50
149.6388302835
51
179.9999896677
0
ARC
5
603
100
AcDbEntity
8
05
100
AcDbCircle
62
3
6
CONTINUOUS
10
301.9151201565
20
174.2555382749
40
1.5243221565
100
AcDbArc
50
180.0000103323
51
210.3611697165
0
ARC
5
604
100
AcDbEntity
8
05
100
AcDbCircle
62
3
6
CONTINUOUS
10
302.6236051673
20
174.6705624318
40
2.3454165855
100
AcDbArc
50
210.3612464364
51
234.7356022297
0
ARC
5
605
100
AcDbEntity
8
05
100
AcDbCircle
62
3
6
CONTINUOUS
10
303.0873891398
20
175.3264478946
40
3.1487106247
100
AcDbArc
50
234.7355609983
51
253.6751078080
0
ARC
5
606
100
AcDbEntity
8
05
100
AcDbCircle
62
3
6
CONTINUOUS
10
303.3907950164
20
176.3623246377
40
4.2281066377
100
AcDbArc
50
253.6750332048
51
270.0000404315
0
LINE
5
607
100
AcDbEntity
8
05
100
AcDbLine
62
3
6
CONTINUOUS
10
318.4452950000
20
179.5588390000
11
299.7907980000
21
179.5588390000
0
LINE
5
608
100
AcDbEntity
8
05
100
AcDbLine
62
3
6
CONTINUOUS
10
318.4452950000
20
178.4981790000
11
299.7907980000
21
178.4981790000
0
LINE
5
609
100
AcDbEntity
8
05
100
AcDbLine
62
3
6
CONTINUOUS
10
309.4452950000
20
170.0128980000
11
299.7907980000
21
170.0128980000
0
LINE
5
60A
100
AcDbEntity
8
05
100
AcDbLine
62
3
6
CONTINUOUS
10
297.3907980000
20
177.8645650000
11
297.3907980000
21
171.7099540000
0
LINE
5
60B
100
AcDbEntity
8
05
100
AcDbLine
62
3
6
CONTINUOUS
10
296.0769100000
20
165.8565720000
11
296.0769100000
21
167.1013720000
0
ARC
5
60C
100
AcDbEntity
8
05
100
AcDbCircle
62
3
6
CONTINUOUS
10
298.6102565623
20
171.7099543885
40
1.2194585623
100
AcDbArc
50
180.0000182517
51
210.3611776359
0
ARC
5
60D
100
AcDbEntity
8
05
100
AcDbCircle
62
3
6
CONTINUOUS
10
299.1770429078
20
172.0419728824
40
1.8763322501
100
AcDbArc
50
210.3612553427
51
234.7356111360
0
ARC
5
60E
100
AcDbEntity
8
05
100
AcDbCircle
62
3
6
CONTINUOUS
10
299.5480709118
20
172.5666819157
40
2.5189684998
100
AcDbArc
50
234.7355609983
51
253.6751078080
0
ARC
5
60F
100
AcDbEntity
8
05
100
AcDbCircle
62
3
6
CONTINUOUS
10
299.7907956131
20
173.3953833102
40
3.3824853102
100
AcDbArc
50
253.6750332048
51
270.0000404315
0
ARC
5
610
100
AcDbEntity
8
05
100
AcDbCircle
62
3
6
CONTINUOUS
10
299.7907926131
20
176.1763536898
40
3.3824853102
100
AcDbArc
50
89.9999595685
51
106.3249667952
0
ARC
5
611
100
AcDbEntity
8
05
100
AcDbCircle
62
3
6
CONTINUOUS
10
299.5480679118
20
177.0050550843
40
2.5189684998
100
AcDbArc
50
106.3248921920
51
125.2644390017
0
ARC
5
612
100
AcDbEntity
8
05
100
AcDbCircle
62
3
6
CONTINUOUS
10
299.1770422229
20
177.5297636176
40
1.8763339950
100
AcDbArc
50
125.2644377704
51
149.6387935637
0
ARC
5
613
100
AcDbEntity
8
05
100
AcDbCircle
62
3
6
CONTINUOUS
10
298.6102517195
20
177.8617821115
40
1.2194567195
100
AcDbArc
50
149.6387988717
51
179.9999582559
0
ARC
5
614
100
AcDbEntity
8
05
100
AcDbCircle
62
3
6
CONTINUOUS
10
299.7907956131
20
175.1156936898
40
3.3824853102
100
AcDbArc
50
89.9999595685
51
106.3249667952
0
ARC
5
615
100
AcDbEntity
8
05
100
AcDbCircle
62
3
6
CONTINUOUS
10
299.5480709118
20
175.9443950843
40
2.5189684998
100
AcDbArc
50
106.3248921920
51
125.2644390017
0
ARC
5
616
100
AcDbEntity
8
05
100
AcDbCircle
62
3
6
CONTINUOUS
10
299.1770452229
20
176.4691036176
40
1.8763339950
100
AcDbArc
50
125.2644377704
51
149.6387935637
0
ARC
5
617
100
AcDbEntity
8
05
100
AcDbCircle
62
3
6
CONTINUOUS
10
298.6102547195
20
176.8011221115
40
1.2194567195
100
AcDbArc
50
149.6387988717
51
179.9999582559
0
ARC
5
618
100
AcDbEntity
8
05
100
AcDbCircle
62
3
6
CONTINUOUS
10
303.3908014836
20
177.4229881236
40
4.2281101236
100
AcDbArc
50
269.9999527929
51
286.3249600197
0
ARC
5
619
100
AcDbEntity
8
05
100
AcDbCircle
62
3
6
CONTINUOUS
10
303.6942048626
20
176.3871083946
40
3.1487119471
100
AcDbArc
50
286.3249419815
51
305.2644887912
0
ARC
5
61A
100
AcDbEntity
8
05
100
AcDbCircle
62
3
6
CONTINUOUS
10
304.1579913327
20
175.7312211167
40
2.3454149839
100
AcDbArc
50
305.2644403955
51
329.6387961888
0
ARC
5
61B
100
AcDbEntity
8
05
100
AcDbCircle
62
3
6
CONTINUOUS
10
304.8664971153
20
175.3161901798
40
1.5242992049
100
AcDbArc
50
329.6387211250
51
339.6403354134
0
CIRCLE
5
61C
100
AcDbEntity
8
05
100
AcDbCircle
62
3
6
CONTINUOUS
10
103.2403800000
20
82.6040580000
40
3.1500000000
0
CIRCLE
5
61D
100
AcDbEntity
8
05
100
AcDbCircle
62
3
6
CONTINUOUS
10
104.1403800000
20
72.8540580000
40
1.8419260000
0
CIRCLE
5
61E
100
AcDbEntity
8
05
100
AcDbCircle
62
3
6
CONTINUOUS
10
104.1403800000
20
72.8540580000
40
3.1500000000
0
ARC
5
61F
100
AcDbEntity
8
035
100
AcDbCircle
62
3
6
CONTINUOUS
10
91.9603800000
20
97.4398380000
40
30.0000000000
100
AcDbArc
50
58.7016740000
51
90.0000000000
0
ARC
5
620
100
AcDbEntity
8
05
100
AcDbCircle
62
3
6
CONTINUOUS
10
386.3963170000
20
193.0299920000
40
3.6000000000
100
AcDbArc
50
270.2913900000
51
359.9999700000
0
ARC
5
621
100
AcDbEntity
8
05
100
AcDbCircle
62
3
6
CONTINUOUS
10
386.3963170000
20
193.0299920000
40
1.2000000000
100
AcDbArc
50
270.2913900000
51
359.9999700000
0
LINE
5
622
100
AcDbEntity
8
05
100
AcDbLine
62
3
6
CONTINUOUS
10
386.3963160000
20
191.8299920000
11
381.4452950000
21
191.8299920000
0
LINE
5
623
100
AcDbEntity
8
05
100
AcDbLine
62
3
6
CONTINUOUS
10
383.3963170000
20
191.8299920000
11
383.3963170000
21
189.4299920000
0
LINE
5
624
100
AcDbEntity
8
05
100
AcDbLine
62
3
6
CONTINUOUS
10
385.1963170000
20
191.8299920000
11
385.1963170000
21
189.4299920000
0
LINE
5
625
100
AcDbEntity
8
05
100
AcDbLine
62
3
6
CONTINUOUS
10
386.4799380000
20
189.4299920000
11
381.4452950000
21
189.4299920000
0
LINE
5
626
100
AcDbEntity
8
05
100
AcDbLine
62
3
6
CONTINUOUS
10
387.5963170000
20
193.0299930000
11
387.5963170000
21
209.2299920000
0
LINE
5
627
100
AcDbEntity
8
05
100
AcDbLine
62
3
6
CONTINUOUS
10
389.9963170000
20
193.0299930000
11
389.9963170000
21
209.2299920000
0
LINE
5
628
100
AcDbEntity
8
05
100
AcDbLine
62
3
6
CONTINUOUS
10
389.9948460000
20
192.9270930000
11
387.5918970000
21
192.9270930000
0
LINE
5
629
100
AcDbEntity
8
05
100
AcDbLine
62
3
6
CONTINUOUS
10
387.5963170000
20
209.2299920000
11
389.9963170000
21
209.2299920000
0
CIRCLE
5
62A
100
AcDbEntity
8
035
100
AcDbCircle
62
3
6
CONTINUOUS
10
91.9603800000
20
76.5740580000
40
3.1500000000
0
CIRCLE
5
62B
100
AcDbEntity
8
05
100
AcDbCircle
62
3
6
CONTINUOUS
10
79.7803800000
20
80.1440580000
40
1.8419260000
0
CIRCLE
5
62C
100
AcDbEntity
8
05
100
AcDbCircle
62
3
6
CONTINUOUS
10
79.7803800000
20
80.1440580000
40
3.1500000000
0
CIRCLE
5
62D
100
AcDbEntity
8
05
100
AcDbCircle
62
3
6
CONTINUOUS
10
80.6803800000
20
70.5440580000
40
1.8419260000
0
CIRCLE
5
62E
100
AcDbEntity
8
05
100
AcDbCircle
62
3
6
CONTINUOUS
10
80.6803800000
20
70.5440580000
40
3.1500000000
0
CIRCLE
5
62F
100
AcDbEntity
8
035
100
AcDbCircle
62
3
6
CONTINUOUS
10
91.9603800000
20
76.5740580000
40
1.8419260000
0
CIRCLE
5
630
100
AcDbEntity
8
05
100
AcDbCircle
62
3
6
CONTINUOUS
10
88.2403800000
20
64.3940580000
40
1.8419260000
0
CIRCLE
5
631
100
AcDbEntity
8
05
100
AcDbCircle
62
3
6
CONTINUOUS
10
88.2403800000
20
64.3940580000
40
3.1500000000
0
CIRCLE
5
632
100
AcDbEntity
8
05
100
AcDbCircle
62
3
6
CONTINUOUS
10
97.9903800000
20
65.4440580000
40
1.8419260000
0
CIRCLE
5
633
100
AcDbEntity
8
05
100
AcDbCircle
62
3
6
CONTINUOUS
10
97.9903800000
20
65.4440580000
40
3.1500000000
0
ARC
5
634
100
AcDbEntity
8
035
100
AcDbCircle
62
3
6
CONTINUOUS
10
91.9603800000
20
97.4398380000
40
30.0000000000
100
AcDbArc
50
90.0000000000
51
121.2983260000
0
CIRCLE
5
635
100
AcDbEntity
8
05
100
AcDbCircle
62
3
6
CONTINUOUS
10
103.2403800000
20
82.6040580000
40
1.8419260000
0
ARC
5
636
100
AcDbEntity
8
035
100
AcDbCircle
62
3
6
CONTINUOUS
10
226.5577390000
20
199.3213720000
40
6.0000000000
100
AcDbArc
50
270.0000000000
51
360.0000000000
0
ARC
5
637
100
AcDbEntity
8
035
100
AcDbCircle
62
3
6
CONTINUOUS
10
217.5577390000
20
179.5213720000
40
30.0000000000
100
AcDbArc
50
67.9756870000
51
112.0243130000
0
ARC
5
638
100
AcDbEntity
8
035
100
AcDbCircle
62
3
6
CONTINUOUS
10
208.5577390000
20
199.3213720000
40
6.0000000000
100
AcDbArc
50
180.0000000000
51
270.0000000000
0
ARC
5
639
100
AcDbEntity
8
035
100
AcDbCircle
62
3
6
CONTINUOUS
10
208.5577390000
20
199.3213720000
40
6.0000000000
100
AcDbArc
50
180.0000000000
51
270.0000000000
0
LINE
5
63A
100
AcDbEntity
8
035
100
AcDbLine
62
3
6
CONTINUOUS
10
208.5577390000
20
189.7213720000
11
226.5577390000
21
189.7213720000
0
LINE
5
63B
100
AcDbEntity
8
035
100
AcDbLine
62
3
6
CONTINUOUS
10
210.5077390000
20
189.7213720000
11
210.5077390000
21
180.5485120000
0
ARC
5
63C
100
AcDbEntity
8
035
100
AcDbCircle
62
3
6
CONTINUOUS
10
209.4577390000
20
192.4213720000
40
0.9000000000
100
AcDbArc
50
0.0000000000
51
90.0000000000
0
LINE
5
63D
100
AcDbEntity
8
035
100
AcDbLine
62
3
6
CONTINUOUS
10
208.5577390000
20
192.1213720000
11
210.3577390000
21
192.1213720000
0
LINE
5
63E
100
AcDbEntity
8
035
100
AcDbLine
62
3
6
CONTINUOUS
10
208.5577390000
20
192.1213720000
11
208.5577390000
21
189.7213720000
0
LINE
5
63F
100
AcDbEntity
8
035
100
AcDbLine
62
3
6
CONTINUOUS
10
210.3577390000
20
192.4213720000
11
210.3577390000
21
189.7213720000
0
LINE
5
640
100
AcDbEntity
8
035
100
AcDbLine
62
3
6
CONTINUOUS
10
208.5577390000
20
193.3213720000
11
209.4577390000
21
193.3213720000
0
LINE
5
641
100
AcDbEntity
8
035
100
AcDbLine
62
3
6
CONTINUOUS
10
224.6077390000
20
189.7213720000
11
224.6077390000
21
180.5485120000
0
LINE
5
642
100
AcDbEntity
8
035
100
AcDbLine
62
3
6
CONTINUOUS
10
214.1077390000
20
185.8213720000
11
221.0077390000
21
185.8213720000
0
ARC
5
643
100
AcDbEntity
8
035
100
AcDbCircle
62
3
6
CONTINUOUS
10
214.1077390000
20
184.6213720000
40
1.2000000000
100
AcDbArc
50
90.0000000000
51
180.0000000000
0
LINE
5
644
100
AcDbEntity
8
035
100
AcDbLine
62
3
6
CONTINUOUS
10
212.9077390000
20
184.6213720000
11
212.9077390000
21
181.1607240000
0
LINE
5
645
100
AcDbEntity
8
035
100
AcDbLine
62
3
6
CONTINUOUS
10
222.2077390000
20
184.6213720000
11
222.2077390000
21
181.1607240000
0
ARC
5
646
100
AcDbEntity
8
035
100
AcDbCircle
62
3
6
CONTINUOUS
10
221.0077390000
20
184.6213720000
40
1.2000000000
100
AcDbArc
50
0.0000000000
51
90.0000000000
0
ARC
5
647
100
AcDbEntity
8
035
100
AcDbCircle
62
3
6
CONTINUOUS
10
225.6577390000
20
192.4213720000
40
0.9000000000
100
AcDbArc
50
90.0000000000
51
180.0000000000
0
LINE
5
648
100
AcDbEntity
8
035
100
AcDbLine
62
3
6
CONTINUOUS
10
224.7577390000
20
192.1213720000
11
226.5577390000
21
192.1213720000
0
LINE
5
649
100
AcDbEntity
8
035
100
AcDbLine
62
3
6
CONTINUOUS
10
226.5577390000
20
192.1213720000
11
226.5577390000
21
189.7213720000
0
LINE
5
64A
100
AcDbEntity
8
035
100
AcDbLine
62
3
6
CONTINUOUS
10
224.7577390000
20
192.4213720000
11
224.7577390000
21
189.7213720000
0
LINE
5
64B
100
AcDbEntity
8
035
100
AcDbLine
62
3
6
CONTINUOUS
10
225.6577390000
20
193.3213720000
11
226.5577390000
21
193.3213720000
0
ARC
5
64C
100
AcDbEntity
8
035
100
AcDbCircle
62
3
6
CONTINUOUS
10
208.5577390000
20
201.7699670000
40
6.0000000000
100
AcDbArc
50
112.0243130000
51
180.0000000000
0
LINE
5
64D
100
AcDbEntity
8
035
100
AcDbLine
62
3
6
CONTINUOUS
10
202.5577390000
20
201.7699670000
11
202.5577390000
21
199.3213720000
0
ARC
5
64E
100
AcDbEntity
8
035
100
AcDbCircle
62
3
6
CONTINUOUS
10
217.5577349886
20
205.3213727151
40
2.5000042073
100
AcDbArc
50
329.9999705883
51
34.9998819561
0
ARC
5
64F
100
AcDbEntity
8
035
100
AcDbCircle
62
3
6
CONTINUOUS
10
219.3496352500
20
206.5760695000
40
0.3125009344
100
AcDbArc
50
34.9998495222
51
214.9998495222
0
ARC
5
650
100
AcDbEntity
8
035
100
AcDbCircle
62
3
6
CONTINUOUS
10
217.5577434641
20
205.3213763706
40
1.8749932991
100
AcDbArc
50
339.5939156558
51
34.9999498171
0
LINE
5
651
100
AcDbEntity
8
035
100
AcDbLine
62
3
6
CONTINUOUS
10
219.3150715000
20
204.6676195000
11
218.6612065000
21
205.0451320000
0
ARC
5
652
100
AcDbEntity
8
035
100
AcDbCircle
62
3
6
CONTINUOUS
10
218.5049552500
20
204.7744982500
40
0.3125013276
100
AcDbArc
50
59.9998758982
51
239.9998758982
0
LINE
5
653
100
AcDbEntity
8
035
100
AcDbLine
62
3
6
CONTINUOUS
10
218.3487040000
20
204.5038645000
11
219.2959165000
21
203.9569870000
0
ARC
5
654
100
AcDbEntity
8
035
100
AcDbCircle
62
3
6
CONTINUOUS
10
219.4521678355
20
204.2276204311
40
0.3125010942
100
AcDbArc
50
239.9998330939
51
329.9999187025
0
ARC
5
655
100
AcDbEntity
8
035
100
AcDbCircle
62
3
6
CONTINUOUS
10
217.5577382849
20
205.3213679886
40
2.5000042073
100
AcDbArc
50
59.9999705883
51
124.9998819561
0
ARC
5
656
100
AcDbEntity
8
035
100
AcDbCircle
62
3
6
CONTINUOUS
10
216.3030415000
20
207.1132682500
40
0.3125009344
100
AcDbArc
50
124.9998495222
51
304.9998495222
0
ARC
5
657
100
AcDbEntity
8
035
100
AcDbCircle
62
3
6
CONTINUOUS
10
217.5577305005
20
205.3213840716
40
1.8749846991
100
AcDbArc
50
99.5939613273
51
124.9999798037
0
LINE
5
658
100
AcDbEntity
8
035
100
AcDbLine
62
3
6
CONTINUOUS
10
217.2452365000
20
207.1701445000
11
217.2452365000
21
203.1338695000
0
ARC
5
659
100
AcDbEntity
8
035
100
AcDbCircle
62
3
6
CONTINUOUS
10
217.5577390000
20
203.1338695000
40
0.3125025000
100
AcDbArc
50
180.0000000000
51
360.0000000000
0
LINE
5
65A
100
AcDbEntity
8
035
100
AcDbLine
62
3
6
CONTINUOUS
10
217.8702415000
20
203.1338695000
11
217.8702415000
21
207.1701445000
0
ARC
5
65B
100
AcDbEntity
8
035
100
AcDbCircle
62
3
6
CONTINUOUS
10
217.5577417518
20
205.3213821275
40
1.8749875740
100
AcDbArc
50
59.9998778689
51
80.4058753921
0
ARC
5
65C
100
AcDbEntity
8
035
100
AcDbCircle
62
3
6
CONTINUOUS
10
218.6514902500
20
207.2158007500
40
0.3125013276
100
AcDbArc
50
239.9998758982
51
59.9998758982
0
ARC
5
65D
100
AcDbEntity
8
035
100
AcDbCircle
62
3
6
CONTINUOUS
10
217.5577430114
20
205.3213712849
40
2.5000042073
100
AcDbArc
50
149.9999705883
51
214.9998819561
0
ARC
5
65E
100
AcDbEntity
8
035
100
AcDbCircle
62
3
6
CONTINUOUS
10
215.7658427500
20
204.0666745000
40
0.3125009344
100
AcDbArc
50
214.9998495222
51
34.9998495222
0
ARC
5
65F
100
AcDbEntity
8
035
100
AcDbCircle
62
3
6
CONTINUOUS
10
217.5577345359
20
205.3213676294
40
1.8749932991
100
AcDbArc
50
159.5939156558
51
214.9999498171
0
LINE
5
660
100
AcDbEntity
8
035
100
AcDbLine
62
3
6
CONTINUOUS
10
215.8004065000
20
205.9751245000
11
216.4542715000
21
205.5976120000
0
ARC
5
661
100
AcDbEntity
8
035
100
AcDbCircle
62
3
6
CONTINUOUS
10
216.6105227500
20
205.8682457500
40
0.3125013276
100
AcDbArc
50
239.9998758982
51
59.9998758982
0
LINE
5
662
100
AcDbEntity
8
035
100
AcDbLine
62
3
6
CONTINUOUS
10
216.7667740000
20
206.1388795000
11
215.8195615000
21
206.6857570000
0
ARC
5
663
100
AcDbEntity
8
035
100
AcDbCircle
62
3
6
CONTINUOUS
10
215.6633101645
20
206.4151235689
40
0.3125010942
100
AcDbArc
50
59.9998330939
51
149.9999187025
0
CIRCLE
5
664
100
AcDbEntity
8
035
100
AcDbCircle
62
3
6
CONTINUOUS
10
217.5577390000
20
205.3213720000
40
3.1250025000
0
CIRCLE
5
665
100
AcDbEntity
8
035
100
AcDbCircle
62
3
6
CONTINUOUS
10
217.5577390000
20
205.3213720000
40
3.7500000000
0
ARC
5
666
100
AcDbEntity
8
035
100
AcDbCircle
62
3
6
CONTINUOUS
10
226.5577390000
20
201.7699670000
40
6.0000000000
100
AcDbArc
50
0.0000000000
51
67.9756870000
0
LINE
5
667
100
AcDbEntity
8
035
100
AcDbLine
62
3
6
CONTINUOUS
10
232.5577390000
20
201.7699670000
11
232.5577390000
21
199.3213720000
0
LINE
5
668
100
AcDbEntity
8
035
100
AcDbLine
62
3
6
CONTINUOUS
10
80.6663820000
20
83.1668880000
11
80.2984600000
21
81.9116230000
0
LINE
5
669
100
AcDbEntity
8
035
100
AcDbLine
62
3
6
CONTINUOUS
10
79.1953440000
20
73.3220370000
11
79.8120220000
21
72.1684490000
0
LINE
5
66A
100
AcDbEntity
8
035
100
AcDbLine
62
3
6
CONTINUOUS
10
85.2231090000
20
65.2988080000
11
86.4741630000
21
64.9167130000
0
LINE
5
66B
100
AcDbEntity
8
035
100
AcDbLine
62
3
6
CONTINUOUS
10
95.1930350000
20
63.9958310000
11
96.3435070000
21
64.6191330000
0
LINE
5
66C
100
AcDbEntity
8
035
100
AcDbLine
62
3
6
CONTINUOUS
10
103.2202690000
20
69.8414350000
11
103.6023560000
21
71.0924610000
0
LINE
5
66D
100
AcDbEntity
8
035
100
AcDbLine
62
3
6
CONTINUOUS
10
104.7254170000
20
79.8260790000
11
104.1087390000
21
80.9796670000
0
LINE
5
66E
100
AcDbEntity
8
035
100
AcDbLine
62
3
6
CONTINUOUS
10
102.3720220000
20
84.2284490000
11
101.7553440000
21
85.3820370000
0
LINE
5
66F
100
AcDbEntity
8
035
100
AcDbLine
62
3
6
CONTINUOUS
10
104.6784050000
20
74.6156540000
11
105.0604920000
21
75.8666810000
0
LINE
5
670
100
AcDbEntity
8
035
100
AcDbLine
62
3
6
CONTINUOUS
10
99.5808640000
20
66.3730650000
11
100.7313360000
21
66.9963660000
0
LINE
5
671
100
AcDbEntity
8
035
100
AcDbLine
62
3
6
CONTINUOUS
10
89.9972220000
20
63.8407040000
11
91.2482760000
21
63.4586090000
0
LINE
5
672
100
AcDbEntity
8
035
100
AcDbLine
62
3
6
CONTINUOUS
10
81.5487390000
20
68.9196670000
11
82.1654170000
21
67.7660790000
0
LINE
5
673
100
AcDbEntity
8
035
100
AcDbLine
62
3
6
CONTINUOUS
10
79.2623010000
20
78.3764930000
11
78.8943790000
21
77.1212280000
0
LINE
5
674
100
AcDbEntity
8
035
100
AcDbLine
62
3
6
CONTINUOUS
10
93.9511350000
20
79.0152460000
11
93.1244510000
21
78.0015140000
0
LINE
5
675
100
AcDbEntity
8
035
100
AcDbLine
62
3
6
CONTINUOUS
10
90.7963100000
20
75.1466010000
11
89.9696260000
21
74.1328700000
0
LINE
5
676
100
AcDbEntity
8
05
100
AcDbLine
62
4
6
CONTINUOUS
10
210.0000000000
20
21.0000000000
11
277.0000000000
21
21.0000000000
0
LINE
5
677
100
AcDbEntity
8
05
100
AcDbLine
62
4
6
CONTINUOUS
10
210.0000000000
20
26.0000000000
11
277.0000000000
21
26.0000000000
0
LINE
5
678
100
AcDbEntity
8
05
100
AcDbLine
62
4
6
CONTINUOUS
10
210.0000000000
20
31.0000000000
11
277.0000000000
21
31.0000000000
0
LINE
5
679
100
AcDbEntity
8
05
100
AcDbLine
62
4
6
CONTINUOUS
10
210.0000000000
20
36.0000000000
11
277.0000000000
21
36.0000000000
0
LINE
5
67A
100
AcDbEntity
8
05
100
AcDbLine
62
4
6
CONTINUOUS
10
210.0000000000
20
41.0000000000
11
277.0000000000
21
41.0000000000
0
LINE
5
67B
100
AcDbEntity
8
05
100
AcDbLine
62
4
6
CONTINUOUS
10
210.0000000000
20
46.0000000000
11
277.0000000000
21
46.0000000000
0
LINE
5
67C
100
AcDbEntity
8
05
100
AcDbLine
62
4
6
CONTINUOUS
10
210.0000000000
20
51.0000000000
11
277.0000000000
21
51.0000000000
0
LINE
5
67D
100
AcDbEntity
8
05
100
AcDbLine
62
4
6
CONTINUOUS
10
315.9116940000
20
15.6550740000
11
315.9496920000
21
15.6930720000
0
LINE
5
67E
100
AcDbEntity
8
05
100
AcDbLine
62
4
6
CONTINUOUS
10
315.5868920000
20
13.2089520000
11
315.5962100000
21
13.2182700000
0
ARC
5
67F
100
AcDbEntity
8
025
100
AcDbCircle
62
4
6
CONTINUOUS
10
310.8488660000
20
157.9213720000
40
23.7964290000
100
AcDbArc
50
325.4370030000
51
34.5629970000
0
LINE
5
680
100
AcDbEntity
8
0
100
AcDbLine
62
4
6
CONTINUOUS
10
56.5603800000
20
194.6873300000
11
56.5603800000
21
252.8542430000
0
LINE
5
681
100
AcDbEntity
8
0
100
AcDbLine
62
4
6
CONTINUOUS
10
127.3603800000
20
194.6873300000
11
127.3603800000
21
227.7905210000
0
LINE
5
682
100
AcDbEntity
8
0
100
AcDbLine
62
4
6
CONTINUOUS
10
60.0603800000
20
251.5542430000
11
123.8603800000
21
251.5542430000
0
LINE
5
683
100
AcDbEntity
8
0
100
AcDbLine
62
4
6
CONTINUOUS
10
60.0603800000
20
250.9709100000
11
56.5603800000
21
251.5542430000
0
LINE
5
684
100
AcDbEntity
8
0
100
AcDbLine
62
4
6
CONTINUOUS
10
56.5603800000
20
251.5542430000
11
60.0603800000
21
252.1375760000
0
LINE
5
685
100
AcDbEntity
8
0
100
AcDbLine
62
4
6
CONTINUOUS
10
60.0603800000
20
252.1375760000
11
60.0603800000
21
250.9709100000
0
SOLID
5
686
100
AcDbEntity
8
0
100
AcDbTrace
62
4
6
CONTINUOUS
10
56.5603800000
20
251.5542430000
11
60.0603800000
21
250.9709100000
12
60.0603800000
22
252.1375760000
13
60.0603800000
23
252.1375760000
0
LINE
5
687
100
AcDbEntity
8
0
100
AcDbLine
62
4
6
CONTINUOUS
10
123.8603800000
20
250.9709100000
11
127.3603800000
21
251.5542430000
0
LINE
5
688
100
AcDbEntity
8
0
100
AcDbLine
62
4
6
CONTINUOUS
10
127.3603800000
20
251.5542430000
11
123.8603800000
21
252.1375760000
0
LINE
5
689
100
AcDbEntity
8
0
100
AcDbLine
62
4
6
CONTINUOUS
10
123.8603800000
20
252.1375760000
11
123.8603800000
21
250.9709100000
0
SOLID
5
68A
100
AcDbEntity
8
0
100
AcDbTrace
62
4
6
CONTINUOUS
10
127.3603800000
20
251.5542430000
11
123.8603800000
21
252.1375760000
12
123.8603800000
22
250.9709100000
13
123.8603800000
23
250.9709100000
0
LINE
5
68B
100
AcDbEntity
8
0
100
AcDbLine
62
4
6
CONTINUOUS
10
63.4603800000
20
163.3373300000
11
63.4603800000
21
243.5487540000
0
LINE
5
68C
100
AcDbEntity
8
0
100
AcDbLine
62
4
6
CONTINUOUS
10
120.4603800000
20
235.3373300000
11
120.4603800000
21
243.5487540000
0
LINE
5
68D
100
AcDbEntity
8
0
100
AcDbLine
62
4
6
CONTINUOUS
10
66.9603800000
20
242.2487540000
11
116.9603800000
21
242.2487540000
0
LINE
5
68E
100
AcDbEntity
8
0
100
AcDbLine
62
4
6
CONTINUOUS
10
66.9603800000
20
241.6654210000
11
63.4603800000
21
242.2487540000
0
LINE
5
68F
100
AcDbEntity
8
0
100
AcDbLine
62
4
6
CONTINUOUS
10
63.4603800000
20
242.2487540000
11
66.9603800000
21
242.8320880000
0
LINE
5
690
100
AcDbEntity
8
0
100
AcDbLine
62
4
6
CONTINUOUS
10
66.9603800000
20
242.8320880000
11
66.9603800000
21
241.6654210000
0
SOLID
5
691
100
AcDbEntity
8
0
100
AcDbTrace
62
4
6
CONTINUOUS
10
63.4603800000
20
242.2487540000
11
66.9603800000
21
241.6654210000
12
66.9603800000
22
242.8320880000
13
66.9603800000
23
242.8320880000
0
LINE
5
692
100
AcDbEntity
8
0
100
AcDbLine
62
4
6
CONTINUOUS
10
116.9603800000
20
241.6654210000
11
120.4603800000
21
242.2487540000
0
LINE
5
693
100
AcDbEntity
8
0
100
AcDbLine
62
4
6
CONTINUOUS
10
120.4603800000
20
242.2487540000
11
116.9603800000
21
242.8320880000
0
LINE
5
694
100
AcDbEntity
8
0
100
AcDbLine
62
4
6
CONTINUOUS
10
116.9603800000
20
242.8320880000
11
116.9603800000
21
241.6654210000
0
SOLID
5
695
100
AcDbEntity
8
0
100
AcDbTrace
62
4
6
CONTINUOUS
10
120.4603800000
20
242.2487540000
11
116.9603800000
21
242.8320880000
12
116.9603800000
22
241.6654210000
13
116.9603800000
23
241.6654210000
0
LINE
5
696
100
AcDbEntity
8
0
100
AcDbLine
62
4
6
CONTINUOUS
10
125.9103800000
20
229.8873300000
11
146.0506080000
21
229.8873300000
0
LINE
5
697
100
AcDbEntity
8
0
100
AcDbLine
62
4
6
CONTINUOUS
10
68.9103800000
20
157.8873300000
11
146.0506080000
21
157.8873300000
0
LINE
5
698
100
AcDbEntity
8
0
100
AcDbLine
62
4
6
CONTINUOUS
10
144.7506080000
20
226.3873300000
11
144.7506080000
21
161.3873300000
0
LINE
5
699
100
AcDbEntity
8
0
100
AcDbLine
62
4
6
CONTINUOUS
10
145.3339410000
20
226.3873300000
11
144.7506080000
21
229.8873300000
0
LINE
5
69A
100
AcDbEntity
8
0
100
AcDbLine
62
4
6
CONTINUOUS
10
144.7506080000
20
229.8873300000
11
144.1672750000
21
226.3873300000
0
LINE
5
69B
100
AcDbEntity
8
0
100
AcDbLine
62
4
6
CONTINUOUS
10
144.1672750000
20
226.3873300000
11
145.3339410000
21
226.3873300000
0
SOLID
5
69C
100
AcDbEntity
8
0
100
AcDbTrace
62
4
6
CONTINUOUS
10
144.1672750000
20
226.3873298400
11
145.3339410000
21
226.3873298400
12
144.7506080000
22
229.8873300000
13
144.7506080000
23
229.8873300000
0
LINE
5
69D
100
AcDbEntity
8
0
100
AcDbLine
62
4
6
CONTINUOUS
10
145.3339410000
20
161.3873300000
11
144.7506080000
21
157.8873300000
0
LINE
5
69E
100
AcDbEntity
8
0
100
AcDbLine
62
4
6
CONTINUOUS
10
144.7506080000
20
157.8873300000
11
144.1672750000
21
161.3873300000
0
LINE
5
69F
100
AcDbEntity
8
0
100
AcDbLine
62
4
6
CONTINUOUS
10
144.1672750000
20
161.3873300000
11
145.3339410000
21
161.3873300000
0
SOLID
5
6A0
100
AcDbEntity
8
0
100
AcDbTrace
62
4
6
CONTINUOUS
10
145.3339410000
20
161.3873301600
11
144.1672750000
21
161.3873301600
12
144.7506080000
22
157.8873300000
13
144.7506080000
23
157.8873300000
0
LINE
5
6A1
100
AcDbEntity
8
0
100
AcDbLine
62
4
6
CONTINUOUS
10
58.8162060000
20
157.3200200000
11
58.8162060000
21
142.2411200000
0
LINE
5
6A2
100
AcDbEntity
8
0
100
AcDbLine
62
4
6
CONTINUOUS
10
68.1103800000
20
157.0873300000
11
68.1103800000
21
149.7161720000
0
LINE
5
6A3
100
AcDbEntity
8
0
100
AcDbLine
62
4
6
CONTINUOUS
10
54.2217720000
20
144.0411200000
11
87.1150950000
21
144.0411200000
0
LINE
5
6A4
100
AcDbEntity
8
0
100
AcDbLine
62
4
6
CONTINUOUS
10
72.1103800000
20
143.4577870000
11
68.6103800000
21
144.0411200000
0
LINE
5
6A5
100
AcDbEntity
8
0
100
AcDbLine
62
4
6
CONTINUOUS
10
68.6103800000
20
144.0411200000
11
72.1103800000
21
144.6244540000
0
LINE
5
6A6
100
AcDbEntity
8
0
100
AcDbLine
62
4
6
CONTINUOUS
10
72.1103800000
20
144.6244540000
11
72.1103800000
21
143.4577870000
0
SOLID
5
6A7
100
AcDbEntity
8
0
100
AcDbTrace
62
4
6
CONTINUOUS
10
68.6103800000
20
144.0411200000
11
72.1103800000
21
143.4577870000
12
72.1103800000
22
144.6244540000
13
72.1103800000
23
144.6244540000
0
LINE
5
6A8
100
AcDbEntity
8
0
100
AcDbLine
62
4
6
CONTINUOUS
10
55.8162060000
20
143.4577870000
11
59.3162060000
21
144.0411200000
0
LINE
5
6A9
100
AcDbEntity
8
0
100
AcDbLine
62
4
6
CONTINUOUS
10
59.3162060000
20
144.0411200000
11
55.8162060000
21
144.6244540000
0
LINE
5
6AA
100
AcDbEntity
8
0
100
AcDbLine
62
4
6
CONTINUOUS
10
55.8162060000
20
144.6244540000
11
55.8162060000
21
143.4577870000
0
SOLID
5
6AB
100
AcDbEntity
8
0
100
AcDbTrace
62
4
6
CONTINUOUS
10
59.3162060000
20
144.0411200000
11
55.8162060000
21
144.6244540000
12
55.8162060000
22
143.4577870000
13
55.8162060000
23
143.4577870000
0
LINE
5
6AC
100
AcDbEntity
8
0
100
AcDbLine
62
4
6
CONTINUOUS
10
178.5577390000
20
194.7213720000
11
178.5577390000
21
224.5500470000
0
LINE
5
6AD
100
AcDbEntity
8
0
100
AcDbLine
62
4
6
CONTINUOUS
10
256.5577390000
20
194.7213720000
11
256.5577390000
21
202.2004260000
0
LINE
5
6AE
100
AcDbEntity
8
0
100
AcDbLine
62
4
6
CONTINUOUS
10
182.0577390000
20
223.2500470000
11
253.0577390000
21
223.2500470000
0
LINE
5
6AF
100
AcDbEntity
8
0
100
AcDbLine
62
4
6
CONTINUOUS
10
182.0577390000
20
222.6667140000
11
178.5577390000
21
223.2500470000
0
LINE
5
6B0
100
AcDbEntity
8
0
100
AcDbLine
62
4
6
CONTINUOUS
10
178.5577390000
20
223.2500470000
11
182.0577390000
21
223.8333800000
0
LINE
5
6B1
100
AcDbEntity
8
0
100
AcDbLine
62
4
6
CONTINUOUS
10
182.0577390000
20
223.8333800000
11
182.0577390000
21
222.6667140000
0
SOLID
5
6B2
100
AcDbEntity
8
0
100
AcDbTrace
62
4
6
CONTINUOUS
10
178.5577390000
20
223.2500470000
11
182.0577390000
21
222.6667140000
12
182.0577390000
22
223.8333800000
13
182.0577390000
23
223.8333800000
0
LINE
5
6B3
100
AcDbEntity
8
0
100
AcDbLine
62
4
6
CONTINUOUS
10
253.0577390000
20
222.6667140000
11
256.5577390000
21
223.2500470000
0
LINE
5
6B4
100
AcDbEntity
8
0
100
AcDbLine
62
4
6
CONTINUOUS
10
256.5577390000
20
223.2500470000
11
253.0577390000
21
223.8333800000
0
LINE
5
6B5
100
AcDbEntity
8
0
100
AcDbLine
62
4
6
CONTINUOUS
10
253.0577390000
20
223.8333800000
11
253.0577390000
21
222.6667140000
0
SOLID
5
6B6
100
AcDbEntity
8
0
100
AcDbTrace
62
4
6
CONTINUOUS
10
256.5577390000
20
223.2500470000
11
253.0577390000
21
223.8333800000
12
253.0577390000
22
222.6667140000
13
253.0577390000
23
222.6667140000
0
LINE
5
6B7
100
AcDbEntity
8
0
100
AcDbLine
62
4
6
CONTINUOUS
10
246.8577390000
20
204.4213720000
11
278.3251990000
21
204.4213720000
0
LINE
5
6B8
100
AcDbEntity
8
0
100
AcDbLine
62
4
6
CONTINUOUS
10
246.8577390000
20
111.4213720000
11
278.3251990000
21
111.4213720000
0
LINE
5
6B9
100
AcDbEntity
8
0
100
AcDbLine
62
4
6
CONTINUOUS
10
277.0251990000
20
200.9213720000
11
277.0251990000
21
114.9213720000
0
LINE
5
6BA
100
AcDbEntity
8
0
100
AcDbLine
62
4
6
CONTINUOUS
10
277.6085320000
20
200.9213720000
11
277.0251990000
21
204.4213720000
0
LINE
5
6BB
100
AcDbEntity
8
0
100
AcDbLine
62
4
6
CONTINUOUS
10
277.0251990000
20
204.4213720000
11
276.4418650000
21
200.9213720000
0
LINE
5
6BC
100
AcDbEntity
8
0
100
AcDbLine
62
4
6
CONTINUOUS
10
276.4418650000
20
200.9213720000
11
277.6085320000
21
200.9213720000
0
SOLID
5
6BD
100
AcDbEntity
8
0
100
AcDbTrace
62
4
6
CONTINUOUS
10
276.4418650000
20
200.9213719800
11
277.6085320000
21
200.9213719800
12
277.0251990000
22
204.4213720000
13
277.0251990000
23
204.4213720000
0
LINE
5
6BE
100
AcDbEntity
8
0
100
AcDbLine
62
4
6
CONTINUOUS
10
277.6085320000
20
114.9213720000
11
277.0251990000
21
111.4213720000
0
LINE
5
6BF
100
AcDbEntity
8
0
100
AcDbLine
62
4
6
CONTINUOUS
10
277.0251990000
20
111.4213720000
11
276.4418650000
21
114.9213720000
0
LINE
5
6C0
100
AcDbEntity
8
0
100
AcDbLine
62
4
6
CONTINUOUS
10
276.4418650000
20
114.9213720000
11
277.6085320000
21
114.9213720000
0
SOLID
5
6C1
100
AcDbEntity
8
0
100
AcDbTrace
62
4
6
CONTINUOUS
10
277.6085320000
20
114.9213718800
11
276.4418650000
21
114.9213718800
12
277.0251990000
22
111.4213720000
13
277.0251990000
23
111.4213720000
0
LINE
5
6C2
100
AcDbEntity
8
0
100
AcDbLine
62
4
6
CONTINUOUS
10
318.4452950000
20
188.8713720000
11
318.4452950000
21
224.5500470000
0
LINE
5
6C3
100
AcDbEntity
8
0
100
AcDbLine
62
4
6
CONTINUOUS
10
381.4452950000
20
192.9213720000
11
381.4452950000
21
224.5500470000
0
LINE
5
6C4
100
AcDbEntity
8
0
100
AcDbLine
62
4
6
CONTINUOUS
10
321.9452950000
20
223.2500470000
11
377.9452950000
21
223.2500470000
0
LINE
5
6C5
100
AcDbEntity
8
0
100
AcDbLine
62
4
6
CONTINUOUS
10
321.9452950000
20
222.6667140000
11
318.4452950000
21
223.2500470000
0
LINE
5
6C6
100
AcDbEntity
8
0
100
AcDbLine
62
4
6
CONTINUOUS
10
318.4452950000
20
223.2500470000
11
321.9452950000
21
223.8333800000
0
LINE
5
6C7
100
AcDbEntity
8
0
100
AcDbLine
62
4
6
CONTINUOUS
10
321.9452950000
20
223.8333800000
11
321.9452950000
21
222.6667140000
0
SOLID
5
6C8
100
AcDbEntity
8
0
100
AcDbTrace
62
4
6
CONTINUOUS
10
318.4452950000
20
223.2500470000
11
321.9452950000
21
222.6667140000
12
321.9452950000
22
223.8333800000
13
321.9452950000
23
223.8333800000
0
LINE
5
6C9
100
AcDbEntity
8
0
100
AcDbLine
62
4
6
CONTINUOUS
10
377.9452950000
20
222.6667140000
11
381.4452950000
21
223.2500470000
0
LINE
5
6CA
100
AcDbEntity
8
0
100
AcDbLine
62
4
6
CONTINUOUS
10
381.4452950000
20
223.2500470000
11
377.9452950000
21
223.8333800000
0
LINE
5
6CB
100
AcDbEntity
8
0
100
AcDbLine
62
4
6
CONTINUOUS
10
377.9452950000
20
223.8333800000
11
377.9452950000
21
222.6667140000
0
SOLID
5
6CC
100
AcDbEntity
8
0
100
AcDbTrace
62
4
6
CONTINUOUS
10
381.4452950000
20
223.2500470000
11
377.9452950000
21
223.8333800000
12
377.9452950000
22
222.6667140000
13
377.9452950000
23
222.6667140000
0
LINE
5
6CD
100
AcDbEntity
8
0
100
AcDbLine
62
4
6
CONTINUOUS
10
373.3452950000
20
111.8213720000
11
373.3452950000
21
101.5164410000
0
LINE
5
6CE
100
AcDbEntity
8
0
100
AcDbLine
62
4
6
CONTINUOUS
10
367.3452950000
20
110.6213720000
11
367.3452950000
21
108.8627340000
0
LINE
5
6CF
100
AcDbEntity
8
0
100
AcDbLine
62
4
6
CONTINUOUS
10
376.8452950000
20
102.8164410000
11
378.4960100000
21
102.8164410000
0
LINE
5
6D0
100
AcDbEntity
8
0
100
AcDbLine
62
4
6
CONTINUOUS
10
363.8452950000
20
102.8164410000
11
347.1622590000
21
102.8164410000
0
LINE
5
6D1
100
AcDbEntity
8
0
100
AcDbLine
62
4
6
CONTINUOUS
10
373.3452950000
20
102.8164410000
11
367.3452950000
21
102.8164410000
0
LINE
5
6D2
100
AcDbEntity
8
0
100
AcDbLine
62
4
6
CONTINUOUS
10
376.8452950000
20
102.2331070000
11
373.3452950000
21
102.8164410000
0
LINE
5
6D3
100
AcDbEntity
8
0
100
AcDbLine
62
4
6
CONTINUOUS
10
373.3452950000
20
102.8164410000
11
376.8452950000
21
103.3997740000
0
LINE
5
6D4
100
AcDbEntity
8
0
100
AcDbLine
62
4
6
CONTINUOUS
10
376.8452950000
20
103.3997740000
11
376.8452950000
21
102.2331070000
0
SOLID
5
6D5
100
AcDbEntity
8
0
100
AcDbTrace
62
4
6
CONTINUOUS
10
373.3452950000
20
102.8164410000
11
376.8452950000
21
102.2331070000
12
376.8452950000
22
103.3997740000
13
376.8452950000
23
103.3997740000
0
LINE
5
6D6
100
AcDbEntity
8
0
100
AcDbLine
62
4
6
CONTINUOUS
10
363.8452950000
20
102.2331070000
11
367.3452950000
21
102.8164410000
0
LINE
5
6D7
100
AcDbEntity
8
0
100
AcDbLine
62
4
6
CONTINUOUS
10
367.3452950000
20
102.8164410000
11
363.8452950000
21
103.3997740000
0
LINE
5
6D8
100
AcDbEntity
8
0
100
AcDbLine
62
4
6
CONTINUOUS
10
363.8452950000
20
103.3997740000
11
363.8452950000
21
102.2331070000
0
SOLID
5
6D9
100
AcDbEntity
8
0
100
AcDbTrace
62
4
6
CONTINUOUS
10
367.3452950000
20
102.8164410000
11
363.8452950000
21
103.3997740000
12
363.8452950000
22
102.2331070000
13
363.8452950000
23
102.2331070000
0
LINE
5
6DA
100
AcDbEntity
8
0
100
AcDbLine
62
4
6
CONTINUOUS
10
381.4452950000
20
121.7213720000
11
381.4452950000
21
98.4310160000
0
LINE
5
6DB
100
AcDbEntity
8
0
100
AcDbLine
62
4
6
CONTINUOUS
10
373.3452950000
20
111.8213720000
11
373.3452950000
21
90.6600370000
0
LINE
5
6DC
100
AcDbEntity
8
0
100
AcDbLine
62
4
6
CONTINUOUS
10
398.2551930000
20
91.9600370000
11
368.9147080000
21
91.9600370000
0
LINE
5
6DD
100
AcDbEntity
8
0
100
AcDbLine
62
4
6
CONTINUOUS
10
369.8452950000
20
91.3767040000
11
373.3452950000
21
91.9600370000
0
LINE
5
6DE
100
AcDbEntity
8
0
100
AcDbLine
62
4
6
CONTINUOUS
10
373.3452950000
20
91.9600370000
11
369.8452950000
21
92.5433700000
0
LINE
5
6DF
100
AcDbEntity
8
0
100
AcDbLine
62
4
6
CONTINUOUS
10
369.8452950000
20
92.5433700000
11
369.8452950000
21
91.3767040000
0
SOLID
5
6E0
100
AcDbEntity
8
0
100
AcDbTrace
62
4
6
CONTINUOUS
10
373.3452950000
20
91.9600370000
11
369.8452950000
21
92.5433700000
12
369.8452950000
22
91.3767040000
13
369.8452950000
23
91.3767040000
0
LINE
5
6E1
100
AcDbEntity
8
0
100
AcDbLine
62
4
6
CONTINUOUS
10
384.9452950000
20
91.3767040000
11
381.4452950000
21
91.9600370000
0
LINE
5
6E2
100
AcDbEntity
8
0
100
AcDbLine
62
4
6
CONTINUOUS
10
381.4452950000
20
91.9600370000
11
384.9452950000
21
92.5433700000
0
LINE
5
6E3
100
AcDbEntity
8
0
100
AcDbLine
62
4
6
CONTINUOUS
10
384.9452950000
20
92.5433700000
11
384.9452950000
21
91.3767040000
0
SOLID
5
6E4
100
AcDbEntity
8
0
100
AcDbTrace
62
4
6
CONTINUOUS
10
381.4452950000
20
91.9600370000
11
384.9452950000
21
91.3767040000
12
384.9452950000
22
92.5433700000
13
384.9452950000
23
92.5433700000
0
LINE
5
6E5
100
AcDbEntity
8
0
100
AcDbLine
62
4
6
CONTINUOUS
10
367.3452950000
20
103.8131150000
11
367.3452950000
21
101.5164410000
0
LINE
5
6E6
100
AcDbEntity
8
0
100
AcDbLine
62
4
6
CONTINUOUS
10
68.1103800000
20
144.6957890000
11
68.1103800000
21
142.2411200000
0
LINE
5
6E7
100
AcDbEntity
8
0
100
AcDbLine
62
4
6
CONTINUOUS
10
256.5577390000
20
206.8531710000
11
256.5577390000
21
224.5500470000
0
ARC
5
6E8
100
AcDbEntity
8
0
100
AcDbCircle
62
4
6
CONTINUOUS
10
246.0577300943
20
193.9213713484
40
6.0241037388
100
AcDbArc
50
330.0000386695
51
34.9999500373
0
ARC
5
6E9
100
AcDbEntity
8
0
100
AcDbCircle
62
4
6
CONTINUOUS
10
250.3755585000
20
196.9447410000
40
0.7530121828
100
AcDbArc
50
34.9999958798
51
214.9999958798
0
ARC
5
6EA
100
AcDbEntity
8
0
100
AcDbCircle
62
4
6
CONTINUOUS
10
246.0577480526
20
193.9213732959
40
4.5180635455
100
AcDbArc
50
339.5940109886
51
35.0000451500
0
LINE
5
6EB
100
AcDbEntity
8
0
100
AcDbLine
62
4
6
CONTINUOUS
10
250.2922830000
20
192.3460600000
11
248.7166910000
21
193.2557280000
0
ARC
5
6EC
100
AcDbEntity
8
0
100
AcDbCircle
62
4
6
CONTINUOUS
10
248.3401850000
20
192.6036005000
40
0.7530119815
100
AcDbArc
50
59.9999991876
51
239.9999991876
0
LINE
5
6ED
100
AcDbEntity
8
0
100
AcDbLine
62
4
6
CONTINUOUS
10
247.9636790000
20
191.9514730000
11
250.2461260000
21
190.6337020000
0
ARC
5
6EE
100
AcDbEntity
8
0
100
AcDbCircle
62
4
6
CONTINUOUS
10
250.6226322059
20
191.2858282315
40
0.7530109859
100
AcDbArc
50
239.9999373611
51
330.0000229697
0
ARC
5
6EF
100
AcDbEntity
8
0
100
AcDbCircle
62
4
6
CONTINUOUS
10
246.0577386516
20
193.9213630943
40
6.0241037388
100
AcDbArc
50
60.0000386695
51
124.9999500373
0
ARC
5
6F0
100
AcDbEntity
8
0
100
AcDbCircle
62
4
6
CONTINUOUS
10
243.0343690000
20
198.2391915000
40
0.7530121828
100
AcDbArc
50
124.9999958798
51
304.9999958798
0
ARC
5
6F1
100
AcDbEntity
8
0
100
AcDbCircle
62
4
6
CONTINUOUS
10
246.0577325773
20
193.9213855859
40
4.5180574651
100
AcDbArc
50
99.5940167790
51
125.0000352554
0
LINE
5
6F2
100
AcDbEntity
8
0
100
AcDbLine
62
4
6
CONTINUOUS
10
245.3047270000
20
198.3762510000
11
245.3047270000
21
188.6502870000
0
ARC
5
6F3
100
AcDbEntity
8
0
100
AcDbCircle
62
4
6
CONTINUOUS
10
246.0577390000
20
188.6502870000
40
0.7530120000
100
AcDbArc
50
180.0000000000
51
360.0000000000
0
LINE
5
6F4
100
AcDbEntity
8
0
100
AcDbLine
62
4
6
CONTINUOUS
10
246.8107510000
20
188.6502870000
11
246.8107510000
21
198.3762510000
0
ARC
5
6F5
100
AcDbEntity
8
0
100
AcDbCircle
62
4
6
CONTINUOUS
10
246.0577437942
20
193.9213856711
40
4.5180576525
100
AcDbArc
50
59.9999651548
51
80.4059626780
0
ARC
5
6F6
100
AcDbEntity
8
0
100
AcDbCircle
62
4
6
CONTINUOUS
10
248.6932810000
20
198.4862645000
40
0.7530119815
100
AcDbArc
50
239.9999991876
51
59.9999991876
0
ARC
5
6F7
100
AcDbEntity
8
0
100
AcDbCircle
62
4
6
CONTINUOUS
10
246.0577474057
20
193.9213724365
40
6.0241037794
100
AcDbArc
50
150.0000475119
51
214.9999588798
0
ARC
5
6F8
100
AcDbEntity
8
0
100
AcDbCircle
62
4
6
CONTINUOUS
10
241.7399195000
20
190.8980020000
40
0.7530121828
100
AcDbArc
50
214.9999958798
51
34.9999958798
0
ARC
5
6F9
100
AcDbEntity
8
0
100
AcDbCircle
62
4
6
CONTINUOUS
10
246.0577303997
20
193.9213711563
40
4.5180647489
100
AcDbArc
50
159.5940227851
51
215.0000569464
0
LINE
5
6FA
100
AcDbEntity
8
0
100
AcDbLine
62
4
6
CONTINUOUS
10
241.8231940000
20
195.4966840000
11
243.3987860000
21
194.5870150000
0
ARC
5
6FB
100
AcDbEntity
8
0
100
AcDbCircle
62
4
6
CONTINUOUS
10
243.7752920000
20
195.2391425000
40
0.7530119815
100
AcDbArc
50
239.9999991876
51
59.9999991876
0
LINE
5
6FC
100
AcDbEntity
8
0
100
AcDbLine
62
4
6
CONTINUOUS
10
244.1517980000
20
195.8912700000
11
241.8693520000
21
197.2090410000
0
ARC
5
6FD
100
AcDbEntity
8
0
100
AcDbCircle
62
4
6
CONTINUOUS
10
241.4928452941
20
196.5569142685
40
0.7530116690
100
AcDbArc
50
59.9999234359
51
150.0000090445
0
LINE
5
6FE
100
AcDbEntity
8
0
100
AcDbLine
62
4
6
CONTINUOUS
10
127.3603800000
20
231.6678080000
11
127.3603800000
21
252.8542430000
0
LINE
5
6FF
100
AcDbEntity
8
0
100
AcDbLine
62
4
6
CONTINUOUS
10
381.4452950000
20
93.5130890000
11
381.4452950000
21
90.6600370000
0
TEXT
5
700
100
AcDbEntity
8
05
100
AcDbText
62
4
6
CONTINUOUS
10
360.0000000000
20
16.0000000000
40
1.5000000000
1
Zeichn. Nr.
51
15.0000000000
72
5
11
371.1785714286
21
16.0000000000
100
AcDbText
0
TEXT
5
701
100
AcDbEntity
8
05
100
AcDbText
62
4
6
CONTINUOUS
10
360.0000000000
20
33.0000000000
40
1.5000000000
1
Ersetzt durch:         Blatt
51
15.0000000000
72
5
11
389.1428571429
21
33.0000000000
100
AcDbText
0
TEXT
5
702
100
AcDbEntity
8
05
100
AcDbText
62
4
6
CONTINUOUS
10
360.0000000000
20
48.0000000000
40
1.5000000000
1
Gezeichnet
51
15.0000000000
72
5
11
370.2142857143
21
48.0000000000
100
AcDbText
0
TEXT
5
703
100
AcDbEntity
8
05
100
AcDbText
62
4
6
CONTINUOUS
10
360.0000000000
20
37.0000000000
40
1.5000000000
1
Gesehen
51
15.0000000000
72
5
11
367.6071428571
21
37.0000000000
100
AcDbText
0
TEXT
5
704
100
AcDbEntity
8
05
100
AcDbText
62
4
6
CONTINUOUS
10
379.0000000000
20
52.0000000000
40
1.5000000000
1
Datum     Name
51
15.0000000000
72
5
11
395.3571428571
21
52.0000000000
100
AcDbText
0
TEXT
5
705
100
AcDbEntity
8
05
100
AcDbText
62
4
6
CONTINUOUS
10
319.0000000000
20
52.0000000000
40
1.5000000000
1
Werkstoff:      Massstab:
51
15.0000000000
72
5
11
345.5714285714
21
52.0000000000
100
AcDbText
0
TEXT
5
706
100
AcDbEntity
8
05
100
AcDbText
62
4
6
CONTINUOUS
10
278.0000000000
20
33.0000000000
40
1.5000000000
1
Benennung:
51
15.0000000000
72
5
11
288.2857142857
21
33.0000000000
100
AcDbText
0
TEXT
5
707
100
AcDbEntity
8
05
100
AcDbText
62
4
6
CONTINUOUS
10
278.0000000000
20
49.0000000000
40
1.5000000000
1
*)Lieferant darf ohne 
51
15.0000000000
72
5
11
300.1428571429
21
49.0000000000
100
AcDbText
0
TEXT
5
708
100
AcDbEntity
8
05
100
AcDbText
62
4
6
CONTINUOUS
10
278.0000000000
20
46.5000000000
40
1.5000000000
1
 Ruecksprache nicht 
51
15.0000000000
72
5
11
298.9285714286
21
46.5000000000
100
AcDbText
0
TEXT
5
709
100
AcDbEntity
8
05
100
AcDbText
62
4
6
CONTINUOUS
10
278.0000000000
20
44.0000000000
40
1.5000000000
1
 geaendert werden
51
15.0000000000
72
5
11
296.4285714286
21
44.0000000000
100
AcDbText
0
TEXT
5
70A
100
AcDbEntity
8
05
100
AcDbText
62
4
6
CONTINUOUS
10
278.0000000000
20
40.0000000000
40
1.5000000000
1
Zeichnung urheberrechtlich
51
15.0000000000
72
5
11
304.3214285714
21
40.0000000000
100
AcDbText
0
TEXT
5
70B
100
AcDbEntity
8
05
100
AcDbText
62
4
6
CONTINUOUS
10
278.0000000000
20
37.5000000000
40
1.5000000000
1
geschuetzt (DIN 34) (C)
51
15.0000000000
72
5
11
301.2857142857
21
37.5000000000
100
AcDbText
0
TEXT
5
70C
100
AcDbEntity
8
05
100
AcDbText
62
4
6
CONTINUOUS
10
360.0000000000
20
42.0000000000
40
1.5000000000
1
Geprueft
51
15.0000000000
72
5
11
368.1428571429
21
42.0000000000
100
AcDbText
0
TEXT
5
70D
100
AcDbEntity
8
05
100
AcDbText
62
4
6
CONTINUOUS
10
360.0000000000
20
25.0000000000
40
1.5000000000
1
Ersatz fuer:           von  Blatt
51
15.0000000000
72
5
11
395.0357142857
21
25.0000000000
100
AcDbText
0
TEXT
5
70E
100
AcDbEntity
8
05
100
AcDbText
62
4
6
CONTINUOUS
10
213.0000000000
20
11.0000000000
40
1.5000000000
1
Ind.  Aenderung             Datum   
51
15.0000000000
72
5
11
253.6785714286
21
11.0000000000
100
AcDbText
0
TEXT
5
70F
100
AcDbEntity
8
05
100
AcDbText
62
4
6
CONTINUOUS
10
253.6785714286
20
11.0000000000
40
1.5000000000
1
 Name
51
15.0000000000
72
5
11
259.5714285714
21
11.0000000000
100
AcDbText
0
TEXT
5
710
100
AcDbEntity
8
035
100
AcDbText
62
4
6
CONTINUOUS
10
332.4230740000
20
13.2646360000
40
2.4848480000
1
FL-9494 SCHAAN
51
15.0000000000
72
5
11
359.5197498095
21
13.2646360000
100
AcDbText
0
TEXT
5
711
100
AcDbEntity
8
05
100
AcDbText
62
4
6
CONTINUOUS
10
391.5000000000
20
47.0000000000
40
2.5000000000
1
Illenberger 
72
5
11
411.5000000000
21
47.0000000000
100
AcDbText
0
TEXT
5
712
100
AcDbEntity
8
05
100
AcDbText
62
4
6
CONTINUOUS
10
378.7142857143
20
47.0000000000
40
2.5000000000
1
09.11.90
51
15.0000000000
72
5
11
392.2857142857
21
47.0000000000
100
AcDbText
0
TEXT
5
713
100
AcDbEntity
8
05
100
AcDbText
62
2
6
CONTINUOUS
10
303.1190476190
20
22.5000000000
40
5.0000000000
1
NC7FDL-1
51
15.0000000000
72
5
11
332.8809523810
21
22.5000000000
100
AcDbText
0
TEXT
5
714
100
AcDbEntity
8
05
100
AcDbText
62
3
6
CONTINUOUS
10
372.8247810000
20
11.9765410000
40
3.5000000000
1
3102 St 10 20
51
15.0000000000
72
5
11
406.0747810000
21
11.9765410000
100
AcDbText
0
TEXT
5
715
100
AcDbEntity
8
05
100
AcDbText
62
2
6
CONTINUOUS
10
345.3268521429
20
44.6560560000
40
5.0000000000
1
3:1
51
15.0000000000
72
5
11
353.5411378571
21
44.6560560000
100
AcDbText
0
TEXT
5
716
100
AcDbEntity
8
05
100
AcDbText
62
4
6
CONTINUOUS
10
212.8137330000
20
17.0000000000
40
2.5000000000
1
A
51
15.0000000000
72
5
11
214.9565901429
21
17.0000000000
100
AcDbText
0
TEXT
5
717
100
AcDbEntity
8
05
100
AcDbText
62
4
6
CONTINUOUS
10
219.6512570000
20
17.0000000000
40
2.5000000000
1
Aktuelle Zeichnung 
51
15.0000000000
72
5
11
252.3893522381
21
17.0000000000
100
AcDbText
0
TEXT
5
718
100
AcDbEntity
8
05
100
AcDbText
62
4
6
CONTINUOUS
10
252.6512570000
20
17.0000000000
40
2.5000000000
1
03.03.98
51
15.0000000000
72
5
11
266.9369712857
21
17.0000000000
100
AcDbText
0
TEXT
5
719
100
AcDbEntity
8
05
100
AcDbText
62
4
6
CONTINUOUS
10
265.5350100000
20
17.0000000000
40
2.5000000000
1
Alinjak
51
15.0000000000
72
5
11
276.8445338095
21
17.0000000000
100
AcDbText
0
TEXT
5
71A
100
AcDbEntity
8
MITTE
100
AcDbText
62
4
6
CONTINUOUS
10
231.7023515714
20
152.6773430000
40
3.0000000000
1
2
72
5
11
234.0594944286
21
152.6773430000
100
AcDbText
0
TEXT
5
71B
100
AcDbEntity
8
MITTE
100
AcDbText
62
4
6
CONTINUOUS
10
231.1407771429
20
163.8806970000
40
3.0000000000
1
1
72
5
11
232.8550628571
21
163.8806970000
100
AcDbText
0
TEXT
5
71C
100
AcDbEntity
8
MITTE
100
AcDbText
62
4
6
CONTINUOUS
10
208.2284885714
20
140.9537890000
40
3.0000000000
1
4
72
5
11
210.5856314286
21
140.9537890000
100
AcDbText
0
TEXT
5
71D
100
AcDbEntity
8
MITTE
100
AcDbText
62
4
6
CONTINUOUS
10
200.8089204286
20
156.3634640000
40
3.0000000000
1
5
72
5
11
202.9517775714
21
156.3634640000
100
AcDbText
0
TEXT
5
71E
100
AcDbEntity
8
MITTE
100
AcDbText
62
4
6
CONTINUOUS
10
223.2972044286
20
141.0983840000
40
3.0000000000
1
3
72
5
11
225.4400615714
21
141.0983840000
100
AcDbText
0
TEXT
5
71F
100
AcDbEntity
8
MITTE
100
AcDbText
62
4
6
CONTINUOUS
10
205.0392375714
20
168.6451970000
40
3.0000000000
1
6
72
5
11
207.3963804286
21
168.6451970000
100
AcDbText
0
TEXT
5
720
100
AcDbEntity
8
MITTE
100
AcDbText
62
4
6
CONTINUOUS
10
216.3791675714
20
161.3604300000
40
3.0000000000
1
7
72
5
11
218.7363104286
21
161.3604300000
100
AcDbText
0
TEXT
5
721
100
AcDbEntity
8
MITTE
100
AcDbText
62
4
6
CONTINUOUS
10
74.6060035714
20
70.8664690000
40
3.0000000000
1
2
72
5
11
76.9631464286
21
70.8664690000
100
AcDbText
0
TEXT
5
722
100
AcDbEntity
8
MITTE
100
AcDbText
62
4
6
CONTINUOUS
10
88.8530994286
20
58.1069660000
40
3.0000000000
1
3
72
5
11
90.9959565714
21
58.1069660000
100
AcDbText
0
TEXT
5
723
100
AcDbEntity
8
MITTE
100
AcDbText
62
4
6
CONTINUOUS
10
101.0121095714
20
61.9529480000
40
3.0000000000
1
4
72
5
11
103.3692524286
21
61.9529480000
100
AcDbText
0
TEXT
5
724
100
AcDbEntity
8
MITTE
100
AcDbText
62
4
6
CONTINUOUS
10
95.7266877143
20
75.3110470000
40
3.0000000000
1
7  
72
5
11
102.7981162857
21
75.3110470000
100
AcDbText
0
TEXT
5
725
100
AcDbEntity
8
MITTE
100
AcDbText
62
4
6
CONTINUOUS
10
80.9045327143
20
86.8171230000
40
3.0000000000
1
G  
72
5
11
87.9759612857
21
86.8171230000
100
AcDbText
0
TEXT
5
726
100
AcDbEntity
8
MITTE
100
AcDbText
62
4
6
CONTINUOUS
10
75.6898161429
20
83.6707830000
40
3.0000000000
1
1
72
5
11
77.4041018571
21
83.6707830000
100
AcDbText
0
TEXT
5
727
100
AcDbEntity
8
MITTE
100
AcDbText
62
4
6
CONTINUOUS
10
106.6742785714
20
78.4979160000
40
3.0000000000
1
6
72
5
11
109.0314214286
21
78.4979160000
100
AcDbText
0
TEXT
5
728
100
AcDbEntity
8
MITTE
100
AcDbText
62
4
6
CONTINUOUS
10
107.8340854286
20
70.7431840000
40
3.0000000000
1
5
72
5
11
109.9769425714
21
70.7431840000
100
AcDbText
0
TEXT
5
729
100
AcDbEntity
8
0
100
AcDbText
62
3
6
CONTINUOUS
10
52.7646000000
20
260.7310870000
40
3.0000000000
1
Panel cut out (rear side)
72
5
11
102.9788857143
21
260.7310870000
100
AcDbText
0
TEXT
5
72A
100
AcDbEntity
8
0
100
AcDbText
62
3
6
CONTINUOUS
10
52.7646000000
20
267.7310870000
40
3.5000000000
1
Frontplattenausschnitt (Rückseite)
72
5
11
131.4312666667
21
267.7310870000
100
AcDbText
0
TEXT
5
72B
100
AcDbEntity
8
05
100
AcDbText
62
3
6
CONTINUOUS
10
207.5467710000
20
195.1165720000
40
5.4000000000
1
PUSH
72
5
11
224.5181995714
21
195.1165720000
100
AcDbText
0
TEXT
5
72C
100
AcDbEntity
8
0
100
AcDbText
62
3
6
CONTINUOUS
10
73.9157536667
20
253.1951580000
40
3.5000000000
1
%%c23.60 [0.929"]
72
5
11
112.3324203333
21
253.1951580000
100
AcDbText
0
TEXT
5
72D
100
AcDbEntity
8
0
100
AcDbText
62
3
6
CONTINUOUS
10
75.3353790000
20
243.8896700000
40
3.5000000000
1
19.00 [0.748"]
72
5
11
108.5853790000
21
243.8896700000
100
AcDbText
0
TEXT
5
72E
100
AcDbEntity
8
0
100
AcDbText
62
3
6
CONTINUOUS
10
143.2346160000
20
177.7877870000
40
3.5000000000
1
24.00 [0.945"]
50
90.0000000000
72
5
11
143.2346160000
21
211.5377870000
100
AcDbText
0
TEXT
5
72F
100
AcDbEntity
8
0
100
AcDbText
62
3
6
CONTINUOUS
10
57.6919256667
20
145.6820360000
40
3.5000000000
1
%%c3.10 [0.122"]
72
5
11
91.8585923333
21
145.6820360000
100
AcDbText
0
TEXT
5
730
100
AcDbEntity
8
0
100
AcDbText
62
3
6
CONTINUOUS
10
200.9327390000
20
224.8909630000
40
3.5000000000
1
26.00 [1.024"]
72
5
11
234.1827390000
21
224.8909630000
100
AcDbText
0
TEXT
5
731
100
AcDbEntity
8
0
100
AcDbText
62
3
6
CONTINUOUS
10
275.5092070000
20
140.6331860000
40
3.5000000000
1
31.00 [1.220"]
50
90.0000000000
72
5
11
275.5092070000
21
172.8831860000
100
AcDbText
0
TEXT
5
732
100
AcDbEntity
8
0
100
AcDbText
62
3
6
CONTINUOUS
10
335.2598050000
20
224.8909630000
40
3.5000000000
1
21.00 [0.827"]
72
5
11
368.5098050000
21
224.8909630000
100
AcDbText
0
TEXT
5
733
100
AcDbEntity
8
0
100
AcDbText
62
3
6
CONTINUOUS
10
344.1568620000
20
104.3557690000
40
3.5000000000
1
2.00 [0.079"]
72
5
11
375.4068620000
21
104.3557690000
100
AcDbText
0
TEXT
5
734
100
AcDbEntity
8
0
100
AcDbText
62
3
6
CONTINUOUS
10
371.8428450000
20
93.6009520000
40
3.5000000000
1
2.70 [0.106"]
72
5
11
402.3428450000
21
93.6009520000
100
AcDbText
0
ENDSEC
0
SECTION
2
OBJECTS
0
DICTIONARY
5
735
100
AcDbDictionary
3
ACAD_GROUP
350
736
3
ACAD_MLINESTYLE
350
737
0
DICTIONARY
5
736
102
{ACAD_REACTORS
330
735
102
}
100
AcDbDictionary
0
DICTIONARY
5
737
102
{ACAD_REACTORS
330
735
102
}
100
AcDbDictionary
3
STANDARD
350
738
0
MLINESTYLE
5
738
102
{ACAD_REACTORS
330
737
102
}
100
AcDbMlineStyle
2
STANDARD
70
0
3

62
256
51
90.0
52
90.0
71
2
49
0.5
62
256
6
BYLAYER
49
-0.5
62
256
6
BYLAYER
0
ENDSEC
0
EOF
