  0
SECTION
  2
HEADER
  9
$ACADVER
  1
AC1009
  9
$INSBASE
 10
0.0
 20
0.0
 30
0.0
  9
$EXTMIN
 10
0.0
 20
0.0
 30
0.0
  9
$EXTMAX
 10
210.0
 20
297.0
 30
0.0
  9
$LIMMIN
 10
0.0
 20
0.0
  9
$LIMMAX
 10
410.0
 20
287.0
  9
$ORTHOMODE
 70
     1
  9
$REGENMODE
 70
     1
  9
$FILLMODE
 70
     1
  9
$QTEXTMODE
 70
     0
  9
$MIRRTEXT
 70
     1
  9
$DRAGMODE
 70
     2
  9
$LTSCALE
 40
5.0
  9
$OSMODE
 70
    33
  9
$ATTMODE
 70
     1
  9
$TEXTSIZE
 40
3.5
  9
$TRACEWID
 40
26.0
  9
$TEXTSTYLE
  7
STANDARD
  9
$CLAYER
  8
05
  9
$CELTYPE
  6
BYLAYER
  9
$CECOLOR
 62
   256
  9
$DIMSCALE
 40
1.0
  9
$DIMASZ
 40
3.5
  9
$DIMEXO
 40
1.0
  9
$DIMDLI
 40
8.0
  9
$DIMRND
 40
0.0
  9
$DIMDLE
 40
0.0
  9
$DIMEXE
 40
1.0
  9
$DIMTP
 40
0.0
  9
$DIMTM
 40
0.0
  9
$DIMTXT
 40
3.5
  9
$DIMCEN
 40
5.0
  9
$DIMTSZ
 40
0.0
  9
$DIMTOL
 70
     0
  9
$DIMLIM
 70
     0
  9
$DIMTIH
 70
     0
  9
$DIMTOH
 70
     0
  9
$DIMSE1
 70
     0
  9
$DIMSE2
 70
     0
  9
$DIMTAD
 70
     1
  9
$DIMZIN
 70
     0
  9
$DIMBLK
  1

  9
$DIMASO
 70
     0
  9
$DIMSHO
 70
     0
  9
$DIMPOST
  1

  9
$DIMAPOST
  1
"
  9
$DIMALT
 70
     0
  9
$DIMALTD
 70
     3
  9
$DIMALTF
 40
0.03937
  9
$DIMLFAC
 40
1.0
  9
$DIMTOFL
 70
     0
  9
$DIMTVP
 40
0.0
  9
$DIMTIX
 70
     1
  9
$DIMSOXD
 70
     1
  9
$DIMSAH
 70
     0
  9
$DIMBLK1
  1

  9
$DIMBLK2
  1

  9
$DIMSTYLE
  2
NEUTRIK
  9
$DIMCLRD
 70
   256
  9
$DIMCLRE
 70
   256
  9
$DIMCLRT
 70
     3
  9
$DIMTFAC
 40
0.714286
  9
$DIMGAP
 40
0.15
  9
$LUNITS
 70
     2
  9
$LUPREC
 70
     2
  9
$SKETCHINC
 40
1.0
  9
$FILLETRAD
 40
0.0
  9
$AUNITS
 70
     0
  9
$AUPREC
 70
     2
  9
$MENU
  1
acad
  9
$ELEVATION
 40
0.0
  9
$PELEVATION
 40
0.0
  9
$THICKNESS
 40
0.0
  9
$LIMCHECK
 70
     0
  9
$BLIPMODE
 70
     0
  9
$CHAMFERA
 40
0.0
  9
$CHAMFERB
 40
0.0
  9
$SKPOLY
 70
     0
  9
$TDCREATE
 40
2451793.535109
  9
$TDUPDATE
 40
2451793.557024
  9
$TDINDWG
 40
0.012841
  9
$TDUSRTIMER
 40
0.012841
  9
$USRTIMER
 70
     1
  9
$ANGBASE
 50
0.0
  9
$ANGDIR
 70
     0
  9
$PDMODE
 70
     0
  9
$PDSIZE
 40
0.0
  9
$PLINEWID
 40
0.0
  9
$COORDS
 70
     2
  9
$SPLFRAME
 70
     0
  9
$SPLINETYPE
 70
     6
  9
$SPLINESEGS
 70
     8
  9
$ATTDIA
 70
     0
  9
$ATTREQ
 70
     1
  9
$HANDLING
 70
     1
  9
$HANDSEED
  5
836
  9
$SURFTAB1
 70
     6
  9
$SURFTAB2
 70
     6
  9
$SURFTYPE
 70
     6
  9
$SURFU
 70
     6
  9
$SURFV
 70
     6
  9
$UCSNAME
  2

  9
$UCSORG
 10
0.0
 20
0.0
 30
0.0
  9
$UCSXDIR
 10
1.0
 20
0.0
 30
0.0
  9
$UCSYDIR
 10
0.0
 20
1.0
 30
0.0
  9
$PUCSNAME
  2

  9
$PUCSORG
 10
0.0
 20
0.0
 30
0.0
  9
$PUCSXDIR
 10
1.0
 20
0.0
 30
0.0
  9
$PUCSYDIR
 10
0.0
 20
1.0
 30
0.0
  9
$USERI1
 70
     0
  9
$USERI2
 70
     0
  9
$USERI3
 70
     0
  9
$USERI4
 70
     0
  9
$USERI5
 70
     0
  9
$USERR1
 40
0.0
  9
$USERR2
 40
0.0
  9
$USERR3
 40
0.0
  9
$USERR4
 40
0.0
  9
$USERR5
 40
0.0
  9
$WORLDVIEW
 70
     1
  9
$SHADEDGE
 70
     3
  9
$SHADEDIF
 70
    70
  9
$TILEMODE
 70
     1
  9
$MAXACTVP
 70
    16
  9
$PLIMCHECK
 70
     0
  9
$PEXTMIN
 10
1.000000E+020
 20
1.000000E+020
 30
1.000000E+020
  9
$PEXTMAX
 10
-1.000000E+020
 20
-1.000000E+020
 30
-1.000000E+020
  9
$PLIMMIN
 10
0.0
 20
0.0
  9
$PLIMMAX
 10
12.0
 20
9.0
  9
$UNITMODE
 70
     0
  9
$VISRETAIN
 70
     0
  9
$PLINEGEN
 70
     0
  9
$PSLTSCALE
 70
     0
  0
ENDSEC
  0
SECTION
  2
TABLES
  0
TABLE
  2
VPORT
 70
     2
  0
VPORT
  2
*ACTIVE
 70
     0
 10
0.0
 20
0.0
 11
1.0
 21
1.0
 12
104.996186
 22
153.371427
 13
0.0
 23
0.0
 14
1.0
 24
1.0
 15
2.0
 25
2.0
 16
0.0
 26
0.0
 36
1.0
 17
0.0
 27
0.0
 37
0.0
 40
309.524998
 41
1.525
 42
50.0
 43
0.0
 44
0.0
 50
0.0
 51
0.0
 71
     0
 72
   500
 73
     1
 74
     0
 75
     0
 76
     0
 77
     0
 78
     0
  0
ENDTAB
  0
TABLE
  2
LTYPE
 70
     2
  0
LTYPE
  2
AUSGEZOGEN
 70
     0
  3
Ausgezogene Linie
 72
    65
 73
     0
 40
0.0
  0
LTYPE
  2
CENTER
 70
     0
  3
____ _ ____ _ ____ _ ____ _ ____ _ ____ _ ____
 72
    65
 73
     4
 40
2.0
 49
1.25
 49
-0.25
 49
0.25
 49
-0.25
  0
ENDTAB
  0
TABLE
  2
LAYER
 70
     9
  0
LAYER
  2
0
 70
     0
 62
     8
  6
AUSGEZOGEN
  0
LAYER
  2
05
 70
     0
 62
     2
  6
AUSGEZOGEN
  0
LAYER
  2
07
 70
     0
 62
     1
  6
AUSGEZOGEN
  0
LAYER
  2
BEM1
 70
     0
 62
     4
  6
AUSGEZOGEN
  0
LAYER
  2
MITTE
 70
     0
 62
     4
  6
CENTER
  0
LAYER
  2
035
 70
     0
 62
     3
  6
AUSGEZOGEN
  0
LAYER
  2
025
 70
     0
 62
     4
  6
AUSGEZOGEN
  0
LAYER
  2
010
 70
     0
 62
     5
  6
AUSGEZOGEN
  0
LAYER
  2
RAHMEN
 70
     0
 62
     2
  6
AUSGEZOGEN
  0
ENDTAB
  0
TABLE
  2
STYLE
 70
     4
  0
STYLE
  2
STANDARD
 70
     0
 40
0.0
 41
0.7
 50
15.0
 71
     0
 42
3.5
  3
txt
  4

  0
STYLE
  2
ASHADE
 70
     0
 40
0.2
 41
1.0
 50
0.0
 71
     0
 42
3.5
  3
simplex
  4

  0
STYLE
  2
SCRIPTS
 70
     0
 40
0.0
 41
1.0
 50
0.0
 71
     0
 42
5.0
  3
scripts
  4

  0
STYLE
  2
HELV
 70
     0
 40
0.0
 41
0.8
 50
10.0
 71
     0
 42
2.0
  3
HELV.SHX
  4

  0
ENDTAB
  0
TABLE
  2
VIEW
 70
     0
  0
ENDTAB
  0
TABLE
  2
UCS
 70
     0
  0
ENDTAB
  0
TABLE
  2
APPID
 70
     1
  0
APPID
  2
ACAD
 70
     0
  0
ENDTAB
  0
TABLE
  2
DIMSTYLE
 70
     1
  0
DIMSTYLE
  2
NEUTRIK
 70
     0
  3

  4
"
  5

  6

  7

 40
1.0
 41
3.5
 42
1.0
 43
8.0
 44
1.2
 45
0.0
 46
0.0
 47
0.0
 48
0.0
140
3.5
141
0.0
142
0.0
143
0.03937
144
1.0
145
0.0
146
1.0
147
0.15
 71
     0
 72
     0
 73
     0
 74
     0
 75
     0
 76
     0
 77
     1
 78
     0
170
     0
171
     3
172
     0
173
     0
174
     1
175
     0
176
   256
177
   256
178
     3
  0
ENDTAB
  0
ENDSEC
  0
SECTION
  2
BLOCKS
  0
BLOCK
  8
0
  2
$MODEL_SPACE
 70
     0
 10
0.0
 20
0.0
 30
0.0
  3
$MODEL_SPACE
  1

  0
ENDBLK
  5
6
  8
0
  0
BLOCK
 67
     1
  8
0
  2
$PAPER_SPACE
 70
     0
 10
0.0
 20
0.0
 30
0.0
  3
$PAPER_SPACE
  1

  0
ENDBLK
  5
9
 67
     1
  8
0
  0
BLOCK
  8
0
  2
ZKOPF
 70
     2
 10
0.0
 20
0.0
 30
0.0
  3
ZKOPF
  1

  0
ATTDEF
  5
52
  8
0
 62
     4
 10
-13.321429
 20
37.0
 30
0.0
 40
2.5
  1
Dobler
  7
SCRIPTS
 72
     1
 11
-8.5
 21
37.0
 31
0.0
  3
Name des Konstrukteurs ?
  2
NAME
 70
     0
  0
POLYLINE
  5
53
  8
0
 62
     2
 66
     1
 10
0.0
 20
0.0
 30
0.0
  0
VERTEX
  5
6C6
  8
0
 62
     2
 10
-51.0
 20
0.0
 30
0.0
  0
VERTEX
  5
6C7
  8
0
 62
     2
 10
-51.0
 20
46.0
 30
0.0
  0
SEQEND
  5
6C8
  8
0
 62
     2
  0
POLYLINE
  5
54
  8
0
 62
     2
 66
     1
 10
0.0
 20
0.0
 30
0.0
  0
VERTEX
  5
6C9
  8
0
 62
     2
 10
-17.0
 20
9.0
 30
0.0
  0
VERTEX
  5
6CA
  8
0
 62
     2
 10
-17.0
 20
46.0
 30
0.0
  0
SEQEND
  5
6CB
  8
0
 62
     2
  0
POLYLINE
  5
55
  8
0
 62
     2
 66
     1
 10
0.0
 20
0.0
 30
0.0
  0
VERTEX
  5
6CC
  8
0
 62
     2
 10
-32.0
 20
26.0
 30
0.0
  0
VERTEX
  5
6CD
  8
0
 62
     2
 10
-32.0
 20
46.0
 30
0.0
  0
SEQEND
  5
6CE
  8
0
 62
     2
  0
POLYLINE
  5
56
  8
0
 62
     2
 66
     1
 10
0.0
 20
0.0
 30
0.0
  0
VERTEX
  5
6CF
  8
0
 62
     2
 10
-133.0
 20
41.0
 30
0.0
  0
VERTEX
  5
6D0
  8
0
 62
     2
 10
-92.0
 20
41.0
 30
0.0
  0
SEQEND
  5
6D1
  8
0
 62
     2
  0
POLYLINE
  5
57
  8
0
 62
     2
 66
     1
 10
0.0
 20
0.0
 30
0.0
  0
VERTEX
  5
6D2
  8
0
 62
     2
 10
-145.0
 20
0.0
 30
0.0
  0
VERTEX
  5
6D3
  8
0
 62
     2
 10
-145.0
 20
46.0
 30
0.0
  0
SEQEND
  5
6D4
  8
0
 62
     2
  0
POLYLINE
  5
58
  8
0
 62
     2
 66
     1
 10
0.0
 20
0.0
 30
0.0
  0
VERTEX
  5
6D5
  8
0
 62
     2
 10
-158.0
 20
0.0
 30
0.0
  0
VERTEX
  5
6D6
  8
0
 62
     2
 10
-158.0
 20
46.0
 30
0.0
  0
SEQEND
  5
6D7
  8
0
 62
     2
  0
LINE
  5
59
  8
0
 62
     2
 10
-200.0
 20
6.0
 30
0.0
 11
-133.0
 21
6.0
 31
0.0
  0
POLYLINE
  5
5A
  8
0
 62
     4
 66
     1
 10
0.0
 20
0.0
 30
0.0
  0
VERTEX
  5
6D8
  8
0
 62
     4
 10
-200.0
 20
11.0
 30
0.0
  0
VERTEX
  5
6D9
  8
0
 62
     4
 10
-133.0
 20
11.0
 30
0.0
  0
SEQEND
  5
6DA
  8
0
 62
     4
  0
POLYLINE
  5
5B
  8
0
 62
     4
 66
     1
 10
0.0
 20
0.0
 30
0.0
  0
VERTEX
  5
6DB
  8
0
 62
     4
 10
-200.0
 20
16.0
 30
0.0
  0
VERTEX
  5
6DC
  8
0
 62
     4
 10
-133.0
 20
16.0
 30
0.0
  0
SEQEND
  5
6DD
  8
0
 62
     4
  0
POLYLINE
  5
5C
  8
0
 62
     4
 66
     1
 10
0.0
 20
0.0
 30
0.0
  0
VERTEX
  5
6DE
  8
0
 62
     4
 10
-200.0
 20
21.0
 30
0.0
  0
VERTEX
  5
6DF
  8
0
 62
     4
 10
-133.0
 20
21.0
 30
0.0
  0
SEQEND
  5
6E0
  8
0
 62
     4
  0
POLYLINE
  5
5D
  8
0
 62
     4
 66
     1
 10
0.0
 20
0.0
 30
0.0
  0
VERTEX
  5
6E1
  8
0
 62
     4
 10
-200.0
 20
26.0
 30
0.0
  0
VERTEX
  5
6E2
  8
0
 62
     4
 10
-133.0
 20
26.0
 30
0.0
  0
SEQEND
  5
6E3
  8
0
 62
     4
  0
POLYLINE
  5
5E
  8
0
 62
     4
 66
     1
 10
0.0
 20
0.0
 30
0.0
  0
VERTEX
  5
6E4
  8
0
 62
     4
 10
-200.0
 20
31.0
 30
0.0
  0
VERTEX
  5
6E5
  8
0
 62
     4
 10
-133.0
 20
31.0
 30
0.0
  0
SEQEND
  5
6E6
  8
0
 62
     4
  0
POLYLINE
  5
5F
  8
0
 62
     4
 66
     1
 10
0.0
 20
0.0
 30
0.0
  0
VERTEX
  5
6E7
  8
0
 62
     4
 10
-200.0
 20
36.0
 30
0.0
  0
VERTEX
  5
6E8
  8
0
 62
     4
 10
-133.0
 20
36.0
 30
0.0
  0
SEQEND
  5
6E9
  8
0
 62
     4
  0
POLYLINE
  5
60
  8
0
 62
     4
 66
     1
 10
0.0
 20
0.0
 30
0.0
  0
VERTEX
  5
6EA
  8
0
 62
     4
 10
-200.0
 20
41.0
 30
0.0
  0
VERTEX
  5
6EB
  8
0
 62
     4
 10
-133.0
 20
41.0
 30
0.0
  0
SEQEND
  5
6EC
  8
0
 62
     4
  0
TEXT
  5
61
  8
0
 62
     4
 10
-50.0
 20
6.0
 30
0.0
 40
1.5
  1
Zeichn. Nr.
 51
15.0
  0
TEXT
  5
62
  8
0
 62
     4
 10
-50.0
 20
23.0
 30
0.0
 40
1.5
  1
Ersetzt durch:         Blatt
 51
15.0
  0
TEXT
  5
63
  8
0
 62
     4
 10
-50.0
 20
38.0
 30
0.0
 40
1.5
  1
Gezeichnet
 51
15.0
  0
TEXT
  5
64
  8
0
 62
     4
 10
-50.0
 20
27.0
 30
0.0
 40
1.5
  1
Gesehen
 51
15.0
  0
TEXT
  5
65
  8
0
 62
     4
 10
-31.0
 20
42.0
 30
0.0
 40
1.5
  1
Datum     Name
 51
15.0
  0
TEXT
  5
66
  8
0
 62
     4
 10
-91.0
 20
42.0
 30
0.0
 40
1.5
  1
Werkstoff:      Massstab:
 51
15.0
  0
TEXT
  5
67
  8
0
 62
     4
 10
-132.0
 20
23.0
 30
0.0
 40
1.5
  1
Benennung:
 51
15.0
  0
LINE
  5
68
  8
0
 62
     2
 10
-133.0
 20
33.0
 30
0.0
 11
-92.0
 21
33.0
 31
0.0
  0
TEXT
  5
69
  8
0
 62
     4
 10
-132.0
 20
39.0
 30
0.0
 40
1.5
  1
*)Lieferant darf ohne 
 51
15.0
  0
TEXT
  5
6A
  8
0
 62
     4
 10
-132.0
 20
36.5
 30
0.0
 40
1.5
  1
 Ruecksprache nicht 
 51
15.0
  0
TEXT
  5
6B
  8
0
 62
     4
 10
-132.0
 20
34.0
 30
0.0
 40
1.5
  1
 geaendert werden
 51
15.0
  0
TEXT
  5
6C
  8
0
 62
     4
 10
-132.0
 20
30.0
 30
0.0
 40
1.5
  1
Zeichnung urheberrechtlich
 51
15.0
  0
TEXT
  5
6D
  8
0
 62
     4
 10
-132.0
 20
27.5
 30
0.0
 40
1.5
  1
geschuetzt (DIN 34) (C)
 51
15.0
  0
TEXT
  5
6E
  8
0
 62
     4
 10
-50.0
 20
32.0
 30
0.0
 40
1.5
  1
Geprueft
 51
15.0
  0
TEXT
  5
6F
  8
0
 62
     4
 10
-50.0
 20
15.0
 30
0.0
 40
1.5
  1
Ersatz fuer:           von  Blatt
 51
15.0
  0
TEXT
  5
70
  8
0
 62
     4
 10
-197.0
 20
1.0
 30
0.0
 40
1.5
  1
Ind.  Aenderung             Datum    Name
 51
15.0
  0
ATTDEF
  5
71
  8
0
 62
     4
 10
-28.875
 20
37.0
 30
0.0
 40
2.5
  1
01.10.91
 41
0.7
 51
15.0
 72
     1
 11
-24.5
 21
37.0
 31
0.0
  3
Datum der Zeichnung ?
  2
DATE
 70
     0
  0
ATTDEF
  5
72
  8
0
 62
     4
 10
-80.5
 20
36.0
 30
0.0
 40
2.5
  1

 41
0.7
 51
15.0
 72
     1
 11
-80.5
 21
36.0
 31
0.0
  3
Aus welchem Werkstoff ?
  2
WERKSTOFF
 70
     0
  0
ATTDEF
  5
73
  8
0
 62
     2
 10
-92.0
 20
12.5
 30
0.0
 40
5.0
  1

 41
0.7
 51
15.0
 72
     1
 11
-92.0
 21
12.5
 31
0.0
  3
Zeichnungsname ?
  2
BENENNUNG
 70
     0
  0
ATTDEF
  5
74
  8
0
 62
     3
 10
-90.265457
 20
21.082191
 30
0.0
 40
3.5
  1
()
 41
0.7
 51
15.0
 72
     1
 11
-89.040457
 21
21.082191
 31
0.0
  3
Zu welchem Produkt ?
  2
TEIL
 70
     0
  0
ATTDEF
  5
75
  8
0
 62
     3
 10
-20.550219
 20
1.976541
 30
0.0
 40
3.5
  1

 41
0.7
 51
15.0
 72
     1
 11
-20.550219
 21
1.976541
 31
0.0
  3
Zeichnungsnummer ?
  2
NUMMER
 70
     0
  0
ATTDEF
  5
76
  8
0
 62
     2
 10
-63.482672
 20
34.656056
 30
0.0
 40
5.0
  1
5:1
 41
0.7
 51
15.0
 72
     1
 11
-60.566005
 21
34.656056
 31
0.0
  3
Hauptmassstab:
  2
MASS
 70
     0
  0
ATTDEF
  5
77
  8
0
 62
     3
 10
-60.480701
 20
28.210451
 30
0.0
 40
3.5
  1

 41
0.7
 51
15.0
 72
     1
 11
-60.480701
 21
28.210451
 31
0.0
  3
Nebenmassstab:
  2
MASS2
 70
     0
  0
ATTDEF
  5
78
  8
0
 62
     4
 10
-81.0
 20
29.0
 30
0.0
 40
2.5
  1

 41
0.7
 51
15.0
 72
     1
 11
-81.0
 21
29.0
 31
0.0
  3
Werkstoffzusatz:
  2
TEIL
 70
     0
  0
ATTDEF
  5
79
  8
0
 62
     3
 10
-107.711452
 20
59.004319
 30
0.0
 40
3.5
  1
Freimasstoleranzen %%p0.1
 41
0.7
 51
15.0
  3
Freimasstoleranzen:
  2
TOL
 70
     0
  0
ATTDEF
  5
7A
  8
0
 62
     3
 10
-107.711452
 20
54.004319
 30
0.0
 40
3.5
  1
nicht bemasste Radien R=0.2
 41
0.7
 51
15.0
  3
Nicht bemasste Radien:
  2
RADIEN
 70
     0
  0
ATTDEF
  5
7B
  8
0
 62
     3
 10
-107.711452
 20
49.004319
 30
0.0
 40
3.5
  1
nicht bemasste Facetten 0.5 x 45%%D
 41
0.7
 51
15.0
  3
nicht bemasste Facetten:
  2
FACETTE
 70
     0
  0
POLYLINE
  5
7C
  8
0
 62
     2
 66
     1
 10
0.0
 20
0.0
 30
0.0
  0
VERTEX
  5
6ED
  8
0
 62
     2
 10
-191.0
 20
0.0
 30
0.0
  0
VERTEX
  5
6EE
  8
0
 62
     2
 10
-191.0
 20
46.0
 30
0.0
  0
SEQEND
  5
6EF
  8
0
 62
     2
  0
POLYLINE
  5
7D
  8
0
 62
     2
 66
     1
 10
0.0
 20
0.0
 30
0.0
  0
VERTEX
  5
6F0
  8
0
 62
     2
 10
-133.0
 20
0.0
 30
0.0
  0
VERTEX
  5
6F1
  8
0
 62
     2
 10
-133.0
 20
46.0
 30
0.0
  0
SEQEND
  5
6F2
  8
0
 62
     2
  0
POLYLINE
  5
7E
  8
0
 62
     2
 66
     1
 10
0.0
 20
0.0
 30
0.0
  0
VERTEX
  5
6F3
  8
0
 62
     2
 10
-92.0
 20
26.0
 30
0.0
  0
VERTEX
  5
6F4
  8
0
 62
     2
 10
-92.0
 20
46.0
 30
0.0
  0
SEQEND
  5
6F5
  8
0
 62
     2
  0
POLYLINE
  5
7F
  8
0
 62
     2
 66
     1
 10
0.0
 20
0.0
 30
0.0
  0
VERTEX
  5
6F6
  8
0
 62
     2
 10
-69.0
 20
26.0
 30
0.0
  0
VERTEX
  5
6F7
  8
0
 62
     2
 10
-69.0
 20
46.0
 30
0.0
  0
SEQEND
  5
6F8
  8
0
 62
     2
  0
ATTDEF
  5
80
  8
0
 62
     4
 10
-197.186267
 20
7.0
 30
0.0
 40
2.5
  1

 41
0.7
 51
15.0
  3
Index1:
  2
INDEX1
 70
     0
  0
ATTDEF
  5
81
  8
0
 62
     4
 10
-190.348743
 20
7.0
 30
0.0
 40
2.5
  1

 41
0.7
 51
15.0
  3
Aenderung1:
  2
A1
 70
     0
  0
ATTDEF
  5
82
  8
0
 62
     4
 10
-157.348743
 20
7.0
 30
0.0
 40
2.5
  1

 41
0.7
 51
15.0
  3
Datum1:
  2
DATUM1
 70
     0
  0
ATTDEF
  5
83
  8
0
 62
     4
 10
-144.46499
 20
7.0
 30
0.0
 40
2.5
  1

 41
0.7
 51
15.0
  3
Name1:
  2
NAME1
 70
     0
  0
ATTDEF
  5
84
  8
0
 62
     4
 10
-197.186267
 20
12.0
 30
0.0
 40
2.5
  1

 41
0.7
 51
15.0
  3
Index2:
  2
INDEX2
 70
     0
  0
ATTDEF
  5
85
  8
0
 62
     4
 10
-190.348743
 20
12.0
 30
0.0
 40
2.5
  1

 41
0.7
 51
15.0
  3
Aenderung2:
  2
A2
 70
     0
  0
ATTDEF
  5
86
  8
0
 62
     4
 10
-157.348743
 20
12.0
 30
0.0
 40
2.5
  1

 41
0.7
 51
15.0
  3
Datum2:
  2
DATUM2
 70
     0
  0
ATTDEF
  5
87
  8
0
 62
     4
 10
-144.46499
 20
12.0
 30
0.0
 40
2.5
  1

 41
0.7
 51
15.0
  3
Name2
  2
NAME2
 70
     0
  0
ATTDEF
  5
88
  8
0
 62
     4
 10
-197.186267
 20
17.0
 30
0.0
 40
2.5
  1

 41
0.7
 51
15.0
  3
Index3:
  2
INDEX3
 70
     0
  0
ATTDEF
  5
89
  8
0
 62
     4
 10
-190.348743
 20
17.0
 30
0.0
 40
2.5
  1

 41
0.7
 51
15.0
  3
Aenderung3
  2
A3
 70
     0
  0
ATTDEF
  5
8A
  8
0
 62
     4
 10
-157.348743
 20
17.0
 30
0.0
 40
2.5
  1

 41
0.7
 51
15.0
  3
Datum3:
  2
DATUM3
 70
     0
  0
ATTDEF
  5
8B
  8
0
 62
     4
 10
-144.46499
 20
17.0
 30
0.0
 40
2.5
  1

 41
0.7
 51
15.0
  3
Name3:
  2
NAME3
 70
     0
  0
ATTDEF
  5
8C
  8
0
 62
     4
 10
-197.186267
 20
22.0
 30
0.0
 40
2.5
  1

 41
0.7
 51
15.0
  3
Index4:
  2
INDEX4
 70
     0
  0
ATTDEF
  5
8D
  8
0
 62
     4
 10
-190.348743
 20
22.0
 30
0.0
 40
2.5
  1

 41
0.7
 51
15.0
  3
Aenderung4:
  2
A4
 70
     0
  0
ATTDEF
  5
8E
  8
0
 62
     4
 10
-157.348743
 20
22.0
 30
0.0
 40
2.5
  1

 41
0.7
 51
15.0
  3
Datum4:
  2
DATUM4
 70
     0
  0
ATTDEF
  5
8F
  8
0
 62
     4
 10
-144.46499
 20
22.0
 30
0.0
 40
2.5
  1

 41
0.7
 51
15.0
  3
Name4:
  2
NAME4
 70
     0
  0
ATTDEF
  5
90
  8
0
 62
     4
 10
-197.186267
 20
27.0
 30
0.0
 40
2.5
  1

 41
0.7
 51
15.0
  3
Index5:
  2
INDEX5
 70
     0
  0
ATTDEF
  5
91
  8
0
 62
     4
 10
-190.348743
 20
27.0
 30
0.0
 40
2.5
  1

 41
0.7
 51
15.0
  3
Aenderung5:
  2
A5
 70
     0
  0
ATTDEF
  5
92
  8
0
 62
     4
 10
-157.348743
 20
27.0
 30
0.0
 40
2.5
  1

 41
0.7
 51
15.0
  3
Datum5:
  2
DATUM5
 70
     0
  0
ATTDEF
  5
93
  8
0
 62
     4
 10
-144.46499
 20
27.0
 30
0.0
 40
2.5
  1

 41
0.7
 51
15.0
  3
Name5
  2
NAME5
 70
     0
  0
ATTDEF
  5
94
  8
0
 62
     4
 10
-197.186267
 20
32.0
 30
0.0
 40
2.5
  1

 41
0.7
 51
15.0
  3
Index6:
  2
INDEX6
 70
     0
  0
ATTDEF
  5
95
  8
0
 62
     4
 10
-190.348743
 20
32.0
 30
0.0
 40
2.5
  1

 41
0.7
 51
15.0
  3
Aenderung6:
  2
A6
 70
     0
  0
ATTDEF
  5
96
  8
0
 62
     4
 10
-157.348743
 20
32.0
 30
0.0
 40
2.5
  1

 41
0.7
 51
15.0
  3
Datum6:
  2
DATUM6
 70
     0
  0
ATTDEF
  5
97
  8
0
 62
     4
 10
-144.46499
 20
32.0
 30
0.0
 40
2.5
  1

 41
0.7
 51
15.0
  3
Name6:
  2
NAME6
 70
     0
  0
ATTDEF
  5
98
  8
0
 62
     4
 10
-197.186267
 20
37.0
 30
0.0
 40
2.5
  1

 41
0.7
 51
15.0
  3
Index7:
  2
INDEX7
 70
     0
  0
ATTDEF
  5
99
  8
0
 62
     4
 10
-190.348743
 20
37.0
 30
0.0
 40
2.5
  1

 41
0.7
 51
15.0
  3
Aenderung7:
  2
A7
 70
     0
  0
ATTDEF
  5
9A
  8
0
 62
     4
 10
-157.348743
 20
37.0
 30
0.0
 40
2.5
  1

 41
0.7
 51
15.0
  3
Datum7:
  2
DATUM7
 70
     0
  0
ATTDEF
  5
9B
  8
0
 62
     4
 10
-144.46499
 20
37.0
 30
0.0
 40
2.5
  1

 41
0.7
 51
15.0
  3
Name7:
  2
NAME7
 70
     0
  0
ATTDEF
  5
9C
  8
0
 62
     4
 10
-197.186267
 20
42.0
 30
0.0
 40
2.5
  1

 41
0.7
 51
15.0
  3
Index8:
  2
INDEX8
 70
     0
  0
ATTDEF
  5
9D
  8
0
 62
     4
 10
-190.348743
 20
42.0
 30
0.0
 40
2.5
  1

 41
0.7
 51
15.0
  3
Aenderung8:
  2
A8
 70
     0
  0
ATTDEF
  5
9E
  8
0
 62
     4
 10
-157.348743
 20
42.0
 30
0.0
 40
2.5
  1

 41
0.7
 51
15.0
  3
Datum8:
  2
DATUM8
 70
     0
  0
ATTDEF
  5
9F
  8
0
 62
     4
 10
-144.46499
 20
42.0
 30
0.0
 40
2.5
  1

 41
0.7
 51
15.0
  3
Name8:
  2
NAME8
 70
     0
  0
POLYLINE
  5
A0
  8
0
 62
     2
 66
     1
 10
0.0
 20
0.0
 30
0.0
  0
VERTEX
  5
6F9
  8
0
 62
     2
 10
0.0
 20
0.0
 30
0.0
  0
VERTEX
  5
6FA
  8
0
 62
     2
 10
0.0
 20
46.0
 30
0.0
  0
SEQEND
  5
6FB
  8
0
 62
     2
  0
POLYLINE
  5
A1
  8
0
 62
     2
 66
     1
 10
0.0
 20
0.0
 30
0.0
  0
VERTEX
  5
6FC
  8
0
 62
     2
 10
-200.0
 20
46.0
 30
0.0
  0
VERTEX
  5
6FD
  8
0
 62
     2
 10
-200.0
 20
0.0
 30
0.0
  0
SEQEND
  5
6FE
  8
0
 62
     2
  0
POLYLINE
  5
A2
  8
0
 62
     2
 66
     1
 10
0.0
 20
0.0
 30
0.0
  0
VERTEX
  5
6FF
  8
0
 62
     2
 10
0.0
 20
9.0
 30
0.0
  0
VERTEX
  5
700
  8
0
 62
     2
 10
-133.0
 20
9.0
 30
0.0
  0
SEQEND
  5
701
  8
0
 62
     2
  0
POLYLINE
  5
A3
  8
0
 62
     2
 66
     1
 10
0.0
 20
0.0
 30
0.0
  0
VERTEX
  5
702
  8
0
 62
     2
 10
0.0
 20
18.0
 30
0.0
  0
VERTEX
  5
703
  8
0
 62
     2
 10
-51.0
 20
18.0
 30
0.0
  0
SEQEND
  5
704
  8
0
 62
     2
  0
POLYLINE
  5
A4
  8
0
 62
     2
 66
     1
 10
0.0
 20
0.0
 30
0.0
  0
VERTEX
  5
705
  8
0
 62
     2
 10
0.0
 20
26.0
 30
0.0
  0
VERTEX
  5
706
  8
0
 62
     2
 10
-133.0
 20
26.0
 30
0.0
  0
SEQEND
  5
707
  8
0
 62
     2
  0
POLYLINE
  5
A5
  8
0
 62
     2
 66
     1
 10
0.0
 20
0.0
 30
0.0
  0
VERTEX
  5
708
  8
0
 62
     2
 10
0.0
 20
31.0
 30
0.0
  0
VERTEX
  5
709
  8
0
 62
     2
 10
-51.0
 20
31.0
 30
0.0
  0
SEQEND
  5
70A
  8
0
 62
     2
  0
POLYLINE
  5
A6
  8
0
 62
     2
 66
     1
 10
0.0
 20
0.0
 30
0.0
  0
VERTEX
  5
70B
  8
0
 62
     2
 10
0.0
 20
36.0
 30
0.0
  0
VERTEX
  5
70C
  8
0
 62
     2
 10
-51.0
 20
36.0
 30
0.0
  0
SEQEND
  5
70D
  8
0
 62
     2
  0
POLYLINE
  5
A7
  8
0
 62
     2
 66
     1
 10
0.0
 20
0.0
 30
0.0
  0
VERTEX
  5
70E
  8
0
 62
     2
 10
0.0
 20
41.0
 30
0.0
  0
VERTEX
  5
70F
  8
0
 62
     2
 10
-51.0
 20
41.0
 30
0.0
  0
SEQEND
  5
710
  8
0
 62
     2
  0
POLYLINE
  5
A8
  8
0
 62
     2
 66
     1
 10
0.0
 20
0.0
 30
0.0
  0
VERTEX
  5
711
  8
0
 62
     2
 10
0.0
 20
46.0
 30
0.0
  0
VERTEX
  5
712
  8
0
 62
     2
 10
-200.0
 20
46.0
 30
0.0
  0
SEQEND
  5
713
  8
0
 62
     2
  0
TEXT
  5
A9
  8
035
 10
517.653158
 20
512.84859
 30
0.0
 40
3.5
  1
  
 41
0.7
 51
15.0
  0
LINE
  5
AA
  8
035
 10
-131.889278
 20
3.208952
 30
0.0
 11
-130.181445
 21
3.208952
 31
0.0
  0
LINE
  5
AB
  8
035
 10
-131.338562
 20
5.693072
 30
0.0
 11
-129.320214
 21
5.693072
 31
0.0
  0
LINE
  5
AC
  8
035
 10
-131.889278
 20
3.208952
 30
0.0
 11
-131.338562
 21
5.693072
 31
0.0
  0
LINE
  5
AD
  8
035
 10
-130.181445
 20
3.208952
 30
0.0
 11
-129.871668
 21
4.60627
 31
0.0
  0
LINE
  5
AE
  8
035
 10
-126.377637
 20
3.208952
 30
0.0
 11
-125.826921
 21
5.693072
 31
0.0
  0
LINE
  5
AF
  8
035
 10
-127.775692
 20
4.60627
 30
0.0
 11
-127.534753
 21
5.693072
 31
0.0
  0
LINE
  5
B0
  8
035
 10
-129.871668
 20
4.60627
 30
0.0
 11
-128.318356
 21
3.208952
 31
0.0
  0
LINE
  5
B1
  8
035
 10
-129.320214
 20
5.693072
 30
0.0
 11
-127.775692
 21
4.60627
 31
0.0
  0
LINE
  5
B2
  8
035
 10
-127.534753
 20
5.693072
 30
0.0
 11
-125.826921
 21
5.693072
 31
0.0
  0
LINE
  5
B3
  8
035
 10
-128.318356
 20
3.208952
 30
0.0
 11
-126.377637
 21
3.208952
 31
0.0
  0
LINE
  5
B4
  8
035
 10
-125.523721
 20
3.208952
 30
0.0
 11
-124.973005
 21
5.693072
 31
0.0
  0
LINE
  5
B5
  8
035
 10
-123.718348
 20
3.648931
 30
0.0
 11
-123.572674
 21
4.306023
 31
0.0
  0
LINE
  5
B6
  8
035
 10
-120.855668
 20
4.306023
 30
0.0
 11
-120.791381
 21
4.596001
 31
0.0
  0
LINE
  5
B7
  8
035
 10
-120.865996
 20
3.208952
 30
0.0
 11
-120.768456
 21
3.648931
 31
0.0
  0
LINE
  5
B8
  8
035
 10
-125.523721
 20
3.208952
 30
0.0
 11
-120.865996
 21
3.208952
 31
0.0
  0
LINE
  5
B9
  8
035
 10
-124.973005
 20
5.693072
 30
0.0
 11
-120.31528
 21
5.693072
 31
0.0
  0
LINE
  5
BA
  8
035
 10
-123.508387
 20
4.596001
 30
0.0
 11
-123.362713
 21
5.253094
 31
0.0
  0
LINE
  5
BB
  8
035
 10
-120.412821
 20
5.253094
 30
0.0
 11
-120.31528
 21
5.693072
 31
0.0
  0
LINE
  5
BC
  8
035
 10
-119.921488
 20
3.967747
 30
0.0
 11
-119.538993
 21
5.693072
 31
0.0
  0
LINE
  5
BD
  8
035
 10
-118.170584
 20
4.181432
 30
0.0
 11
-117.835462
 21
5.693072
 31
0.0
  0
LINE
  5
BE
  8
035
 10
-116.302927
 20
4.100887
 30
0.0
 11
-115.949949
 21
5.693072
 31
0.0
  0
LINE
  5
BF
  8
035
 10
-114.655674
 20
3.847099
 30
0.0
 11
-114.246432
 21
5.693072
 31
0.0
  0
LINE
  5
C0
  8
035
 10
-119.538993
 20
5.693072
 30
0.0
 11
-117.835462
 21
5.693072
 31
0.0
  0
POLYLINE
  5
C1
  8
035
 66
     1
 10
0.0
 20
0.0
 30
0.0
  0
VERTEX
  5
714
  8
035
 10
-119.921488
 20
3.967747
 30
0.0
 42
0.053304
  0
VERTEX
  5
715
  8
035
 10
-119.927918
 20
3.907611
 30
0.0
 42
0.242955
  0
SEQEND
  5
716
  8
035
  0
POLYLINE
  5
C2
  8
035
 66
     1
 10
0.0
 20
0.0
 30
0.0
  0
VERTEX
  5
717
  8
035
 10
-119.927918
 20
3.907611
 30
0.0
 42
0.242955
  0
VERTEX
  5
718
  8
035
 10
-119.808149
 20
3.675677
 30
0.0
 42
0.083039
  0
VERTEX
  5
719
  8
035
 10
-119.154862
 20
3.358693
 30
0.0
 42
0.041229
  0
VERTEX
  5
71A
  8
035
 10
-118.372334
 20
3.197098
 30
0.0
 42
0.030317
  0
VERTEX
  5
71B
  8
035
 10
-117.28854
 20
3.131323
 30
0.0
 42
0.030317
  0
VERTEX
  5
71C
  8
035
 10
-116.204747
 20
3.197098
 30
0.0
 42
0.041229
  0
VERTEX
  5
71D
  8
035
 10
-115.422219
 20
3.358693
 30
0.0
 42
0.083039
  0
VERTEX
  5
71E
  8
035
 10
-114.768932
 20
3.675677
 30
0.0
 42
0.186877
  0
VERTEX
  5
71F
  8
035
 10
-114.655674
 20
3.847099
 30
0.0
 42
0.242955
  0
SEQEND
  5
720
  8
035
  0
POLYLINE
  5
C3
  8
035
 66
     1
 10
0.0
 20
0.0
 30
0.0
  0
VERTEX
  5
721
  8
035
 10
-118.175358
 20
4.140497
 30
0.0
 42
0.199105
  0
VERTEX
  5
722
  8
035
 10
-118.123163
 20
4.014618
 30
0.0
 42
0.098437
  0
VERTEX
  5
723
  8
035
 10
-117.900493
 20
3.866038
 30
0.0
 42
0.055684
  0
VERTEX
  5
724
  8
035
 10
-117.619171
 20
3.784861
 30
0.0
 42
0.042444
  0
VERTEX
  5
725
  8
035
 10
-117.23691
 20
3.752353
 30
0.0
 42
0.042444
  0
VERTEX
  5
726
  8
035
 10
-116.854649
 20
3.784861
 30
0.0
 42
0.055684
  0
VERTEX
  5
727
  8
035
 10
-116.573327
 20
3.866038
 30
0.0
 42
0.098437
  0
VERTEX
  5
728
  8
035
 10
-116.350657
 20
4.014618
 30
0.0
 42
0.141327
  0
VERTEX
  5
729
  8
035
 10
-116.302927
 20
4.100887
 30
0.0
 42
0.199105
  0
SEQEND
  5
72A
  8
035
  0
POLYLINE
  5
C4
  8
035
 66
     1
 10
0.0
 20
0.0
 30
0.0
  0
VERTEX
  5
72B
  8
035
 10
-118.170584
 20
4.181432
 30
0.0
 42
0.058115
  0
VERTEX
  5
72C
  8
035
 10
-118.175358
 20
4.140497
 30
0.0
 42
0.199105
  0
SEQEND
  5
72D
  8
035
  0
LINE
  5
C5
  8
035
 10
-115.949949
 20
5.693072
 30
0.0
 11
-114.246432
 21
5.693072
 31
0.0
  0
LINE
  5
C6
  8
035
 10
-113.932145
 20
5.072042
 30
0.0
 11
-113.794466
 21
5.693072
 31
0.0
  0
LINE
  5
C7
  8
035
 10
-112.792607
 20
3.208952
 30
0.0
 11
-112.37957
 21
5.072042
 31
0.0
  0
LINE
  5
C8
  8
035
 10
-111.084775
 20
3.208952
 30
0.0
 11
-110.671738
 21
5.072042
 31
0.0
  0
LINE
  5
C9
  8
035
 10
-109.041534
 20
5.072042
 30
0.0
 11
-108.903855
 21
5.693072
 31
0.0
  0
LINE
  5
CA
  8
035
 10
-113.932145
 20
5.072042
 30
0.0
 11
-112.37957
 21
5.072042
 31
0.0
  0
LINE
  5
CB
  8
035
 10
-112.792607
 20
3.208952
 30
0.0
 11
-111.084775
 21
3.208952
 31
0.0
  0
LINE
  5
CC
  8
035
 10
-113.794466
 20
5.693072
 30
0.0
 11
-108.903855
 21
5.693072
 31
0.0
  0
LINE
  5
CD
  8
035
 10
-110.671738
 20
5.072042
 30
0.0
 11
-109.041534
 21
5.072042
 31
0.0
  0
LINE
  5
CE
  8
035
 10
-108.91117
 20
3.208952
 30
0.0
 11
-108.360454
 21
5.693072
 31
0.0
  0
LINE
  5
CF
  8
035
 10
-107.203338
 20
3.208952
 30
0.0
 11
-106.997985
 21
4.13524
 31
0.0
  0
LINE
  5
D0
  8
035
 10
-108.91117
 20
3.208952
 30
0.0
 11
-107.203338
 21
3.208952
 31
0.0
  0
LINE
  5
D1
  8
035
 10
-108.360454
 20
5.693072
 30
0.0
 11
-104.002078
 21
5.693072
 31
0.0
  0
LINE
  5
D2
  8
035
 10
-103.691866
 20
3.468914
 30
0.0
 11
-103.651414
 21
4.047405
 31
0.0
  0
LINE
  5
D3
  8
035
 10
-105.404037
 20
3.406868
 30
0.0
 11
-105.372771
 21
3.861921
 31
0.0
  0
LINE
  5
D4
  8
035
 10
-106.933698
 20
4.425218
 30
0.0
 11
-106.750163
 21
5.253094
 31
0.0
  0
ARC
  5
D5
  8
035
 10
-103.304668
 20
3.441838
 30
0.0
 40
0.388144
 50
176.0
 51
216.869898
  0
ARC
  5
D6
  8
035
 10
-105.030247
 20
3.411905
 30
0.0
 40
0.373824
 50
180.772005
 51
212.881875
  0
LINE
  5
D7
  8
035
 10
-105.344182
 20
3.208952
 30
0.0
 11
-103.615183
 21
3.208952
 31
0.0
  0
POLYLINE
  5
D8
  8
035
 66
     1
 10
0.0
 20
0.0
 30
0.0
  0
VERTEX
  5
72E
  8
035
 10
-103.651414
 20
4.047405
 30
0.0
 42
0.084831
  0
VERTEX
  5
72F
  8
035
 10
-103.660284
 20
4.142982
 30
0.0
 42
0.153048
  0
VERTEX
  5
730
  8
035
 10
-103.751613
 20
4.286875
 30
0.0
 42
0.025315
  0
VERTEX
  5
731
  8
035
 10
-103.797537
 20
4.321852
 30
0.0
 42
0.067948
  0
SEQEND
  5
732
  8
035
  0
POLYLINE
  5
D9
  8
035
 66
     1
 10
0.0
 20
0.0
 30
0.0
  0
VERTEX
  5
733
  8
035
 10
-103.797537
 20
4.321852
 30
0.0
 42
0.015369
  0
VERTEX
  5
734
  8
035
 10
-103.68387
 20
4.380025
 30
0.0
 42
0.073981
  0
VERTEX
  5
735
  8
035
 10
-103.356816
 20
4.629409
 30
0.0
 42
0.106894
  0
VERTEX
  5
736
  8
035
 10
-103.152297
 20
4.956595
 30
0.0
 42
0.153048
  0
VERTEX
  5
737
  8
035
 10
-103.140863
 20
5.229042
 30
0.0
 42
0.153048
  0
VERTEX
  5
738
  8
035
 10
-103.286988
 20
5.459272
 30
0.0
 42
0.106894
  0
VERTEX
  5
739
  8
035
 10
-103.627701
 20
5.640364
 30
0.0
 42
0.067948
  0
VERTEX
  5
73A
  8
035
 10
-104.002078
 20
5.693072
 30
0.0
 42
0.060566
  0
SEQEND
  5
73B
  8
035
  0
LINE
  5
DA
  8
035
 10
-102.856129
 20
3.208952
 30
0.0
 11
-102.305412
 21
5.693072
 31
0.0
  0
LINE
  5
DB
  8
035
 10
-101.148296
 20
3.208952
 30
0.0
 11
-100.59758
 21
5.693072
 31
0.0
  0
LINE
  5
DC
  8
035
 10
-102.856129
 20
3.208952
 30
0.0
 11
-101.148296
 21
3.208952
 31
0.0
  0
LINE
  5
DD
  8
035
 10
-102.305412
 20
5.693072
 30
0.0
 11
-100.59758
 21
5.693072
 31
0.0
  0
LINE
  5
DE
  8
035
 10
-100.139123
 20
3.208952
 30
0.0
 11
-99.588406
 21
5.693072
 31
0.0
  0
LINE
  5
DF
  8
035
 10
-98.508919
 20
3.208952
 30
0.0
 11
-98.37124
 21
3.829982
 31
0.0
  0
LINE
  5
E0
  8
035
 10
-99.588406
 20
5.693072
 30
0.0
 11
-97.958203
 21
5.693072
 31
0.0
  0
LINE
  5
E1
  8
035
 10
-100.139123
 20
3.208952
 30
0.0
 11
-98.508919
 21
3.208952
 31
0.0
  0
LINE
  5
E2
  8
035
 10
-98.37124
 20
3.829982
 30
0.0
 11
-97.642556
 21
4.140497
 31
0.0
  0
LINE
  5
E3
  8
035
 10
-98.144475
 20
4.852855
 30
0.0
 11
-96.172742
 21
5.693072
 31
0.0
  0
LINE
  5
E4
  8
035
 10
-96.172742
 20
5.693072
 30
0.0
 11
-93.999137
 21
5.693072
 31
0.0
  0
LINE
  5
E5
  8
035
 10
-97.642556
 20
4.140497
 30
0.0
 11
-96.723458
 21
3.208952
 31
0.0
  0
LINE
  5
E6
  8
035
 10
-96.003018
 20
4.839156
 30
0.0
 11
-94.394596
 21
3.208952
 31
0.0
  0
LINE
  5
E7
  8
035
 10
-96.003018
 20
4.839156
 30
0.0
 11
-93.999137
 21
5.693072
 31
0.0
  0
LINE
  5
E8
  8
035
 10
-98.144475
 20
4.852855
 30
0.0
 11
-97.958203
 21
5.693072
 31
0.0
  0
LINE
  5
E9
  8
035
 10
-96.723458
 20
3.208952
 30
0.0
 11
-94.394596
 21
3.208952
 31
0.0
  0
LINE
  5
EA
  8
035
 10
-91.535849
 20
3.208952
 30
0.0
 11
-89.859713
 21
3.208952
 31
0.0
  0
LINE
  5
EB
  8
035
 10
-89.672213
 20
5.693801
 30
0.0
 11
-86.717509
 21
5.693801
 31
0.0
  0
LINE
  5
EC
  8
035
 10
-91.535849
 20
3.208952
 30
0.0
 11
-89.672213
 21
5.693801
 31
0.0
  0
LINE
  5
ED
  8
035
 10
-86.717509
 20
5.693801
 30
0.0
 11
-86.096297
 21
3.208952
 31
0.0
  0
LINE
  5
EE
  8
035
 10
-89.499689
 20
3.688984
 30
0.0
 11
-87.773968
 21
3.688984
 31
0.0
  0
LINE
  5
EF
  8
035
 10
-89.219798
 20
4.062171
 30
0.0
 11
-87.867265
 21
4.062171
 31
0.0
  0
LINE
  5
F0
  8
035
 10
-85.384981
 20
3.719952
 30
0.0
 11
-85.11662
 21
5.241907
 31
0.0
  0
LINE
  5
F1
  8
035
 10
-80.632927
 20
3.208952
 30
0.0
 11
-80.440303
 21
4.301376
 31
0.0
  0
LINE
  5
F2
  8
035
 10
-83.773875
 20
4.049318
 30
0.0
 11
-83.613979
 21
4.956134
 31
0.0
  0
LINE
  5
F3
  8
035
 10
-82.185958
 20
3.208952
 30
0.0
 11
-82.180952
 21
3.237338
 31
0.0
  0
LINE
  5
F4
  8
035
 10
-82.653819
 20
4.078649
 30
0.0
 11
-82.614546
 21
4.301376
 31
0.0
  0
LINE
  5
F5
  8
035
 10
-82.653819
 20
4.078649
 30
0.0
 11
-82.032607
 21
4.078649
 31
0.0
  0
ARC
  5
F6
  8
035
 10
-82.531573
 20
-8.003128
 30
0.0
 40
13.697153
 50
81.659895
 51
99.80279
  0
ARC
  5
F7
  8
035
 10
-83.091534
 20
16.90419
 30
0.0
 40
13.697153
 50
261.461473
 51
273.811815
  0
ARC
  5
F8
  8
035
 10
-84.810733
 20
5.187971
 30
0.0
 40
0.310606
 50
99.80279
 51
170.0
  0
ARC
  5
F9
  8
035
 10
-85.079094
 20
3.666016
 30
0.0
 40
0.310606
 50
170.0
 51
261.461473
  0
ARC
  5
FA
  8
035
 10
-80.58987
 20
5.24185
 30
0.0
 40
0.310606
 50
350.0
 51
81.659895
  0
LINE
  5
FB
  8
035
 10
-81.898429
 20
4.963993
 30
0.0
 11
-80.323466
 21
4.963993
 31
0.0
  0
LINE
  5
FC
  8
035
 10
-80.323466
 20
4.963993
 30
0.0
 11
-80.283983
 21
5.187914
 31
0.0
  0
LINE
  5
FD
  8
035
 10
-82.052147
 20
3.967832
 30
0.0
 11
-82.032607
 21
4.078649
 31
0.0
  0
ARC
  5
FE
  8
035
 10
-82.755724
 20
1.698274
 30
0.0
 40
3.561797
 50
80.208339
 51
99.781825
  0
ARC
  5
FF
  8
035
 10
-82.989141
 20
7.211117
 30
0.0
 40
3.561797
 50
261.530468
 51
281.193068
  0
ARC
  5
100
  8
035
 10
-83.308092
 20
4.902198
 30
0.0
 40
0.310606
 50
99.781825
 51
170.0
  0
ARC
  5
101
  8
035
 10
-82.202807
 20
4.902103
 30
0.0
 40
0.310606
 50
11.493425
 51
80.208339
  0
ARC
  5
102
  8
035
 10
-83.467988
 20
3.995382
 30
0.0
 40
0.310606
 50
170.0
 51
261.530468
  0
ARC
  5
103
  8
035
 10
-82.358034
 20
4.021768
 30
0.0
 40
0.310606
 50
281.193068
 51
350.0
  0
LINE
  5
104
  8
035
 10
-82.185958
 20
3.208952
 30
0.0
 11
-80.632927
 21
3.208952
 31
0.0
  0
LINE
  5
105
  8
035
 10
-87.65396
 20
3.208952
 30
0.0
 11
-86.096297
 21
3.208952
 31
0.0
  0
TEXT
  5
106
  8
035
 62
     4
 10
-77.576926
 20
3.264636
 30
0.0
 40
2.484848
  1
FL-9494 SCHAAN
 41
0.7
 51
15.0
  7
HELV
  0
LINE
  5
108
  8
035
 10
-123.362713
 20
5.253094
 30
0.0
 11
-120.412821
 21
5.253094
 31
0.0
  0
LINE
  5
109
  8
035
 10
-123.508387
 20
4.596001
 30
0.0
 11
-120.791381
 21
4.596001
 31
0.0
  0
LINE
  5
10A
  8
035
 10
-123.572674
 20
4.306023
 30
0.0
 11
-120.855668
 21
4.306023
 31
0.0
  0
LINE
  5
10B
  8
035
 10
-123.718348
 20
3.648931
 30
0.0
 11
-120.768456
 21
3.648931
 31
0.0
  0
LINE
  5
10C
  8
0
 62
     4
 10
-94.088306
 20
5.655074
 30
0.0
 11
-94.050308
 21
5.693072
 31
0.0
  0
LINE
  5
10D
  8
0
 62
     4
 10
-94.413108
 20
3.208952
 30
0.0
 11
-94.40379
 21
3.21827
 31
0.0
  0
LINE
  5
10E
  8
035
 10
-106.750163
 20
5.253094
 30
0.0
 11
-105.343603
 21
5.253094
 31
0.0
  0
LINE
  5
10F
  8
035
 10
-106.933698
 20
4.425218
 30
0.0
 11
-105.573373
 21
4.425218
 31
0.0
  0
LINE
  5
110
  8
035
 10
-106.997985
 20
4.13524
 30
0.0
 11
-105.5491
 21
4.13524
 31
0.0
  0
LINE
  5
111
  8
035
 10
-105.343603
 20
5.253094
 30
0.0
 11
-105.232586
 21
5.23493
 31
0.0
  0
LINE
  5
112
  8
035
 10
-105.232586
 20
5.23493
 30
0.0
 11
-105.136389
 21
5.186199
 31
0.0
  0
LINE
  5
113
  8
035
 10
-105.136389
 20
5.186199
 30
0.0
 11
-105.090213
 21
5.111822
 31
0.0
  0
LINE
  5
114
  8
035
 10
-105.090213
 20
5.111822
 30
0.0
 11
-105.054301
 21
5.022057
 31
0.0
  0
LINE
  5
115
  8
035
 10
-105.054301
 20
5.022057
 30
0.0
 11
-105.053017
 21
4.9246
 31
0.0
  0
LINE
  5
116
  8
035
 10
-105.053017
 20
4.9246
 30
0.0
 11
-105.063278
 21
4.783539
 31
0.0
  0
LINE
  5
117
  8
035
 10
-105.063278
 20
4.783539
 30
0.0
 11
-105.114586
 21
4.697624
 31
0.0
  0
LINE
  5
118
  8
035
 10
-105.114586
 20
4.697624
 30
0.0
 11
-105.20565
 21
4.591186
 31
0.0
  0
LINE
  5
119
  8
035
 10
-105.20565
 20
4.591186
 30
0.0
 11
-105.342894
 21
4.509116
 31
0.0
  0
LINE
  5
11A
  8
035
 10
-105.342894
 20
4.509116
 30
0.0
 11
-105.473724
 21
4.442434
 31
0.0
  0
LINE
  5
11B
  8
035
 10
-105.473724
 20
4.442434
 30
0.0
 11
-105.573373
 21
4.425218
 31
0.0
  0
LINE
  5
11C
  8
035
 10
-105.5491
 20
4.13524
 30
0.0
 11
-105.466219
 21
4.123579
 31
0.0
  0
LINE
  5
11D
  8
035
 10
-105.466219
 20
4.123579
 30
0.0
 11
-105.413019
 21
4.089933
 31
0.0
  0
LINE
  5
11E
  8
035
 10
-105.413019
 20
4.089933
 30
0.0
 11
-105.380449
 21
4.036745
 31
0.0
  0
LINE
  5
11F
  8
035
 10
-105.380449
 20
4.036745
 30
0.0
 11
-105.365249
 21
3.972704
 31
0.0
  0
LINE
  5
120
  8
035
 10
-105.365249
 20
3.972704
 30
0.0
 11
-105.372771
 21
3.861921
 31
0.0
  0
LINE
  5
121
  8
035
 10
-88.205398
 20
5.414705
 30
0.0
 11
-87.867265
 21
4.062171
 31
0.0
  0
LINE
  5
122
  8
035
 10
-89.219798
 20
4.062171
 30
0.0
 11
-88.205398
 21
5.414705
 31
0.0
  0
LINE
  5
123
  8
035
 10
-87.773968
 20
3.688984
 30
0.0
 11
-87.65396
 21
3.208952
 31
0.0
  0
LINE
  5
124
  8
035
 10
-89.859713
 20
3.208952
 30
0.0
 11
-89.499689
 21
3.688984
 31
0.0
  0
LINE
  5
125
  8
035
 10
-82.614546
 20
4.301376
 30
0.0
 11
-80.440303
 21
4.301376
 31
0.0
  0
INSERT
  5
126
  8
035
 62
     4
  2
*X1
 10
-280.0
 20
-100.0
 30
0.0
1001
ACAD
1000
HATCH
1002
{
1070
    16
1000
ANSI37,I
1040
1.8
1040
0.0
1002
}
  0
ENDBLK
  5
330
  8
0
  0
BLOCK
  8
0
  2
*X1
 70
     1
 10
0.0
 20
0.0
 30
0.0
  3
*X1
  1

  0
LINE
  5
128
  8
0
 62
     0
 10
172.576127
 20
103.208952
 30
0.0
 11
172.85948
 21
103.492304
 31
0.0
  0
LINE
  5
129
  8
0
 62
     0
 10
174.620269
 20
105.253094
 30
0.0
 11
175.060247
 21
105.693072
 31
0.0
  0
LINE
  5
12A
  8
0
 62
     0
 10
173.502415
 20
104.13524
 30
0.0
 11
173.792393
 21
104.425218
 31
0.0
  0
LINE
  5
12B
  8
0
 62
     0
 10
172.257929
 20
103.208952
 30
0.0
 11
172.950116
 21
103.901139
 31
0.0
  0
LINE
  5
12C
  8
0
 62
     0
 10
174.302071
 20
105.253094
 30
0.0
 11
174.742049
 21
105.693072
 31
0.0
  0
LINE
  5
12D
  8
0
 62
     0
 10
173.184217
 20
104.13524
 30
0.0
 11
173.474195
 21
104.425218
 31
0.0
  0
LINE
  5
12E
  8
0
 62
     0
 10
171.939731
 20
103.208952
 30
0.0
 11
173.155997
 21
104.425218
 31
0.0
  0
LINE
  5
12F
  8
0
 62
     0
 10
173.983873
 20
105.253094
 30
0.0
 11
174.423851
 21
105.693072
 31
0.0
  0
LINE
  5
130
  8
0
 62
     0
 10
171.621533
 20
103.208952
 30
0.0
 11
173.131389
 21
104.718808
 31
0.0
  0
LINE
  5
131
  8
0
 62
     0
 10
173.665675
 20
105.253094
 30
0.0
 11
174.105653
 21
105.693072
 31
0.0
  0
LINE
  5
132
  8
0
 62
     0
 10
171.303335
 20
103.208952
 30
0.0
 11
173.222025
 21
105.127642
 31
0.0
  0
LINE
  5
133
  8
0
 62
     0
 10
173.347477
 20
105.253094
 30
0.0
 11
173.787455
 21
105.693072
 31
0.0
  0
LINE
  5
134
  8
0
 62
     0
 10
171.118366
 20
103.342181
 30
0.0
 11
173.469257
 21
105.693072
 31
0.0
  0
LINE
  5
135
  8
0
 62
     0
 10
171.209002
 20
103.751015
 30
0.0
 11
173.151059
 21
105.693072
 31
0.0
  0
LINE
  5
136
  8
0
 62
     0
 10
171.299639
 20
104.15985
 30
0.0
 11
172.832861
 21
105.693072
 31
0.0
  0
LINE
  5
137
  8
0
 62
     0
 10
171.390275
 20
104.568684
 30
0.0
 11
172.514663
 21
105.693072
 31
0.0
  0
LINE
  5
138
  8
0
 62
     0
 10
171.480911
 20
104.977519
 30
0.0
 11
172.196465
 21
105.693072
 31
0.0
  0
LINE
  5
139
  8
0
 62
     0
 10
171.571548
 20
105.386353
 30
0.0
 11
171.878267
 21
105.693072
 31
0.0
  0
LINE
  5
13A
  8
0
 62
     0
 10
170.939039
 20
105.072042
 30
0.0
 11
170.963999
 21
105.097002
 31
0.0
  0
LINE
  5
13B
  8
0
 62
     0
 10
168.757751
 20
103.208952
 30
0.0
 11
168.96008
 21
103.411282
 31
0.0
  0
LINE
  5
13C
  8
0
 62
     0
 10
170.620841
 20
105.072042
 30
0.0
 11
171.054636
 21
105.505837
 31
0.0
  0
LINE
  5
13D
  8
0
 62
     0
 10
168.439553
 20
103.208952
 30
0.0
 11
169.050717
 21
103.820116
 31
0.0
  0
LINE
  5
13E
  8
0
 62
     0
 10
170.302643
 20
105.072042
 30
0.0
 11
170.923673
 21
105.693072
 31
0.0
  0
LINE
  5
13F
  8
0
 62
     0
 10
168.121355
 20
103.208952
 30
0.0
 11
169.141353
 21
104.228951
 31
0.0
  0
LINE
  5
140
  8
0
 62
     0
 10
169.984445
 20
105.072042
 30
0.0
 11
170.605474
 21
105.693072
 31
0.0
  0
LINE
  5
141
  8
0
 62
     0
 10
167.803157
 20
103.208952
 30
0.0
 11
169.23199
 21
104.637785
 31
0.0
  0
LINE
  5
142
  8
0
 62
     0
 10
169.666246
 20
105.072042
 30
0.0
 11
170.287276
 21
105.693072
 31
0.0
  0
LINE
  5
143
  8
0
 62
     0
 10
167.484959
 20
103.208952
 30
0.0
 11
169.322626
 21
105.04662
 31
0.0
  0
LINE
  5
144
  8
0
 62
     0
 10
169.348048
 20
105.072042
 30
0.0
 11
169.969078
 21
105.693072
 31
0.0
  0
LINE
  5
145
  8
0
 62
     0
 10
167.218966
 20
103.261158
 30
0.0
 11
169.65088
 21
105.693072
 31
0.0
  0
LINE
  5
146
  8
0
 62
     0
 10
167.309603
 20
103.669992
 30
0.0
 11
169.332682
 21
105.693072
 31
0.0
  0
LINE
  5
147
  8
0
 62
     0
 10
167.400239
 20
104.078827
 30
0.0
 11
169.014484
 21
105.693072
 31
0.0
  0
LINE
  5
148
  8
0
 62
     0
 10
167.490876
 20
104.487661
 30
0.0
 11
168.696286
 21
105.693072
 31
0.0
  0
LINE
  5
149
  8
0
 62
     0
 10
167.581512
 20
104.896496
 30
0.0
 11
168.378088
 21
105.693072
 31
0.0
  0
LINE
  5
14A
  8
0
 62
     0
 10
167.43886
 20
105.072042
 30
0.0
 11
168.05989
 21
105.693072
 31
0.0
  0
LINE
  5
14B
  8
0
 62
     0
 10
167.120662
 20
105.072042
 30
0.0
 11
167.741692
 21
105.693072
 31
0.0
  0
LINE
  5
14C
  8
0
 62
     0
 10
166.802464
 20
105.072042
 30
0.0
 11
167.423494
 21
105.693072
 31
0.0
  0
LINE
  5
14D
  8
0
 62
     0
 10
164.888376
 20
103.476152
 30
0.0
 11
165.368539
 21
103.956315
 31
0.0
  0
LINE
  5
14E
  8
0
 62
     0
 10
166.484266
 20
105.072042
 30
0.0
 11
167.105296
 21
105.693072
 31
0.0
  0
LINE
  5
14F
  8
0
 62
     0
 10
164.405466
 20
103.31144
 30
0.0
 11
165.459175
 21
104.365149
 31
0.0
  0
LINE
  5
150
  8
0
 62
     0
 10
166.166068
 20
105.072042
 30
0.0
 11
166.787098
 21
105.693072
 31
0.0
  0
LINE
  5
151
  8
0
 62
     0
 10
164.002769
 20
103.226941
 30
0.0
 11
165.549811
 21
104.773984
 31
0.0
  0
LINE
  5
152
  8
0
 62
     0
 10
166.130516
 20
105.354688
 30
0.0
 11
166.4689
 21
105.693072
 31
0.0
  0
LINE
  5
153
  8
0
 62
     0
 10
163.636859
 20
103.17923
 30
0.0
 11
165.640448
 21
105.182818
 31
0.0
  0
LINE
  5
154
  8
0
 62
     0
 10
163.289411
 20
103.149979
 30
0.0
 11
165.731084
 21
105.591652
 31
0.0
  0
LINE
  5
155
  8
0
 62
     0
 10
162.955891
 20
103.134657
 30
0.0
 11
165.514306
 21
105.693072
 31
0.0
  0
LINE
  5
156
  8
0
 62
     0
 10
162.634688
 20
103.131652
 30
0.0
 11
163.335119
 21
103.832084
 31
0.0
  0
LINE
  5
157
  8
0
 62
     0
 10
163.723606
 20
104.22057
 30
0.0
 11
165.196108
 21
105.693072
 31
0.0
  0
LINE
  5
158
  8
0
 62
     0
 10
162.324518
 20
103.139681
 30
0.0
 11
162.944469
 21
103.759631
 31
0.0
  0
LINE
  5
159
  8
0
 62
     0
 10
163.814242
 20
104.629404
 30
0.0
 11
164.87791
 21
105.693072
 31
0.0
  0
LINE
  5
15A
  8
0
 62
     0
 10
162.024343
 20
103.157703
 30
0.0
 11
162.623312
 21
103.756673
 31
0.0
  0
LINE
  5
15B
  8
0
 62
     0
 10
163.904878
 20
105.038239
 30
0.0
 11
164.559711
 21
105.693072
 31
0.0
  0
LINE
  5
15C
  8
0
 62
     0
 10
161.733306
 20
103.184864
 30
0.0
 11
162.340799
 21
103.792357
 31
0.0
  0
LINE
  5
15D
  8
0
 62
     0
 10
163.995515
 20
105.447073
 30
0.0
 11
164.241513
 21
105.693072
 31
0.0
  0
LINE
  5
15E
  8
0
 62
     0
 10
161.452007
 20
103.221764
 30
0.0
 11
162.097229
 21
103.866985
 31
0.0
  0
LINE
  5
15F
  8
0
 62
     0
 10
161.184171
 20
103.272125
 30
0.0
 11
161.902409
 21
103.990363
 31
0.0
  0
LINE
  5
160
  8
0
 62
     0
 10
160.928758
 20
103.33491
 30
0.0
 11
161.844836
 21
104.250989
 31
0.0
  0
LINE
  5
161
  8
0
 62
     0
 10
160.687321
 20
103.411671
 30
0.0
 11
161.935473
 21
104.659823
 31
0.0
  0
LINE
  5
162
  8
0
 62
     0
 10
160.466718
 20
103.509267
 30
0.0
 11
162.026109
 21
105.068658
 31
0.0
  0
LINE
  5
163
  8
0
 62
     0
 10
160.265103
 20
103.62585
 30
0.0
 11
162.116745
 21
105.477492
 31
0.0
  0
LINE
  5
164
  8
0
 62
     0
 10
160.101894
 20
103.780839
 30
0.0
 11
162.014127
 21
105.693072
 31
0.0
  0
LINE
  5
165
  8
0
 62
     0
 10
160.109248
 20
104.106391
 30
0.0
 11
161.695929
 21
105.693072
 31
0.0
  0
LINE
  5
166
  8
0
 62
     0
 10
158.893611
 20
103.208952
 30
0.0
 11
159.202478
 21
103.517819
 31
0.0
  0
LINE
  5
167
  8
0
 62
     0
 10
160.199885
 20
104.515226
 30
0.0
 11
161.377731
 21
105.693072
 31
0.0
  0
LINE
  5
168
  8
0
 62
     0
 10
158.575413
 20
103.208952
 30
0.0
 11
159.015392
 21
103.648931
 31
0.0
  0
LINE
  5
169
  8
0
 62
     0
 10
160.290521
 20
104.92406
 30
0.0
 11
161.059533
 21
105.693072
 31
0.0
  0
LINE
  5
16A
  8
0
 62
     0
 10
158.257215
 20
103.208952
 30
0.0
 11
158.697194
 21
103.648931
 31
0.0
  0
LINE
  5
16B
  8
0
 62
     0
 10
160.381158
 20
105.332895
 30
0.0
 11
160.741335
 21
105.693072
 31
0.0
  0
LINE
  5
16C
  8
0
 62
     0
 10
157.939017
 20
103.208952
 30
0.0
 11
158.378996
 21
103.648931
 31
0.0
  0
LINE
  5
16D
  8
0
 62
     0
 10
159.036088
 20
104.306023
 30
0.0
 11
159.175165
 21
104.4451
 31
0.0
  0
LINE
  5
16E
  8
0
 62
     0
 10
157.620819
 20
103.208952
 30
0.0
 11
158.060797
 21
103.648931
 31
0.0
  0
LINE
  5
16F
  8
0
 62
     0
 10
158.71789
 20
104.306023
 30
0.0
 11
159.007868
 21
104.596001
 31
0.0
  0
LINE
  5
170
  8
0
 62
     0
 10
157.302621
 20
103.208952
 30
0.0
 11
157.742599
 21
103.648931
 31
0.0
  0
LINE
  5
171
  8
0
 62
     0
 10
159.346762
 20
105.253094
 30
0.0
 11
159.65566
 21
105.561991
 31
0.0
  0
LINE
  5
172
  8
0
 62
     0
 10
158.399692
 20
104.306023
 30
0.0
 11
158.68967
 21
104.596001
 31
0.0
  0
LINE
  5
173
  8
0
 62
     0
 10
156.984423
 20
103.208952
 30
0.0
 11
157.424401
 21
103.648931
 31
0.0
  0
LINE
  5
174
  8
0
 62
     0
 10
159.028564
 20
105.253094
 30
0.0
 11
159.468543
 21
105.693072
 31
0.0
  0
LINE
  5
175
  8
0
 62
     0
 10
158.081494
 20
104.306023
 30
0.0
 11
158.371472
 21
104.596001
 31
0.0
  0
LINE
  5
176
  8
0
 62
     0
 10
156.666225
 20
103.208952
 30
0.0
 11
157.106203
 21
103.648931
 31
0.0
  0
LINE
  5
177
  8
0
 62
     0
 10
158.710366
 20
105.253094
 30
0.0
 11
159.150345
 21
105.693072
 31
0.0
  0
LINE
  5
178
  8
0
 62
     0
 10
157.763296
 20
104.306023
 30
0.0
 11
158.053274
 21
104.596001
 31
0.0
  0
LINE
  5
179
  8
0
 62
     0
 10
156.348027
 20
103.208952
 30
0.0
 11
156.788005
 21
103.648931
 31
0.0
  0
LINE
  5
17A
  8
0
 62
     0
 10
158.392168
 20
105.253094
 30
0.0
 11
158.832147
 21
105.693072
 31
0.0
  0
LINE
  5
17B
  8
0
 62
     0
 10
157.445097
 20
104.306023
 30
0.0
 11
157.735076
 21
104.596001
 31
0.0
  0
LINE
  5
17C
  8
0
 62
     0
 10
156.029829
 20
103.208952
 30
0.0
 11
156.469807
 21
103.648931
 31
0.0
  0
LINE
  5
17D
  8
0
 62
     0
 10
158.07397
 20
105.253094
 30
0.0
 11
158.513948
 21
105.693072
 31
0.0
  0
LINE
  5
17E
  8
0
 62
     0
 10
157.126899
 20
104.306023
 30
0.0
 11
157.416878
 21
104.596001
 31
0.0
  0
LINE
  5
17F
  8
0
 62
     0
 10
155.711631
 20
103.208952
 30
0.0
 11
156.318694
 21
103.816016
 31
0.0
  0
LINE
  5
180
  8
0
 62
     0
 10
157.755772
 20
105.253094
 30
0.0
 11
158.19575
 21
105.693072
 31
0.0
  0
LINE
  5
181
  8
0
 62
     0
 10
156.808701
 20
104.306023
 30
0.0
 11
157.09868
 21
104.596001
 31
0.0
  0
LINE
  5
182
  8
0
 62
     0
 10
155.393433
 20
103.208952
 30
0.0
 11
156.409331
 21
104.22485
 31
0.0
  0
LINE
  5
183
  8
0
 62
     0
 10
157.437574
 20
105.253094
 30
0.0
 11
157.877552
 21
105.693072
 31
0.0
  0
LINE
  5
184
  8
0
 62
     0
 10
156.490503
 20
104.306023
 30
0.0
 11
156.780482
 21
104.596001
 31
0.0
  0
LINE
  5
185
  8
0
 62
     0
 10
155.075235
 20
103.208952
 30
0.0
 11
156.499967
 21
104.633685
 31
0.0
  0
LINE
  5
186
  8
0
 62
     0
 10
157.119376
 20
105.253094
 30
0.0
 11
157.559354
 21
105.693072
 31
0.0
  0
LINE
  5
187
  8
0
 62
     0
 10
154.757037
 20
103.208952
 30
0.0
 11
156.590603
 21
105.042519
 31
0.0
  0
LINE
  5
188
  8
0
 62
     0
 10
156.801178
 20
105.253094
 30
0.0
 11
157.241156
 21
105.693072
 31
0.0
  0
LINE
  5
189
  8
0
 62
     0
 10
154.486944
 20
103.257057
 30
0.0
 11
156.922958
 21
105.693072
 31
0.0
  0
LINE
  5
18A
  8
0
 62
     0
 10
154.57758
 20
103.665892
 30
0.0
 11
156.60476
 21
105.693072
 31
0.0
  0
LINE
  5
18B
  8
0
 62
     0
 10
154.668217
 20
104.074726
 30
0.0
 11
156.286562
 21
105.693072
 31
0.0
  0
LINE
  5
18C
  8
0
 62
     0
 10
153.484244
 20
103.208952
 30
0.0
 11
153.661705
 21
103.386413
 31
0.0
  0
LINE
  5
18D
  8
0
 62
     0
 10
154.758853
 20
104.483561
 30
0.0
 11
155.968364
 21
105.693072
 31
0.0
  0
LINE
  5
18E
  8
0
 62
     0
 10
153.166046
 20
103.208952
 30
0.0
 11
153.752341
 21
103.795247
 31
0.0
  0
LINE
  5
18F
  8
0
 62
     0
 10
154.849489
 20
104.892395
 30
0.0
 11
155.650166
 21
105.693072
 31
0.0
  0
LINE
  5
190
  8
0
 62
     0
 10
152.847848
 20
103.208952
 30
0.0
 11
153.842978
 21
104.204082
 31
0.0
  0
LINE
  5
191
  8
0
 62
     0
 10
154.940126
 20
105.30123
 30
0.0
 11
155.331968
 21
105.693072
 31
0.0
  0
LINE
  5
192
  8
0
 62
     0
 10
152.52965
 20
103.208952
 30
0.0
 11
153.933614
 21
104.612916
 31
0.0
  0
LINE
  5
193
  8
0
 62
     0
 10
152.211452
 20
103.208952
 30
0.0
 11
154.024251
 21
105.021751
 31
0.0
  0
LINE
  5
194
  8
0
 62
     0
 10
151.893254
 20
103.208952
 30
0.0
 11
154.114887
 21
105.430585
 31
0.0
  0
LINE
  5
195
  8
0
 62
     0
 10
151.625533
 20
103.259429
 30
0.0
 11
154.059176
 21
105.693072
 31
0.0
  0
LINE
  5
196
  8
0
 62
     0
 10
151.458022
 20
103.410117
 30
0.0
 11
153.740978
 21
105.693072
 31
0.0
  0
LINE
  5
197
  8
0
 62
     0
 10
151.290512
 20
103.560804
 30
0.0
 11
153.42278
 21
105.693072
 31
0.0
  0
LINE
  5
198
  8
0
 62
     0
 10
151.123002
 20
103.711492
 30
0.0
 11
152.103081
 21
104.691571
 31
0.0
  0
LINE
  5
199
  8
0
 62
     0
 10
152.283137
 20
104.871627
 30
0.0
 11
153.104582
 21
105.693072
 31
0.0
  0
LINE
  5
19A
  8
0
 62
     0
 10
150.955491
 20
103.86218
 30
0.0
 11
151.916307
 21
104.822995
 31
0.0
  0
LINE
  5
19B
  8
0
 62
     0
 10
152.373773
 20
105.280462
 30
0.0
 11
152.786384
 21
105.693072
 31
0.0
  0
LINE
  5
19C
  8
0
 62
     0
 10
150.787981
 20
104.012868
 30
0.0
 11
151.729532
 21
104.954419
 31
0.0
  0
LINE
  5
19D
  8
0
 62
     0
 10
152.46441
 20
105.689296
 30
0.0
 11
152.468186
 21
105.693072
 31
0.0
  0
LINE
  5
19E
  8
0
 62
     0
 10
149.665868
 20
103.208952
 30
0.0
 11
149.862046
 21
103.405131
 31
0.0
  0
LINE
  5
19F
  8
0
 62
     0
 10
150.620471
 20
104.163555
 30
0.0
 11
151.542758
 21
105.085842
 31
0.0
  0
LINE
  5
1A0
  8
0
 62
     0
 10
149.34767
 20
103.208952
 30
0.0
 11
149.952683
 21
103.813965
 31
0.0
  0
LINE
  5
1A1
  8
0
 62
     0
 10
150.45296
 20
104.314243
 30
0.0
 11
151.355983
 21
105.217266
 31
0.0
  0
LINE
  5
1A2
  8
0
 62
     0
 10
149.029472
 20
103.208952
 30
0.0
 11
150.043319
 21
104.2228
 31
0.0
  0
LINE
  5
1A3
  8
0
 62
     0
 10
150.28545
 20
104.464931
 30
0.0
 11
151.169209
 21
105.34869
 31
0.0
  0
LINE
  5
1A4
  8
0
 62
     0
 10
148.711274
 20
103.208952
 30
0.0
 11
150.982435
 21
105.480113
 31
0.0
  0
LINE
  5
1A5
  8
0
 62
     0
 10
148.393076
 20
103.208952
 30
0.0
 11
150.79566
 21
105.611537
 31
0.0
  0
LINE
  5
1A6
  8
0
 62
     0
 10
148.120932
 20
103.255007
 30
0.0
 11
150.558997
 21
105.693072
 31
0.0
  0
LINE
  5
1A7
  8
0
 62
     0
 10
148.211569
 20
103.663842
 30
0.0
 11
150.240799
 21
105.693072
 31
0.0
  0
LINE
  5
1A8
  8
0
 62
     0
 10
148.302205
 20
104.072676
 30
0.0
 11
149.922601
 21
105.693072
 31
0.0
  0
LINE
  5
1A9
  8
0
 62
     0
 10
148.392842
 20
104.481511
 30
0.0
 11
149.604403
 21
105.693072
 31
0.0
  0
LINE
  5
1AA
  8
0
 62
     0
 10
148.483478
 20
104.890345
 30
0.0
 11
149.286205
 21
105.693072
 31
0.0
  0
LINE
  5
1AB
  8
0
 62
     0
 10
148.574115
 20
105.29918
 30
0.0
 11
148.968007
 21
105.693072
 31
0.0
  0
LINE
  5
1AC
  8
0
 62
     0
 10
173.820613
 20
104.13524
 30
0.0
 11
174.110591
 21
104.425218
 31
0.0
  0
LINE
  5
1AD
  8
0
 62
     0
 10
174.86666
 20
105.181287
 30
0.0
 11
175.378445
 21
105.693072
 31
0.0
  0
LINE
  5
1AE
  8
0
 62
     0
 10
174.138811
 20
104.13524
 30
0.0
 11
174.429241
 21
104.42567
 31
0.0
  0
LINE
  5
1AF
  8
0
 62
     0
 10
174.946739
 20
104.943167
 30
0.0
 11
175.696643
 21
105.693072
 31
0.0
  0
LINE
  5
1B0
  8
0
 62
     0
 10
174.456256
 20
104.134486
 30
0.0
 11
176.014671
 21
105.692902
 31
0.0
  0
LINE
  5
1B1
  8
0
 62
     0
 10
174.630516
 20
103.990548
 30
0.0
 11
176.298943
 21
105.658976
 31
0.0
  0
LINE
  5
1B2
  8
0
 62
     0
 10
174.613
 20
103.654835
 30
0.0
 11
176.535113
 21
105.576948
 31
0.0
  0
LINE
  5
1B3
  8
0
 62
     0
 10
174.605261
 20
103.328897
 30
0.0
 11
176.725075
 21
105.448711
 31
0.0
  0
LINE
  5
1B4
  8
0
 62
     0
 10
174.803514
 20
103.208952
 30
0.0
 11
176.8509
 21
105.256338
 31
0.0
  0
LINE
  5
1B5
  8
0
 62
     0
 10
175.121712
 20
103.208952
 30
0.0
 11
176.221213
 21
104.308453
 31
0.0
  0
LINE
  5
1B6
  8
0
 62
     0
 10
176.266083
 20
104.353323
 30
0.0
 11
176.834229
 21
104.921469
 31
0.0
  0
LINE
  5
1B7
  8
0
 62
     0
 10
175.43991
 20
103.208952
 30
0.0
 11
176.345758
 21
104.1148
 31
0.0
  0
LINE
  5
1B8
  8
0
 62
     0
 10
177.629233
 20
105.398275
 30
0.0
 11
177.92403
 21
105.693072
 31
0.0
  0
LINE
  5
1B9
  8
0
 62
     0
 10
175.758108
 20
103.208952
 30
0.0
 11
176.329942
 21
103.780786
 31
0.0
  0
LINE
  5
1BA
  8
0
 62
     0
 10
177.538596
 20
104.98944
 30
0.0
 11
178.242228
 21
105.693072
 31
0.0
  0
LINE
  5
1BB
  8
0
 62
     0
 10
176.076306
 20
103.208952
 30
0.0
 11
176.307193
 21
103.439839
 31
0.0
  0
LINE
  5
1BC
  8
0
 62
     0
 10
177.44796
 20
104.580606
 30
0.0
 11
178.560426
 21
105.693072
 31
0.0
  0
LINE
  5
1BD
  8
0
 62
     0
 10
177.357323
 20
104.171772
 30
0.0
 11
178.878624
 21
105.693072
 31
0.0
  0
LINE
  5
1BE
  8
0
 62
     0
 10
177.266687
 20
103.762937
 30
0.0
 11
179.196822
 21
105.693072
 31
0.0
  0
LINE
  5
1BF
  8
0
 62
     0
 10
177.176051
 20
103.354103
 30
0.0
 11
179.370347
 21
105.548399
 31
0.0
  0
LINE
  5
1C0
  8
0
 62
     0
 10
177.349098
 20
103.208952
 30
0.0
 11
179.27971
 21
105.139564
 31
0.0
  0
LINE
  5
1C1
  8
0
 62
     0
 10
177.667296
 20
103.208952
 30
0.0
 11
179.189074
 21
104.73073
 31
0.0
  0
LINE
  5
1C2
  8
0
 62
     0
 10
177.985494
 20
103.208952
 30
0.0
 11
179.098437
 21
104.321895
 31
0.0
  0
LINE
  5
1C3
  8
0
 62
     0
 10
180.395067
 20
105.618525
 30
0.0
 11
180.469614
 21
105.693072
 31
0.0
  0
LINE
  5
1C4
  8
0
 62
     0
 10
178.303692
 20
103.208952
 30
0.0
 11
179.007801
 21
103.913061
 31
0.0
  0
LINE
  5
1C5
  8
0
 62
     0
 10
180.30443
 20
105.20969
 30
0.0
 11
180.787812
 21
105.693072
 31
0.0
  0
LINE
  5
1C6
  8
0
 62
     0
 10
178.62189
 20
103.208952
 30
0.0
 11
178.917164
 21
103.504226
 31
0.0
  0
LINE
  5
1C7
  8
0
 62
     0
 10
180.213794
 20
104.800856
 30
0.0
 11
181.10601
 21
105.693072
 31
0.0
  0
LINE
  5
1C8
  8
0
 62
     0
 10
180.123158
 20
104.392021
 30
0.0
 11
181.424208
 21
105.693072
 31
0.0
  0
LINE
  5
1C9
  8
0
 62
     0
 10
180.032521
 20
103.983187
 30
0.0
 11
181.742406
 21
105.693072
 31
0.0
  0
LINE
  5
1CA
  8
0
 62
     0
 10
179.941885
 20
103.574352
 30
0.0
 11
182.03644
 21
105.668908
 31
0.0
  0
LINE
  5
1CB
  8
0
 62
     0
 10
179.894683
 20
103.208952
 30
0.0
 11
181.945804
 21
105.260073
 31
0.0
  0
LINE
  5
1CC
  8
0
 62
     0
 10
180.212881
 20
103.208952
 30
0.0
 11
181.857718
 21
104.853789
 31
0.0
  0
LINE
  5
1CD
  8
0
 62
     0
 10
180.531079
 20
103.208952
 30
0.0
 11
182.412196
 21
105.09007
 31
0.0
  0
LINE
  5
1CE
  8
0
 62
     0
 10
180.849277
 20
103.208952
 30
0.0
 11
182.966675
 21
105.326351
 31
0.0
  0
LINE
  5
1CF
  8
0
 62
     0
 10
181.167475
 20
103.208952
 30
0.0
 11
181.583258
 21
103.624735
 31
0.0
  0
LINE
  5
1D0
  8
0
 62
     0
 10
181.907125
 20
103.948602
 30
0.0
 11
183.521154
 21
105.562631
 31
0.0
  0
LINE
  5
1D1
  8
0
 62
     0
 10
181.485673
 20
103.208952
 30
0.0
 11
181.492621
 21
103.215901
 31
0.0
  0
LINE
  5
1D2
  8
0
 62
     0
 10
182.38713
 20
104.110409
 30
0.0
 11
183.969793
 21
105.693072
 31
0.0
  0
LINE
  5
1D3
  8
0
 62
     0
 10
182.545159
 20
103.95024
 30
0.0
 11
184.287991
 21
105.693072
 31
0.0
  0
LINE
  5
1D4
  8
0
 62
     0
 10
182.703188
 20
103.790071
 30
0.0
 11
184.606189
 21
105.693072
 31
0.0
  0
LINE
  5
1D5
  8
0
 62
     0
 10
182.861217
 20
103.629902
 30
0.0
 11
184.033479
 21
104.802165
 31
0.0
  0
LINE
  5
1D6
  8
0
 62
     0
 10
184.12504
 20
104.893725
 30
0.0
 11
184.924387
 21
105.693072
 31
0.0
  0
LINE
  5
1D7
  8
0
 62
     0
 10
183.019246
 20
103.469733
 30
0.0
 11
184.191508
 21
104.641995
 31
0.0
  0
LINE
  5
1D8
  8
0
 62
     0
 10
184.679519
 20
105.130006
 30
0.0
 11
185.242585
 21
105.693072
 31
0.0
  0
LINE
  5
1D9
  8
0
 62
     0
 10
183.177275
 20
103.309564
 30
0.0
 11
184.349537
 21
104.481826
 31
0.0
  0
LINE
  5
1DA
  8
0
 62
     0
 10
185.233998
 20
105.366287
 30
0.0
 11
185.560783
 21
105.693072
 31
0.0
  0
LINE
  5
1DB
  8
0
 62
     0
 10
183.394861
 20
103.208952
 30
0.0
 11
184.507566
 21
104.321657
 31
0.0
  0
LINE
  5
1DC
  8
0
 62
     0
 10
185.788476
 20
105.602567
 30
0.0
 11
185.878981
 21
105.693072
 31
0.0
  0
LINE
  5
1DD
  8
0
 62
     0
 10
183.713059
 20
103.208952
 30
0.0
 11
184.665595
 21
104.161488
 31
0.0
  0
LINE
  5
1DE
  8
0
 62
     0
 10
184.031257
 20
103.208952
 30
0.0
 11
184.823624
 21
104.001319
 31
0.0
  0
LINE
  5
1DF
  8
0
 62
     0
 10
184.349455
 20
103.208952
 30
0.0
 11
184.981653
 21
103.84115
 31
0.0
  0
LINE
  5
1E0
  8
0
 62
     0
 10
184.667653
 20
103.208952
 30
0.0
 11
185.139682
 21
103.680981
 31
0.0
  0
LINE
  5
1E1
  8
0
 62
     0
 10
184.985851
 20
103.208952
 30
0.0
 11
185.297711
 21
103.520812
 31
0.0
  0
LINE
  5
1E2
  8
0
 62
     0
 10
185.30405
 20
103.208952
 30
0.0
 11
185.45574
 21
103.360643
 31
0.0
  0
LINE
  5
1E3
  8
0
 62
     0
 10
190.307701
 20
105.66702
 30
0.0
 11
190.334482
 21
105.693801
 31
0.0
  0
LINE
  5
1E4
  8
0
 62
     0
 10
189.353107
 20
104.394227
 30
0.0
 11
190.65268
 21
105.693801
 31
0.0
  0
LINE
  5
1E5
  8
0
 62
     0
 10
188.48603
 20
103.208952
 30
0.0
 11
190.970879
 21
105.693801
 31
0.0
  0
LINE
  5
1E6
  8
0
 62
     0
 10
188.804228
 20
103.208952
 30
0.0
 11
191.289077
 21
105.693801
 31
0.0
  0
LINE
  5
1E7
  8
0
 62
     0
 10
189.122426
 20
103.208952
 30
0.0
 11
191.607275
 21
105.693801
 31
0.0
  0
LINE
  5
1E8
  8
0
 62
     0
 10
189.440624
 20
103.208952
 30
0.0
 11
191.925473
 21
105.693801
 31
0.0
  0
LINE
  5
1E9
  8
0
 62
     0
 10
189.758822
 20
103.208952
 30
0.0
 11
191.284682
 21
104.734812
 31
0.0
  0
LINE
  5
1EA
  8
0
 62
     0
 10
191.828596
 20
105.278726
 30
0.0
 11
192.243671
 21
105.693801
 31
0.0
  0
LINE
  5
1EB
  8
0
 62
     0
 10
190.07702
 20
103.208952
 30
0.0
 11
190.330088
 21
103.46202
 31
0.0
  0
LINE
  5
1EC
  8
0
 62
     0
 10
191.892236
 20
105.024168
 30
0.0
 11
192.561869
 21
105.693801
 31
0.0
  0
LINE
  5
1ED
  8
0
 62
     0
 10
190.557052
 20
103.688984
 30
0.0
 11
190.93024
 21
104.062171
 31
0.0
  0
LINE
  5
1EE
  8
0
 62
     0
 10
190.87525
 20
103.688984
 30
0.0
 11
191.248438
 21
104.062171
 31
0.0
  0
LINE
  5
1EF
  8
0
 62
     0
 10
191.955876
 20
104.76961
 30
0.0
 11
192.880067
 21
105.693801
 31
0.0
  0
LINE
  5
1F0
  8
0
 62
     0
 10
191.193448
 20
103.688984
 30
0.0
 11
191.566636
 21
104.062171
 31
0.0
  0
LINE
  5
1F1
  8
0
 62
     0
 10
192.019515
 20
104.515051
 30
0.0
 11
193.198265
 21
105.693801
 31
0.0
  0
LINE
  5
1F2
  8
0
 62
     0
 10
191.511646
 20
103.688984
 30
0.0
 11
191.884834
 21
104.062171
 31
0.0
  0
LINE
  5
1F3
  8
0
 62
     0
 10
192.083155
 20
104.260493
 30
0.0
 11
193.329286
 21
105.506623
 31
0.0
  0
LINE
  5
1F4
  8
0
 62
     0
 10
191.829844
 20
103.688984
 30
0.0
 11
193.392925
 21
105.252065
 31
0.0
  0
LINE
  5
1F5
  8
0
 62
     0
 10
192.148042
 20
103.688984
 30
0.0
 11
193.456565
 21
104.997506
 31
0.0
  0
LINE
  5
1F6
  8
0
 62
     0
 10
192.274074
 20
103.496817
 30
0.0
 11
193.520204
 21
104.742948
 31
0.0
  0
LINE
  5
1F7
  8
0
 62
     0
 10
192.337713
 20
103.242259
 30
0.0
 11
193.583844
 21
104.48839
 31
0.0
  0
LINE
  5
1F8
  8
0
 62
     0
 10
192.622605
 20
103.208952
 30
0.0
 11
193.647484
 21
104.233831
 31
0.0
  0
LINE
  5
1F9
  8
0
 62
     0
 10
192.940803
 20
103.208952
 30
0.0
 11
193.711123
 21
103.979273
 31
0.0
  0
LINE
  5
1FA
  8
0
 62
     0
 10
194.864033
 20
105.132182
 30
0.0
 11
195.244054
 21
105.512203
 31
0.0
  0
LINE
  5
1FB
  8
0
 62
     0
 10
193.259001
 20
103.208952
 30
0.0
 11
193.774763
 21
103.724714
 31
0.0
  0
LINE
  5
1FC
  8
0
 62
     0
 10
194.795915
 20
104.745866
 30
0.0
 11
195.618586
 21
105.568537
 31
0.0
  0
LINE
  5
1FD
  8
0
 62
     0
 10
193.577199
 20
103.208952
 30
0.0
 11
193.838402
 21
103.470156
 31
0.0
  0
LINE
  5
1FE
  8
0
 62
     0
 10
194.727797
 20
104.35955
 30
0.0
 11
195.981303
 21
105.613056
 31
0.0
  0
LINE
  5
1FF
  8
0
 62
     0
 10
193.895397
 20
103.208952
 30
0.0
 11
193.902042
 21
103.215597
 31
0.0
  0
LINE
  5
200
  8
0
 62
     0
 10
194.659679
 20
103.973234
 30
0.0
 11
196.333358
 21
105.646913
 31
0.0
  0
LINE
  5
201
  8
0
 62
     0
 10
194.615277
 20
103.610634
 30
0.0
 11
196.67571
 21
105.671067
 31
0.0
  0
LINE
  5
202
  8
0
 62
     0
 10
194.737894
 20
103.415053
 30
0.0
 11
197.009165
 21
105.686324
 31
0.0
  0
LINE
  5
203
  8
0
 62
     0
 10
194.983951
 20
103.342913
 30
0.0
 11
196.340819
 21
104.69978
 31
0.0
  0
LINE
  5
204
  8
0
 62
     0
 10
196.88271
 20
105.241671
 30
0.0
 11
197.334409
 21
105.69337
 31
0.0
  0
LINE
  5
205
  8
0
 62
     0
 10
195.265203
 20
103.305966
 30
0.0
 11
196.272701
 21
104.313464
 31
0.0
  0
LINE
  5
206
  8
0
 62
     0
 10
197.219219
 20
105.259982
 30
0.0
 11
197.652032
 21
105.692795
 31
0.0
  0
LINE
  5
207
  8
0
 62
     0
 10
195.551822
 20
103.274387
 30
0.0
 11
196.225094
 21
103.947659
 31
0.0
  0
LINE
  5
208
  8
0
 62
     0
 10
197.526321
 20
105.248886
 30
0.0
 11
197.962545
 21
105.68511
 31
0.0
  0
LINE
  5
209
  8
0
 62
     0
 10
195.844088
 20
103.248455
 30
0.0
 11
196.343872
 21
103.748239
 31
0.0
  0
LINE
  5
20A
  8
0
 62
     0
 10
197.810421
 20
105.214788
 30
0.0
 11
198.266395
 21
105.670762
 31
0.0
  0
LINE
  5
20B
  8
0
 62
     0
 10
196.142312
 20
103.228481
 30
0.0
 11
196.588304
 21
103.674473
 31
0.0
  0
LINE
  5
20C
  8
0
 62
     0
 10
198.025995
 20
105.112164
 30
0.0
 11
198.563973
 21
105.650142
 31
0.0
  0
LINE
  5
20D
  8
0
 62
     0
 10
196.446847
 20
103.214818
 30
0.0
 11
196.883622
 21
103.651593
 31
0.0
  0
LINE
  5
20E
  8
0
 62
     0
 10
198.196022
 20
104.963993
 30
0.0
 11
198.855628
 21
105.623599
 31
0.0
  0
LINE
  5
20F
  8
0
 62
     0
 10
197.353782
 20
104.121752
 30
0.0
 11
197.533406
 21
104.301376
 31
0.0
  0
LINE
  5
210
  8
0
 62
     0
 10
196.75809
 20
103.207862
 30
0.0
 11
197.204833
 21
103.654605
 31
0.0
  0
LINE
  5
211
  8
0
 62
     0
 10
198.51422
 20
104.963993
 30
0.0
 11
199.141667
 21
105.59144
 31
0.0
  0
LINE
  5
212
  8
0
 62
     0
 10
197.628876
 20
104.078649
 30
0.0
 11
197.851604
 21
104.301376
 31
0.0
  0
LINE
  5
213
  8
0
 62
     0
 10
197.076493
 20
103.208068
 30
0.0
 11
197.560393
 21
103.691967
 31
0.0
  0
LINE
  5
214
  8
0
 62
     0
 10
198.832418
 20
104.963993
 30
0.0
 11
199.422367
 21
105.553941
 31
0.0
  0
LINE
  5
215
  8
0
 62
     0
 10
197.947074
 20
104.078649
 30
0.0
 11
198.169802
 21
104.301376
 31
0.0
  0
LINE
  5
216
  8
0
 62
     0
 10
197.402575
 20
103.215952
 30
0.0
 11
198.488
 21
104.301376
 31
0.0
  0
LINE
  5
217
  8
0
 62
     0
 10
199.150616
 20
104.963993
 30
0.0
 11
199.638742
 21
105.452118
 31
0.0
  0
LINE
  5
218
  8
0
 62
     0
 10
197.736936
 20
103.232115
 30
0.0
 11
198.806198
 21
104.301376
 31
0.0
  0
LINE
  5
219
  8
0
 62
     0
 10
199.468814
 20
104.963993
 30
0.0
 11
199.719549
 21
105.214728
 31
0.0
  0
LINE
  5
21A
  8
0
 62
     0
 10
198.031972
 20
103.208952
 30
0.0
 11
199.124396
 21
104.301376
 31
0.0
  0
LINE
  5
21B
  8
0
 62
     0
 10
198.35017
 20
103.208952
 30
0.0
 11
199.442594
 21
104.301376
 31
0.0
  0
LINE
  5
21C
  8
0
 62
     0
 10
198.668368
 20
103.208952
 30
0.0
 11
199.516647
 21
104.057232
 31
0.0
  0
LINE
  5
21D
  8
0
 62
     0
 10
198.986566
 20
103.208952
 30
0.0
 11
199.448529
 21
103.670916
 31
0.0
  0
LINE
  5
21E
  8
0
 62
     0
 10
199.304764
 20
103.208952
 30
0.0
 11
199.380411
 21
103.2846
 31
0.0
  0
LINE
  5
21F
  8
0
 62
     0
 10
174.896145
 20
103.208952
 30
0.0
 11
174.602537
 21
103.50256
 31
0.0
  0
LINE
  5
220
  8
0
 62
     0
 10
173.177644
 20
104.927453
 30
0.0
 11
172.412025
 21
105.693072
 31
0.0
  0
LINE
  5
221
  8
0
 62
     0
 10
173.969857
 20
104.13524
 30
0.0
 11
173.679879
 21
104.425218
 31
0.0
  0
LINE
  5
222
  8
0
 62
     0
 10
173.651659
 20
104.13524
 30
0.0
 11
173.361681
 21
104.425218
 31
0.0
  0
LINE
  5
223
  8
0
 62
     0
 10
173.119903
 20
104.666996
 30
0.0
 11
172.093827
 21
105.693072
 31
0.0
  0
LINE
  5
224
  8
0
 62
     0
 10
173.333461
 20
104.13524
 30
0.0
 11
171.775629
 21
105.693072
 31
0.0
  0
LINE
  5
225
  8
0
 62
     0
 10
173.015263
 20
104.13524
 30
0.0
 11
171.606498
 21
105.544005
 31
0.0
  0
LINE
  5
226
  8
0
 62
     0
 10
172.946677
 20
103.885628
 30
0.0
 11
171.548757
 21
105.283548
 31
0.0
  0
LINE
  5
227
  8
0
 62
     0
 10
172.888936
 20
103.625171
 30
0.0
 11
171.491015
 21
105.023092
 31
0.0
  0
LINE
  5
228
  8
0
 62
     0
 10
171.046222
 20
105.467885
 30
0.0
 11
170.821035
 21
105.693072
 31
0.0
  0
LINE
  5
229
  8
0
 62
     0
 10
172.831194
 20
103.364715
 30
0.0
 11
171.433273
 21
104.762636
 31
0.0
  0
LINE
  5
22A
  8
0
 62
     0
 10
170.98848
 20
105.207429
 30
0.0
 11
170.502837
 21
105.693072
 31
0.0
  0
LINE
  5
22B
  8
0
 62
     0
 10
172.668758
 20
103.208952
 30
0.0
 11
171.375531
 21
104.502179
 31
0.0
  0
LINE
  5
22C
  8
0
 62
     0
 10
170.805669
 20
105.072042
 30
0.0
 11
170.184639
 21
105.693072
 31
0.0
  0
LINE
  5
22D
  8
0
 62
     0
 10
172.35056
 20
103.208952
 30
0.0
 11
171.317789
 21
104.241723
 31
0.0
  0
LINE
  5
22E
  8
0
 62
     0
 10
170.487471
 20
105.072042
 30
0.0
 11
169.866441
 21
105.693072
 31
0.0
  0
LINE
  5
22F
  8
0
 62
     0
 10
172.032362
 20
103.208952
 30
0.0
 11
171.260048
 21
103.981267
 31
0.0
  0
LINE
  5
230
  8
0
 62
     0
 10
170.169273
 20
105.072042
 30
0.0
 11
169.548243
 21
105.693072
 31
0.0
  0
LINE
  5
231
  8
0
 62
     0
 10
171.714164
 20
103.208952
 30
0.0
 11
171.202306
 21
103.720811
 31
0.0
  0
LINE
  5
232
  8
0
 62
     0
 10
169.851075
 20
105.072042
 30
0.0
 11
169.230045
 21
105.693072
 31
0.0
  0
LINE
  5
233
  8
0
 62
     0
 10
171.395966
 20
103.208952
 30
0.0
 11
171.144564
 21
103.460354
 31
0.0
  0
LINE
  5
234
  8
0
 62
     0
 10
169.532876
 20
105.072042
 30
0.0
 11
168.911847
 21
105.693072
 31
0.0
  0
LINE
  5
235
  8
0
 62
     0
 10
169.307651
 20
104.97907
 30
0.0
 11
168.593648
 21
105.693072
 31
0.0
  0
LINE
  5
236
  8
0
 62
     0
 10
169.249909
 20
104.718614
 30
0.0
 11
168.27545
 21
105.693072
 31
0.0
  0
LINE
  5
237
  8
0
 62
     0
 10
169.192167
 20
104.458157
 30
0.0
 11
167.957252
 21
105.693072
 31
0.0
  0
LINE
  5
238
  8
0
 62
     0
 10
169.134425
 20
104.197701
 30
0.0
 11
167.639054
 21
105.693072
 31
0.0
  0
LINE
  5
239
  8
0
 62
     0
 10
169.076683
 20
103.937245
 30
0.0
 11
167.320856
 21
105.693072
 31
0.0
  0
LINE
  5
23A
  8
0
 62
     0
 10
169.018942
 20
103.676788
 30
0.0
 11
167.002658
 21
105.693072
 31
0.0
  0
LINE
  5
23B
  8
0
 62
     0
 10
168.9612
 20
103.416332
 30
0.0
 11
167.563279
 21
104.814253
 31
0.0
  0
LINE
  5
23C
  8
0
 62
     0
 10
167.30549
 20
105.072042
 30
0.0
 11
166.68446
 21
105.693072
 31
0.0
  0
LINE
  5
23D
  8
0
 62
     0
 10
168.850382
 20
103.208952
 30
0.0
 11
167.505537
 21
104.553797
 31
0.0
  0
LINE
  5
23E
  8
0
 62
     0
 10
166.987292
 20
105.072042
 30
0.0
 11
166.366262
 21
105.693072
 31
0.0
  0
LINE
  5
23F
  8
0
 62
     0
 10
168.532184
 20
103.208952
 30
0.0
 11
167.447796
 21
104.29334
 31
0.0
  0
LINE
  5
240
  8
0
 62
     0
 10
166.669094
 20
105.072042
 30
0.0
 11
166.176959
 21
105.564177
 31
0.0
  0
LINE
  5
241
  8
0
 62
     0
 10
168.213986
 20
103.208952
 30
0.0
 11
167.390054
 21
104.032884
 31
0.0
  0
LINE
  5
242
  8
0
 62
     0
 10
165.749267
 20
105.673671
 30
0.0
 11
165.729866
 21
105.693072
 31
0.0
  0
LINE
  5
243
  8
0
 62
     0
 10
166.350896
 20
105.072042
 30
0.0
 11
166.119217
 21
105.303721
 31
0.0
  0
LINE
  5
244
  8
0
 62
     0
 10
167.895788
 20
103.208952
 30
0.0
 11
167.332312
 21
103.772428
 31
0.0
  0
LINE
  5
245
  8
0
 62
     0
 10
165.691525
 20
105.413214
 30
0.0
 11
165.411668
 21
105.693072
 31
0.0
  0
LINE
  5
246
  8
0
 62
     0
 10
167.57759
 20
103.208952
 30
0.0
 11
167.27457
 21
103.511971
 31
0.0
  0
LINE
  5
247
  8
0
 62
     0
 10
165.633784
 20
105.152758
 30
0.0
 11
165.09347
 21
105.693072
 31
0.0
  0
LINE
  5
248
  8
0
 62
     0
 10
167.259392
 20
103.208952
 30
0.0
 11
167.216829
 21
103.251515
 31
0.0
  0
LINE
  5
249
  8
0
 62
     0
 10
165.576042
 20
104.892302
 30
0.0
 11
164.775272
 21
105.693072
 31
0.0
  0
LINE
  5
24A
  8
0
 62
     0
 10
165.5183
 20
104.631846
 30
0.0
 11
164.457074
 21
105.693072
 31
0.0
  0
LINE
  5
24B
  8
0
 62
     0
 10
165.460558
 20
104.371389
 30
0.0
 11
164.138876
 21
105.693072
 31
0.0
  0
LINE
  5
24C
  8
0
 62
     0
 10
165.402817
 20
104.110933
 30
0.0
 11
164.008428
 21
105.505322
 31
0.0
  0
LINE
  5
24D
  8
0
 62
     0
 10
165.345075
 20
103.850477
 30
0.0
 11
163.950686
 21
105.244865
 31
0.0
  0
LINE
  5
24E
  8
0
 62
     0
 10
165.213808
 20
103.663545
 30
0.0
 11
163.892945
 21
104.984409
 31
0.0
  0
LINE
  5
24F
  8
0
 62
     0
 10
165.017448
 20
103.541707
 30
0.0
 11
163.835203
 21
104.723953
 31
0.0
  0
LINE
  5
250
  8
0
 62
     0
 10
164.802652
 20
103.438305
 30
0.0
 11
163.777461
 21
104.463496
 31
0.0
  0
LINE
  5
251
  8
0
 62
     0
 10
164.567173
 20
103.355586
 30
0.0
 11
163.719719
 21
104.20304
 31
0.0
  0
LINE
  5
252
  8
0
 62
     0
 10
164.315183
 20
103.289379
 30
0.0
 11
163.618712
 21
103.98585
 31
0.0
  0
LINE
  5
253
  8
0
 62
     0
 10
162.118619
 20
105.485943
 30
0.0
 11
161.911489
 21
105.693072
 31
0.0
  0
LINE
  5
254
  8
0
 62
     0
 10
164.051144
 20
103.235219
 30
0.0
 11
163.422176
 21
103.864188
 31
0.0
  0
LINE
  5
255
  8
0
 62
     0
 10
162.060877
 20
105.225486
 30
0.0
 11
161.593291
 21
105.693072
 31
0.0
  0
LINE
  5
256
  8
0
 62
     0
 10
163.77367
 20
103.194495
 30
0.0
 11
163.177404
 21
103.790761
 31
0.0
  0
LINE
  5
257
  8
0
 62
     0
 10
162.003135
 20
104.96503
 30
0.0
 11
161.275093
 21
105.693072
 31
0.0
  0
LINE
  5
258
  8
0
 62
     0
 10
163.485182
 20
103.164785
 30
0.0
 11
162.893835
 21
103.756132
 31
0.0
  0
LINE
  5
259
  8
0
 62
     0
 10
161.945393
 20
104.704574
 30
0.0
 11
160.956895
 21
105.693072
 31
0.0
  0
LINE
  5
25A
  8
0
 62
     0
 10
163.187779
 20
103.14399
 30
0.0
 11
162.571275
 21
103.760495
 31
0.0
  0
LINE
  5
25B
  8
0
 62
     0
 10
161.887652
 20
104.444117
 30
0.0
 11
160.638697
 21
105.693072
 31
0.0
  0
LINE
  5
25C
  8
0
 62
     0
 10
162.88065
 20
103.132921
 30
0.0
 11
162.17665
 21
103.836921
 31
0.0
  0
LINE
  5
25D
  8
0
 62
     0
 10
161.82991
 20
104.183661
 30
0.0
 11
160.43551
 21
105.578061
 31
0.0
  0
LINE
  5
25E
  8
0
 62
     0
 10
162.562817
 20
103.132556
 30
0.0
 11
160.377768
 21
105.317605
 31
0.0
  0
LINE
  5
25F
  8
0
 62
     0
 10
162.233074
 20
103.144101
 30
0.0
 11
160.320026
 21
105.057149
 31
0.0
  0
LINE
  5
260
  8
0
 62
     0
 10
159.684608
 20
105.692567
 30
0.0
 11
159.684103
 21
105.693072
 31
0.0
  0
LINE
  5
261
  8
0
 62
     0
 10
161.889919
 20
103.169058
 30
0.0
 11
160.262284
 21
104.796692
 31
0.0
  0
LINE
  5
262
  8
0
 62
     0
 10
159.626866
 20
105.432111
 30
0.0
 11
159.365905
 21
105.693072
 31
0.0
  0
LINE
  5
263
  8
0
 62
     0
 10
161.530904
 20
103.209875
 30
0.0
 11
160.204543
 21
104.536236
 31
0.0
  0
LINE
  5
264
  8
0
 62
     0
 10
159.487685
 20
105.253094
 30
0.0
 11
159.047707
 21
105.693072
 31
0.0
  0
LINE
  5
265
  8
0
 62
     0
 10
161.140832
 20
103.281749
 30
0.0
 11
160.146801
 21
104.27578
 31
0.0
  0
LINE
  5
266
  8
0
 62
     0
 10
159.169487
 20
105.253094
 30
0.0
 11
158.729509
 21
105.693072
 31
0.0
  0
LINE
  5
267
  8
0
 62
     0
 10
160.695959
 20
103.408424
 30
0.0
 11
160.089059
 21
104.015324
 31
0.0
  0
LINE
  5
268
  8
0
 62
     0
 10
158.851289
 20
105.253094
 30
0.0
 11
158.411311
 21
105.693072
 31
0.0
  0
LINE
  5
269
  8
0
 62
     0
 10
159.205273
 20
104.580911
 30
0.0
 11
159.190183
 21
104.596001
 31
0.0
  0
LINE
  5
26A
  8
0
 62
     0
 10
158.533091
 20
105.253094
 30
0.0
 11
158.093113
 21
105.693072
 31
0.0
  0
LINE
  5
26B
  8
0
 62
     0
 10
159.147532
 20
104.320455
 30
0.0
 11
158.871985
 21
104.596001
 31
0.0
  0
LINE
  5
26C
  8
0
 62
     0
 10
158.214893
 20
105.253094
 30
0.0
 11
157.774915
 21
105.693072
 31
0.0
  0
LINE
  5
26D
  8
0
 62
     0
 10
158.843766
 20
104.306023
 30
0.0
 11
158.553787
 21
104.596001
 31
0.0
  0
LINE
  5
26E
  8
0
 62
     0
 10
157.896695
 20
105.253094
 30
0.0
 11
157.456717
 21
105.693072
 31
0.0
  0
LINE
  5
26F
  8
0
 62
     0
 10
159.222674
 20
103.608917
 30
0.0
 11
159.18266
 21
103.648931
 31
0.0
  0
LINE
  5
270
  8
0
 62
     0
 10
157.578497
 20
105.253094
 30
0.0
 11
157.138519
 21
105.693072
 31
0.0
  0
LINE
  5
271
  8
0
 62
     0
 10
158.525568
 20
104.306023
 30
0.0
 11
158.235589
 21
104.596001
 31
0.0
  0
LINE
  5
272
  8
0
 62
     0
 10
159.164932
 20
103.348461
 30
0.0
 11
158.864462
 21
103.648931
 31
0.0
  0
LINE
  5
273
  8
0
 62
     0
 10
157.260299
 20
105.253094
 30
0.0
 11
156.820321
 21
105.693072
 31
0.0
  0
LINE
  5
274
  8
0
 62
     0
 10
158.20737
 20
104.306023
 30
0.0
 11
157.917391
 21
104.596001
 31
0.0
  0
LINE
  5
275
  8
0
 62
     0
 10
158.986242
 20
103.208952
 30
0.0
 11
158.546264
 21
103.648931
 31
0.0
  0
LINE
  5
276
  8
0
 62
     0
 10
156.942101
 20
105.253094
 30
0.0
 11
156.502123
 21
105.693072
 31
0.0
  0
LINE
  5
277
  8
0
 62
     0
 10
157.889172
 20
104.306023
 30
0.0
 11
157.599193
 21
104.596001
 31
0.0
  0
LINE
  5
278
  8
0
 62
     0
 10
158.668044
 20
103.208952
 30
0.0
 11
158.228066
 21
103.648931
 31
0.0
  0
LINE
  5
279
  8
0
 62
     0
 10
156.634858
 20
105.242138
 30
0.0
 11
156.183924
 21
105.693072
 31
0.0
  0
LINE
  5
27A
  8
0
 62
     0
 10
157.570974
 20
104.306023
 30
0.0
 11
157.280995
 21
104.596001
 31
0.0
  0
LINE
  5
27B
  8
0
 62
     0
 10
158.349846
 20
103.208952
 30
0.0
 11
157.909868
 21
103.648931
 31
0.0
  0
LINE
  5
27C
  8
0
 62
     0
 10
156.577116
 20
104.981682
 30
0.0
 11
155.865726
 21
105.693072
 31
0.0
  0
LINE
  5
27D
  8
0
 62
     0
 10
157.252775
 20
104.306023
 30
0.0
 11
156.962797
 21
104.596001
 31
0.0
  0
LINE
  5
27E
  8
0
 62
     0
 10
158.031648
 20
103.208952
 30
0.0
 11
157.59167
 21
103.648931
 31
0.0
  0
LINE
  5
27F
  8
0
 62
     0
 10
156.519374
 20
104.721226
 30
0.0
 11
155.547528
 21
105.693072
 31
0.0
  0
LINE
  5
280
  8
0
 62
     0
 10
156.934577
 20
104.306023
 30
0.0
 11
156.644599
 21
104.596001
 31
0.0
  0
LINE
  5
281
  8
0
 62
     0
 10
157.71345
 20
103.208952
 30
0.0
 11
157.273472
 21
103.648931
 31
0.0
  0
LINE
  5
282
  8
0
 62
     0
 10
156.616379
 20
104.306023
 30
0.0
 11
155.22933
 21
105.693072
 31
0.0
  0
LINE
  5
283
  8
0
 62
     0
 10
157.395252
 20
103.208952
 30
0.0
 11
156.955274
 21
103.648931
 31
0.0
  0
LINE
  5
284
  8
0
 62
     0
 10
156.403891
 20
104.200313
 30
0.0
 11
155.00597
 21
105.598234
 31
0.0
  0
LINE
  5
285
  8
0
 62
     0
 10
157.077054
 20
103.208952
 30
0.0
 11
156.637075
 21
103.648931
 31
0.0
  0
LINE
  5
286
  8
0
 62
     0
 10
156.346149
 20
103.939857
 30
0.0
 11
154.948228
 21
105.337778
 31
0.0
  0
LINE
  5
287
  8
0
 62
     0
 10
156.758856
 20
103.208952
 30
0.0
 11
156.318877
 21
103.648931
 31
0.0
  0
LINE
  5
288
  8
0
 62
     0
 10
156.288407
 20
103.679401
 30
0.0
 11
154.890487
 21
105.077322
 31
0.0
  0
LINE
  5
289
  8
0
 62
     0
 10
156.440658
 20
103.208952
 30
0.0
 11
154.832745
 21
104.816865
 31
0.0
  0
LINE
  5
28A
  8
0
 62
     0
 10
154.133784
 20
105.515826
 30
0.0
 11
153.956538
 21
105.693072
 31
0.0
  0
LINE
  5
28B
  8
0
 62
     0
 10
156.12246
 20
103.208952
 30
0.0
 11
154.775003
 21
104.556409
 31
0.0
  0
LINE
  5
28C
  8
0
 62
     0
 10
154.076043
 20
105.255369
 30
0.0
 11
153.63834
 21
105.693072
 31
0.0
  0
LINE
  5
28D
  8
0
 62
     0
 10
155.804262
 20
103.208952
 30
0.0
 11
154.717261
 21
104.295953
 31
0.0
  0
LINE
  5
28E
  8
0
 62
     0
 10
154.018301
 20
104.994913
 30
0.0
 11
153.320142
 21
105.693072
 31
0.0
  0
LINE
  5
28F
  8
0
 62
     0
 10
155.486064
 20
103.208952
 30
0.0
 11
154.65952
 21
104.035496
 31
0.0
  0
LINE
  5
290
  8
0
 62
     0
 10
153.960559
 20
104.734457
 30
0.0
 11
153.001944
 21
105.693072
 31
0.0
  0
LINE
  5
291
  8
0
 62
     0
 10
155.167866
 20
103.208952
 30
0.0
 11
154.601778
 21
103.77504
 31
0.0
  0
LINE
  5
292
  8
0
 62
     0
 10
153.902817
 20
104.474
 30
0.0
 11
152.683746
 21
105.693072
 31
0.0
  0
LINE
  5
293
  8
0
 62
     0
 10
154.849668
 20
103.208952
 30
0.0
 11
154.544036
 21
103.514584
 31
0.0
  0
LINE
  5
294
  8
0
 62
     0
 10
153.845076
 20
104.213544
 30
0.0
 11
152.447155
 21
105.611465
 31
0.0
  0
LINE
  5
295
  8
0
 62
     0
 10
154.53147
 20
103.208952
 30
0.0
 11
154.486294
 21
103.254128
 31
0.0
  0
LINE
  5
296
  8
0
 62
     0
 10
153.787334
 20
103.953088
 30
0.0
 11
152.389413
 21
105.351009
 31
0.0
  0
LINE
  5
297
  8
0
 62
     0
 10
153.729592
 20
103.692632
 30
0.0
 11
152.331671
 21
105.090552
 31
0.0
  0
LINE
  5
298
  8
0
 62
     0
 10
153.67185
 20
103.432175
 30
0.0
 11
152.27393
 21
104.830096
 31
0.0
  0
LINE
  5
299
  8
0
 62
     0
 10
153.576875
 20
103.208952
 30
0.0
 11
152.073304
 21
104.712524
 31
0.0
  0
LINE
  5
29A
  8
0
 62
     0
 10
153.258677
 20
103.208952
 30
0.0
 11
150.999582
 21
105.468047
 31
0.0
  0
LINE
  5
29B
  8
0
 62
     0
 10
152.940479
 20
103.208952
 30
0.0
 11
150.45636
 21
105.693072
 31
0.0
  0
LINE
  5
29C
  8
0
 62
     0
 10
152.622281
 20
103.208952
 30
0.0
 11
150.138161
 21
105.693072
 31
0.0
  0
LINE
  5
29D
  8
0
 62
     0
 10
152.304083
 20
103.208952
 30
0.0
 11
149.819963
 21
105.693072
 31
0.0
  0
LINE
  5
29E
  8
0
 62
     0
 10
151.985885
 20
103.208952
 30
0.0
 11
149.501765
 21
105.693072
 31
0.0
  0
LINE
  5
29F
  8
0
 62
     0
 10
151.542665
 20
103.333975
 30
0.0
 11
149.183567
 21
105.693072
 31
0.0
  0
LINE
  5
2A0
  8
0
 62
     0
 10
150.096365
 20
104.462076
 30
0.0
 11
148.865369
 21
105.693072
 31
0.0
  0
LINE
  5
2A1
  8
0
 62
     0
 10
150.038624
 20
104.20162
 30
0.0
 11
148.640703
 21
105.59954
 31
0.0
  0
LINE
  5
2A2
  8
0
 62
     0
 10
149.980882
 20
103.941163
 30
0.0
 11
148.582961
 21
105.339084
 31
0.0
  0
LINE
  5
2A3
  8
0
 62
     0
 10
149.92314
 20
103.680707
 30
0.0
 11
148.525219
 21
105.078628
 31
0.0
  0
LINE
  5
2A4
  8
0
 62
     0
 10
149.865398
 20
103.420251
 30
0.0
 11
148.467478
 21
104.818171
 31
0.0
  0
LINE
  5
2A5
  8
0
 62
     0
 10
149.758499
 20
103.208952
 30
0.0
 11
148.409736
 21
104.557715
 31
0.0
  0
LINE
  5
2A6
  8
0
 62
     0
 10
149.440301
 20
103.208952
 30
0.0
 11
148.351994
 21
104.297259
 31
0.0
  0
LINE
  5
2A7
  8
0
 62
     0
 10
149.122103
 20
103.208952
 30
0.0
 11
148.294252
 21
104.036803
 31
0.0
  0
LINE
  5
2A8
  8
0
 62
     0
 10
148.803905
 20
103.208952
 30
0.0
 11
148.236511
 21
103.776346
 31
0.0
  0
LINE
  5
2A9
  8
0
 62
     0
 10
148.485707
 20
103.208952
 30
0.0
 11
148.178769
 21
103.51589
 31
0.0
  0
LINE
  5
2AA
  8
0
 62
     0
 10
148.167508
 20
103.208952
 30
0.0
 11
148.121027
 21
103.255434
 31
0.0
  0
LINE
  5
2AB
  8
0
 62
     0
 10
175.214343
 20
103.208952
 30
0.0
 11
174.622995
 21
103.8003
 31
0.0
  0
LINE
  5
2AC
  8
0
 62
     0
 10
173.235386
 20
105.187909
 30
0.0
 11
172.730223
 21
105.693072
 31
0.0
  0
LINE
  5
2AD
  8
0
 62
     0
 10
174.288055
 20
104.13524
 30
0.0
 11
173.998077
 21
104.425218
 31
0.0
  0
LINE
  5
2AE
  8
0
 62
     0
 10
175.532541
 20
103.208952
 30
0.0
 11
174.316275
 21
104.425218
 31
0.0
  0
LINE
  5
2AF
  8
0
 62
     0
 10
173.4884
 20
105.253094
 30
0.0
 11
173.048421
 21
105.693072
 31
0.0
  0
LINE
  5
2B0
  8
0
 62
     0
 10
175.850739
 20
103.208952
 30
0.0
 11
174.586541
 21
104.47315
 31
0.0
  0
LINE
  5
2B1
  8
0
 62
     0
 10
173.806598
 20
105.253094
 30
0.0
 11
173.366619
 21
105.693072
 31
0.0
  0
LINE
  5
2B2
  8
0
 62
     0
 10
176.168937
 20
103.208952
 30
0.0
 11
174.789565
 21
104.588325
 31
0.0
  0
LINE
  5
2B3
  8
0
 62
     0
 10
174.124796
 20
105.253094
 30
0.0
 11
173.684817
 21
105.693072
 31
0.0
  0
LINE
  5
2B4
  8
0
 62
     0
 10
176.311422
 20
103.384665
 30
0.0
 11
174.927684
 21
104.768404
 31
0.0
  0
LINE
  5
2B5
  8
0
 62
     0
 10
174.442994
 20
105.253094
 30
0.0
 11
174.003015
 21
105.693072
 31
0.0
  0
LINE
  5
2B6
  8
0
 62
     0
 10
176.323639
 20
103.690647
 30
0.0
 11
174.914671
 21
105.099614
 31
0.0
  0
LINE
  5
2B7
  8
0
 62
     0
 10
174.791615
 20
105.22267
 30
0.0
 11
174.321213
 21
105.693072
 31
0.0
  0
LINE
  5
2B8
  8
0
 62
     0
 10
176.344435
 20
103.988048
 30
0.0
 11
174.639411
 21
105.693072
 31
0.0
  0
LINE
  5
2B9
  8
0
 62
     0
 10
177.441729
 20
103.208952
 30
0.0
 11
177.197922
 21
103.452759
 31
0.0
  0
LINE
  5
2BA
  8
0
 62
     0
 10
176.286615
 20
104.364066
 30
0.0
 11
174.95761
 21
105.693072
 31
0.0
  0
LINE
  5
2BB
  8
0
 62
     0
 10
177.759927
 20
103.208952
 30
0.0
 11
177.255664
 21
103.713216
 31
0.0
  0
LINE
  5
2BC
  8
0
 62
     0
 10
176.4817
 20
104.487179
 30
0.0
 11
175.275808
 21
105.693072
 31
0.0
  0
LINE
  5
2BD
  8
0
 62
     0
 10
178.078125
 20
103.208952
 30
0.0
 11
177.313406
 21
103.973672
 31
0.0
  0
LINE
  5
2BE
  8
0
 62
     0
 10
176.650286
 20
104.636791
 30
0.0
 11
175.594006
 21
105.693072
 31
0.0
  0
LINE
  5
2BF
  8
0
 62
     0
 10
178.396323
 20
103.208952
 30
0.0
 11
177.371148
 21
104.234128
 31
0.0
  0
LINE
  5
2C0
  8
0
 62
     0
 10
176.785346
 20
104.81993
 30
0.0
 11
175.912204
 21
105.693072
 31
0.0
  0
LINE
  5
2C1
  8
0
 62
     0
 10
178.714521
 20
103.208952
 30
0.0
 11
177.428889
 21
104.494584
 31
0.0
  0
LINE
  5
2C2
  8
0
 62
     0
 10
176.870902
 20
105.052571
 30
0.0
 11
176.255428
 21
105.668046
 31
0.0
  0
LINE
  5
2C3
  8
0
 62
     0
 10
178.884552
 20
103.35712
 30
0.0
 11
177.486631
 21
104.755041
 31
0.0
  0
LINE
  5
2C4
  8
0
 62
     0
 10
178.942294
 20
103.617576
 30
0.0
 11
177.544373
 21
105.015497
 31
0.0
  0
LINE
  5
2C5
  8
0
 62
     0
 10
179.000035
 20
103.878033
 30
0.0
 11
177.602115
 21
105.275953
 31
0.0
  0
LINE
  5
2C6
  8
0
 62
     0
 10
179.987314
 20
103.208952
 30
0.0
 11
179.883821
 21
103.312445
 31
0.0
  0
LINE
  5
2C7
  8
0
 62
     0
 10
179.057777
 20
104.138489
 30
0.0
 11
177.659856
 21
105.53641
 31
0.0
  0
LINE
  5
2C8
  8
0
 62
     0
 10
180.305512
 20
103.208952
 30
0.0
 11
179.941563
 21
103.572901
 31
0.0
  0
LINE
  5
2C9
  8
0
 62
     0
 10
179.115519
 20
104.398945
 30
0.0
 11
177.821392
 21
105.693072
 31
0.0
  0
LINE
  5
2CA
  8
0
 62
     0
 10
180.62371
 20
103.208952
 30
0.0
 11
179.999305
 21
103.833357
 31
0.0
  0
LINE
  5
2CB
  8
0
 62
     0
 10
179.173261
 20
104.659401
 30
0.0
 11
178.13959
 21
105.693072
 31
0.0
  0
LINE
  5
2CC
  8
0
 62
     0
 10
180.941908
 20
103.208952
 30
0.0
 11
180.057046
 21
104.093814
 31
0.0
  0
LINE
  5
2CD
  8
0
 62
     0
 10
179.231002
 20
104.919858
 30
0.0
 11
178.457788
 21
105.693072
 31
0.0
  0
LINE
  5
2CE
  8
0
 62
     0
 10
181.260106
 20
103.208952
 30
0.0
 11
180.114788
 21
104.35427
 31
0.0
  0
LINE
  5
2CF
  8
0
 62
     0
 10
179.288744
 20
105.180314
 30
0.0
 11
178.775986
 21
105.693072
 31
0.0
  0
LINE
  5
2D0
  8
0
 62
     0
 10
181.506909
 20
103.280347
 30
0.0
 11
180.17253
 21
104.614726
 31
0.0
  0
LINE
  5
2D1
  8
0
 62
     0
 10
179.346486
 20
105.44077
 30
0.0
 11
179.094184
 21
105.693072
 31
0.0
  0
LINE
  5
2D2
  8
0
 62
     0
 10
181.564651
 20
103.540804
 30
0.0
 11
180.230272
 21
104.875182
 31
0.0
  0
LINE
  5
2D3
  8
0
 62
     0
 10
181.622392
 20
103.80126
 30
0.0
 11
180.288014
 21
105.135639
 31
0.0
  0
LINE
  5
2D4
  8
0
 62
     0
 10
181.827275
 20
103.914576
 30
0.0
 11
180.345755
 21
105.396095
 31
0.0
  0
LINE
  5
2D5
  8
0
 62
     0
 10
182.050395
 20
104.009654
 30
0.0
 11
180.403497
 21
105.656551
 31
0.0
  0
LINE
  5
2D6
  8
0
 62
     0
 10
182.273514
 20
104.104732
 30
0.0
 11
180.685174
 21
105.693072
 31
0.0
  0
LINE
  5
2D7
  8
0
 62
     0
 10
183.487492
 20
103.208952
 30
0.0
 11
181.003372
 21
105.693072
 31
0.0
  0
LINE
  5
2D8
  8
0
 62
     0
 10
183.80569
 20
103.208952
 30
0.0
 11
182.070276
 21
104.944367
 31
0.0
  0
LINE
  5
2D9
  8
0
 62
     0
 10
181.911101
 20
105.103541
 30
0.0
 11
181.321571
 21
105.693072
 31
0.0
  0
LINE
  5
2DA
  8
0
 62
     0
 10
184.123888
 20
103.208952
 30
0.0
 11
182.293395
 21
105.039445
 31
0.0
  0
LINE
  5
2DB
  8
0
 62
     0
 10
181.968843
 20
105.363998
 30
0.0
 11
181.639769
 21
105.693072
 31
0.0
  0
LINE
  5
2DC
  8
0
 62
     0
 10
184.442086
 20
103.208952
 30
0.0
 11
182.516515
 21
105.134523
 31
0.0
  0
LINE
  5
2DD
  8
0
 62
     0
 10
182.026585
 20
105.624454
 30
0.0
 11
181.957967
 21
105.693072
 31
0.0
  0
LINE
  5
2DE
  8
0
 62
     0
 10
184.760284
 20
103.208952
 30
0.0
 11
182.739635
 21
105.229602
 31
0.0
  0
LINE
  5
2DF
  8
0
 62
     0
 10
185.078482
 20
103.208952
 30
0.0
 11
182.962755
 21
105.32468
 31
0.0
  0
LINE
  5
2E0
  8
0
 62
     0
 10
185.396681
 20
103.208952
 30
0.0
 11
183.185874
 21
105.419758
 31
0.0
  0
LINE
  5
2E1
  8
0
 62
     0
 10
184.058472
 20
104.865359
 30
0.0
 11
183.408994
 21
105.514837
 31
0.0
  0
LINE
  5
2E2
  8
0
 62
     0
 10
184.281592
 20
104.960437
 30
0.0
 11
183.632114
 21
105.609915
 31
0.0
  0
LINE
  5
2E3
  8
0
 62
     0
 10
184.504712
 20
105.055515
 30
0.0
 11
183.867155
 21
105.693072
 31
0.0
  0
LINE
  5
2E4
  8
0
 62
     0
 10
184.727831
 20
105.150593
 30
0.0
 11
184.185353
 21
105.693072
 31
0.0
  0
LINE
  5
2E5
  8
0
 62
     0
 10
184.950951
 20
105.245672
 30
0.0
 11
184.503551
 21
105.693072
 31
0.0
  0
LINE
  5
2E6
  8
0
 62
     0
 10
185.174071
 20
105.34075
 30
0.0
 11
184.821749
 21
105.693072
 31
0.0
  0
LINE
  5
2E7
  8
0
 62
     0
 10
185.397191
 20
105.435828
 30
0.0
 11
185.139947
 21
105.693072
 31
0.0
  0
LINE
  5
2E8
  8
0
 62
     0
 10
185.62031
 20
105.530907
 30
0.0
 11
185.458145
 21
105.693072
 31
0.0
  0
LINE
  5
2E9
  8
0
 62
     0
 10
185.84343
 20
105.625985
 30
0.0
 11
185.776343
 21
105.693072
 31
0.0
  0
LINE
  5
2EA
  8
0
 62
     0
 10
188.578661
 20
103.208952
 30
0.0
 11
188.513227
 21
103.274387
 31
0.0
  0
LINE
  5
2EB
  8
0
 62
     0
 10
188.896859
 20
103.208952
 30
0.0
 11
188.649597
 21
103.456214
 31
0.0
  0
LINE
  5
2EC
  8
0
 62
     0
 10
189.215057
 20
103.208952
 30
0.0
 11
188.785968
 21
103.638042
 31
0.0
  0
LINE
  5
2ED
  8
0
 62
     0
 10
189.533255
 20
103.208952
 30
0.0
 11
188.922338
 21
103.819869
 31
0.0
  0
LINE
  5
2EE
  8
0
 62
     0
 10
189.851453
 20
103.208952
 30
0.0
 11
189.058709
 21
104.001696
 31
0.0
  0
LINE
  5
2EF
  8
0
 62
     0
 10
190.152872
 20
103.225732
 30
0.0
 11
189.19508
 21
104.183524
 31
0.0
  0
LINE
  5
2F0
  8
0
 62
     0
 10
190.289242
 20
103.407559
 30
0.0
 11
189.33145
 21
104.365351
 31
0.0
  0
LINE
  5
2F1
  8
0
 62
     0
 10
190.425613
 20
103.589387
 30
0.0
 11
189.467821
 21
104.547179
 31
0.0
  0
LINE
  5
2F2
  8
0
 62
     0
 10
190.644214
 20
103.688984
 30
0.0
 11
189.604191
 21
104.729006
 31
0.0
  0
LINE
  5
2F3
  8
0
 62
     0
 10
190.962412
 20
103.688984
 30
0.0
 11
189.740562
 21
104.910834
 31
0.0
  0
LINE
  5
2F4
  8
0
 62
     0
 10
191.28061
 20
103.688984
 30
0.0
 11
190.907422
 21
104.062171
 31
0.0
  0
LINE
  5
2F5
  8
0
 62
     0
 10
190.834725
 20
104.134869
 30
0.0
 11
189.876933
 21
105.092661
 31
0.0
  0
LINE
  5
2F6
  8
0
 62
     0
 10
191.598808
 20
103.688984
 30
0.0
 11
191.22562
 21
104.062171
 31
0.0
  0
LINE
  5
2F7
  8
0
 62
     0
 10
190.971095
 20
104.316696
 30
0.0
 11
190.013303
 21
105.274489
 31
0.0
  0
LINE
  5
2F8
  8
0
 62
     0
 10
192.397038
 20
103.208952
 30
0.0
 11
192.329041
 21
103.276949
 31
0.0
  0
LINE
  5
2F9
  8
0
 62
     0
 10
191.107466
 20
104.498524
 30
0.0
 11
190.149674
 21
105.456316
 31
0.0
  0
LINE
  5
2FA
  8
0
 62
     0
 10
191.917006
 20
103.688984
 30
0.0
 11
191.543818
 21
104.062171
 31
0.0
  0
LINE
  5
2FB
  8
0
 62
     0
 10
192.715236
 20
103.208952
 30
0.0
 11
191.862016
 21
104.062171
 31
0.0
  0
LINE
  5
2FC
  8
0
 62
     0
 10
191.243837
 20
104.680351
 30
0.0
 11
190.286044
 21
105.638144
 31
0.0
  0
LINE
  5
2FD
  8
0
 62
     0
 10
193.033434
 20
103.208952
 30
0.0
 11
192.116909
 21
104.125477
 31
0.0
  0
LINE
  5
2FE
  8
0
 62
     0
 10
191.380207
 20
104.862179
 30
0.0
 11
190.548585
 21
105.693801
 31
0.0
  0
LINE
  5
2FF
  8
0
 62
     0
 10
193.351632
 20
103.208952
 30
0.0
 11
192.010843
 21
104.549741
 31
0.0
  0
LINE
  5
300
  8
0
 62
     0
 10
191.516578
 20
105.044006
 30
0.0
 11
190.866783
 21
105.693801
 31
0.0
  0
LINE
  5
301
  8
0
 62
     0
 10
193.66983
 20
103.208952
 30
0.0
 11
191.904777
 21
104.974005
 31
0.0
  0
LINE
  5
302
  8
0
 62
     0
 10
191.652948
 20
105.225834
 30
0.0
 11
191.184981
 21
105.693801
 31
0.0
  0
LINE
  5
303
  8
0
 62
     0
 10
193.875595
 20
103.321385
 30
0.0
 11
191.798711
 21
105.398269
 31
0.0
  0
LINE
  5
304
  8
0
 62
     0
 10
191.789319
 20
105.407661
 30
0.0
 11
191.503179
 21
105.693801
 31
0.0
  0
LINE
  5
305
  8
0
 62
     0
 10
193.769529
 20
103.745649
 30
0.0
 11
191.821377
 21
105.693801
 31
0.0
  0
LINE
  5
306
  8
0
 62
     0
 10
193.663463
 20
104.169913
 30
0.0
 11
192.139576
 21
105.693801
 31
0.0
  0
LINE
  5
307
  8
0
 62
     0
 10
194.732492
 20
103.419082
 30
0.0
 11
194.673972
 21
103.477602
 31
0.0
  0
LINE
  5
308
  8
0
 62
     0
 10
193.557397
 20
104.594177
 30
0.0
 11
192.457774
 21
105.693801
 31
0.0
  0
LINE
  5
309
  8
0
 62
     0
 10
195.149298
 20
103.320474
 30
0.0
 11
194.635225
 21
103.834548
 31
0.0
  0
LINE
  5
30A
  8
0
 62
     0
 10
193.451331
 20
105.018441
 30
0.0
 11
192.775972
 21
105.693801
 31
0.0
  0
LINE
  5
30B
  8
0
 62
     0
 10
195.509282
 20
103.278689
 30
0.0
 11
194.682922
 21
104.105049
 31
0.0
  0
LINE
  5
30C
  8
0
 62
     0
 10
193.345265
 20
105.442705
 30
0.0
 11
193.09417
 21
105.693801
 31
0.0
  0
LINE
  5
30D
  8
0
 62
     0
 10
195.858857
 20
103.247312
 30
0.0
 11
194.730618
 21
104.37555
 31
0.0
  0
LINE
  5
30E
  8
0
 62
     0
 10
196.19894
 20
103.225426
 30
0.0
 11
194.778315
 21
104.646052
 31
0.0
  0
LINE
  5
30F
  8
0
 62
     0
 10
196.530306
 20
103.212258
 30
0.0
 11
194.826012
 21
104.916553
 31
0.0
  0
LINE
  5
310
  8
0
 62
     0
 10
196.853616
 20
103.207147
 30
0.0
 11
194.873708
 21
105.187054
 31
0.0
  0
LINE
  5
311
  8
0
 62
     0
 10
197.169437
 20
103.209523
 30
0.0
 11
196.717543
 21
103.661418
 31
0.0
  0
LINE
  5
312
  8
0
 62
     0
 10
196.241642
 20
104.137319
 30
0.0
 11
194.970499
 21
105.408462
 31
0.0
  0
LINE
  5
313
  8
0
 62
     0
 10
197.478265
 20
103.218894
 30
0.0
 11
197.047649
 21
103.64951
 31
0.0
  0
LINE
  5
314
  8
0
 62
     0
 10
196.289339
 20
104.40782
 30
0.0
 11
195.193391
 21
105.503767
 31
0.0
  0
LINE
  5
315
  8
0
 62
     0
 10
197.78053
 20
103.234826
 30
0.0
 11
197.349867
 21
103.66549
 31
0.0
  0
LINE
  5
316
  8
0
 62
     0
 10
196.337035
 20
104.678321
 30
0.0
 11
195.468172
 21
105.547185
 31
0.0
  0
LINE
  5
317
  8
0
 62
     0
 10
198.124603
 20
103.208952
 30
0.0
 11
197.630009
 21
103.703546
 31
0.0
  0
LINE
  5
318
  8
0
 62
     0
 10
196.384732
 20
104.948823
 30
0.0
 11
195.748005
 21
105.58555
 31
0.0
  0
LINE
  5
319
  8
0
 62
     0
 10
198.442801
 20
103.208952
 30
0.0
 11
197.855526
 21
103.796227
 31
0.0
  0
LINE
  5
31A
  8
0
 62
     0
 10
196.502999
 20
105.148753
 30
0.0
 11
196.033135
 21
105.618617
 31
0.0
  0
LINE
  5
31B
  8
0
 62
     0
 10
197.573104
 20
104.078649
 30
0.0
 11
197.380196
 21
104.271557
 31
0.0
  0
LINE
  5
31C
  8
0
 62
     0
 10
198.760999
 20
103.208952
 30
0.0
 11
197.955988
 21
104.013963
 31
0.0
  0
LINE
  5
31D
  8
0
 62
     0
 10
196.745041
 20
105.22491
 30
0.0
 11
196.323833
 21
105.646118
 31
0.0
  0
LINE
  5
31E
  8
0
 62
     0
 10
197.891302
 20
104.078649
 30
0.0
 11
197.668574
 21
104.301376
 31
0.0
  0
LINE
  5
31F
  8
0
 62
     0
 10
199.079197
 20
103.208952
 30
0.0
 11
197.986772
 21
104.301376
 31
0.0
  0
LINE
  5
320
  8
0
 62
     0
 10
197.034275
 20
105.253874
 30
0.0
 11
196.620401
 21
105.667748
 31
0.0
  0
LINE
  5
321
  8
0
 62
     0
 10
199.371618
 20
103.234729
 30
0.0
 11
198.304971
 21
104.301376
 31
0.0
  0
LINE
  5
322
  8
0
 62
     0
 10
197.347781
 20
105.258566
 30
0.0
 11
196.923178
 21
105.683169
 31
0.0
  0
LINE
  5
323
  8
0
 62
     0
 10
199.419315
 20
103.50523
 30
0.0
 11
198.623169
 21
104.301376
 31
0.0
  0
LINE
  5
324
  8
0
 62
     0
 10
197.692832
 20
105.231713
 30
0.0
 11
197.232551
 21
105.691994
 31
0.0
  0
LINE
  5
325
  8
0
 62
     0
 10
199.467011
 20
103.775732
 30
0.0
 11
198.941367
 21
104.301376
 31
0.0
  0
LINE
  5
326
  8
0
 62
     0
 10
198.27875
 20
104.963993
 30
0.0
 11
197.548954
 21
105.693789
 31
0.0
  0
LINE
  5
327
  8
0
 62
     0
 10
199.514708
 20
104.046233
 30
0.0
 11
199.259565
 21
104.301376
 31
0.0
  0
LINE
  5
328
  8
0
 62
     0
 10
198.596948
 20
104.963993
 30
0.0
 11
197.872889
 21
105.688052
 31
0.0
  0
LINE
  5
329
  8
0
 62
     0
 10
198.915146
 20
104.963993
 30
0.0
 11
198.204929
 21
105.67421
 31
0.0
  0
LINE
  5
32A
  8
0
 62
     0
 10
199.233344
 20
104.963993
 30
0.0
 11
198.545745
 21
105.651593
 31
0.0
  0
LINE
  5
32B
  8
0
 62
     0
 10
199.551542
 20
104.963993
 30
0.0
 11
198.896119
 21
105.619416
 31
0.0
  0
LINE
  5
32C
  8
0
 62
     0
 10
199.705495
 20
105.128239
 30
0.0
 11
199.256984
 21
105.57675
 31
0.0
  0
ENDBLK
  5
32E
  8
0
  0
ENDSEC
  0
SECTION
  2
ENTITIES
  0
TEXT
  8
29
  40
3.5
  5
832
  72
0
  71
0
 10
104.996
 20
143.576
 30
0.000000
  1
Frontplattenausschnitt
  7
ASHADE
  0
TEXT
  8
29
  40
3.5
  5
833
  72
0
  71
0
 10
104.996
 20
139.026
 30
0.000000
  1
Panel cut out
  7
ASHADE
  0
POLYLINE
  5
21
  8
RAHMEN
 66
     1
 10
0.0
 20
0.0
 30
0.0
 70
     1
  0
VERTEX
  5
6C1
  8
RAHMEN
 10
205.0
 20
5.0
 30
0.0
  0
VERTEX
  5
6C2
  8
RAHMEN
 10
205.0
 20
292.0
 30
0.0
  0
VERTEX
  5
6C3
  8
RAHMEN
 10
5.0
 20
292.0
 30
0.0
  0
VERTEX
  5
6C4
  8
RAHMEN
 10
5.0
 20
5.0
 30
0.0
  0
SEQEND
  5
6C5
  8
RAHMEN
  0
INSERT
  5
23
  8
05
 66
     1
  2
ZKOPF
 10
205.0
 20
5.0
 30
0.0
  0
ATTRIB
  5
24
  8
0
 62
     4
 10
191.440476
 20
42.0
 30
0.0
 40
2.5
  1
Lehner
  7
SCRIPTS
 72
     1
 11
196.5
 21
42.0
 31
0.0
  2
NAME
 70
     0
  0
ATTRIB
  5
26
  8
0
 62
     4
 10
175.541667
 20
42.0
 30
0.0
 40
2.5
  1
07.07.00
 41
0.7
 51
15.0
 72
     1
 11
180.5
 21
42.0
 31
0.0
  2
DATE
 70
     0
  0
ATTRIB
  5
27
  8
0
 62
     4
 10
124.5
 20
41.0
 30
0.0
 40
2.5
  1

 41
0.7
 51
15.0
 72
     1
 11
124.5
 21
41.0
 31
0.0
  2
WERKSTOFF
 70
     0
  0
ATTRIB
  5
28
  8
0
 62
     2
 10
113.0
 20
17.5
 30
0.0
 40
5.0
  1

 41
0.7
 51
15.0
 72
     1
 11
113.0
 21
17.5
 31
0.0
  2
BENENNUNG
 70
     0
  0
ATTRIB
  5
29
  8
0
 62
     3
 10
108.20121
 20
26.082191
 30
0.0
 40
3.5
  1
NBB75FI
 41
0.7
 51
15.0
 72
     1
 11
115.959543
 21
26.082191
 31
0.0
  2
TEIL
 70
     0
  0
ATTRIB
  5
2A
  8
0
 62
     3
 10
170.974781
 20
6.976541
 30
0.0
 40
3.5
  1
3102 ST 2505
 41
0.7
 51
15.0
 72
     1
 11
184.449781
 21
6.976541
 31
0.0
  2
NUMMER
 70
     0
  0
ATTRIB
  5
2B
  8
0
 62
     2
 10
141.517328
 20
39.656056
 30
0.0
 40
5.0
  1
2:1
 41
0.7
 51
15.0
 72
     1
 11
144.433995
 21
39.656056
 31
0.0
  2
MASS
 70
     0
  0
ATTRIB
  5
2C
  8
0
 62
     3
 10
140.844299
 20
33.210451
 30
0.0
 40
3.5
  1
(A4)
 41
0.7
 51
15.0
 72
     1
 11
144.519299
 21
33.210451
 31
0.0
  2
MASS2
 70
     0
  0
ATTRIB
  5
2D
  8
0
 62
     4
 10
124.0
 20
34.0
 30
0.0
 40
2.5
  1

 41
0.7
 51
15.0
 72
     1
 11
124.0
 21
34.0
 31
0.0
  2
TEIL
 70
     0
  0
ATTRIB
  5
2E
  8
0
 62
     3
 10
97.288548
 20
64.004319
 30
0.0
 40
3.5
  1

 41
0.7
 51
15.0
  2
TOL
 70
     0
  0
ATTRIB
  5
2F
  8
0
 62
     3
 10
97.288548
 20
59.004319
 30
0.0
 40
3.5
  1

 41
0.7
 51
15.0
  2
RADIEN
 70
     0
  0
ATTRIB
  5
30
  8
0
 62
     3
 10
97.288548
 20
54.004319
 30
0.0
 40
3.5
  1

 41
0.7
 51
15.0
  2
FACETTE
 70
     0
  0
ATTRIB
  5
31
  8
0
 62
     4
 10
7.813733
 20
12.0
 30
0.0
 40
2.5
  1

 41
0.7
 51
15.0
  2
INDEX1
 70
     0
  0
ATTRIB
  5
32
  8
0
 62
     4
 10
14.651257
 20
12.0
 30
0.0
 40
2.5
  1

 41
0.7
 51
15.0
  2
A1
 70
     0
  0
ATTRIB
  5
33
  8
0
 62
     4
 10
47.651257
 20
12.0
 30
0.0
 40
2.5
  1

 41
0.7
 51
15.0
  2
DATUM1
 70
     0
  0
ATTRIB
  5
34
  8
0
 62
     4
 10
60.53501
 20
12.0
 30
0.0
 40
2.5
  1

 41
0.7
 51
15.0
  2
NAME1
 70
     0
  0
ATTRIB
  5
35
  8
0
 62
     4
 10
7.813733
 20
17.0
 30
0.0
 40
2.5
  1

 41
0.7
 51
15.0
  2
INDEX2
 70
     0
  0
ATTRIB
  5
36
  8
0
 62
     4
 10
14.651257
 20
17.0
 30
0.0
 40
2.5
  1

 41
0.7
 51
15.0
  2
A2
 70
     0
  0
ATTRIB
  5
37
  8
0
 62
     4
 10
47.651257
 20
17.0
 30
0.0
 40
2.5
  1

 41
0.7
 51
15.0
  2
DATUM2
 70
     0
  0
ATTRIB
  5
38
  8
0
 62
     4
 10
60.53501
 20
17.0
 30
0.0
 40
2.5
  1

 41
0.7
 51
15.0
  2
NAME2
 70
     0
  0
ATTRIB
  5
39
  8
0
 62
     4
 10
7.813733
 20
22.0
 30
0.0
 40
2.5
  1

 41
0.7
 51
15.0
  2
INDEX3
 70
     0
  0
ATTRIB
  5
3A
  8
0
 62
     4
 10
14.651257
 20
22.0
 30
0.0
 40
2.5
  1

 41
0.7
 51
15.0
  2
A3
 70
     0
  0
ATTRIB
  5
3B
  8
0
 62
     4
 10
47.651257
 20
22.0
 30
0.0
 40
2.5
  1

 41
0.7
 51
15.0
  2
DATUM3
 70
     0
  0
ATTRIB
  5
3C
  8
0
 62
     4
 10
60.53501
 20
22.0
 30
0.0
 40
2.5
  1

 41
0.7
 51
15.0
  2
NAME3
 70
     0
  0
ATTRIB
  5
3D
  8
0
 62
     4
 10
7.813733
 20
27.0
 30
0.0
 40
2.5
  1

 41
0.7
 51
15.0
  2
INDEX4
 70
     0
  0
ATTRIB
  5
3E
  8
0
 62
     4
 10
14.651257
 20
27.0
 30
0.0
 40
2.5
  1

 41
0.7
 51
15.0
  2
A4
 70
     0
  0
ATTRIB
  5
3F
  8
0
 62
     4
 10
47.651257
 20
27.0
 30
0.0
 40
2.5
  1

 41
0.7
 51
15.0
  2
DATUM4
 70
     0
  0
ATTRIB
  5
40
  8
0
 62
     4
 10
60.53501
 20
27.0
 30
0.0
 40
2.5
  1

 41
0.7
 51
15.0
  2
NAME4
 70
     0
  0
ATTRIB
  5
41
  8
0
 62
     4
 10
7.813733
 20
32.0
 30
0.0
 40
2.5
  1

 41
0.7
 51
15.0
  2
INDEX5
 70
     0
  0
ATTRIB
  5
42
  8
0
 62
     4
 10
14.651257
 20
32.0
 30
0.0
 40
2.5
  1

 41
0.7
 51
15.0
  2
A5
 70
     0
  0
ATTRIB
  5
43
  8
0
 62
     4
 10
47.651257
 20
32.0
 30
0.0
 40
2.5
  1

 41
0.7
 51
15.0
  2
DATUM5
 70
     0
  0
ATTRIB
  5
44
  8
0
 62
     4
 10
60.53501
 20
32.0
 30
0.0
 40
2.5
  1

 41
0.7
 51
15.0
  2
NAME5
 70
     0
  0
ATTRIB
  5
45
  8
0
 62
     4
 10
7.813733
 20
37.0
 30
0.0
 40
2.5
  1

 41
0.7
 51
15.0
  2
INDEX6
 70
     0
  0
ATTRIB
  5
46
  8
0
 62
     4
 10
14.651257
 20
37.0
 30
0.0
 40
2.5
  1

 41
0.7
 51
15.0
  2
A6
 70
     0
  0
ATTRIB
  5
47
  8
0
 62
     4
 10
47.651257
 20
37.0
 30
0.0
 40
2.5
  1

 41
0.7
 51
15.0
  2
DATUM6
 70
     0
  0
ATTRIB
  5
48
  8
0
 62
     4
 10
60.53501
 20
37.0
 30
0.0
 40
2.5
  1

 41
0.7
 51
15.0
  2
NAME6
 70
     0
  0
ATTRIB
  5
49
  8
0
 62
     4
 10
7.813733
 20
42.0
 30
0.0
 40
2.5
  1

 41
0.7
 51
15.0
  2
INDEX7
 70
     0
  0
ATTRIB
  5
4A
  8
0
 62
     4
 10
14.651257
 20
42.0
 30
0.0
 40
2.5
  1

 41
0.7
 51
15.0
  2
A7
 70
     0
  0
ATTRIB
  5
4B
  8
0
 62
     4
 10
47.651257
 20
42.0
 30
0.0
 40
2.5
  1

 41
0.7
 51
15.0
  2
DATUM7
 70
     0
  0
ATTRIB
  5
4C
  8
0
 62
     4
 10
60.53501
 20
42.0
 30
0.0
 40
2.5
  1

 41
0.7
 51
15.0
  2
NAME7
 70
     0
  0
ATTRIB
  5
4D
  8
0
 62
     4
 10
7.813733
 20
47.0
 30
0.0
 40
2.5
  1

 41
0.7
 51
15.0
  2
INDEX8
 70
     0
  0
ATTRIB
  5
4E
  8
0
 62
     4
 10
14.651257
 20
47.0
 30
0.0
 40
2.5
  1

 41
0.7
 51
15.0
  2
A8
 70
     0
  0
ATTRIB
  5
4F
  8
0
 62
     4
 10
47.651257
 20
47.0
 30
0.0
 40
2.5
  1

 41
0.7
 51
15.0
  2
DATUM8
 70
     0
  0
ATTRIB
  5
50
  8
0
 62
     4
 10
60.53501
 20
47.0
 30
0.0
 40
2.5
  1

 41
0.7
 51
15.0
  2
NAME8
 70
     0
  0
SEQEND
  5
331
  8
05
  0
TEXT
  8
0
  40
3.5
  5
834
  72
0
  71
0
 10
86.3124
 20
17.6310
 30
0.000000
  1
Feed Through Isolated
  7
ASHADE
  0
LINE
  5
334
  8
07
 10
114.814575
 20
99.91481
 30
0.0
 11
114.814575
 21
108.297292
 31
0.0
  0
LINE
  5
336
  8
BEM1
 10
90.80803
 20
112.996051
 30
0.0
 11
90.80803
 21
95.216051
 31
0.0
  0
ARC
  5
337
  8
07
 10
106.974575
 20
104.106051
 30
0.0
 40
8.89
 50
28.128828
 51
211.972878
  0
LINE
  5
338
  8
MITTE
 10
106.974575
 20
115.483851
 30
0.0
 11
106.974575
 21
92.728251
 31
0.0
  0
TEXT
  5
33B
  8
035
 62
     3
 10
89.322789
 20
97.985663
 30
0.0
 40
3.0
  1
%%C12.7
 50
90.0
 41
0.7
 51
15.0
  0
ARC
  5
33C
  8
07
 10
106.974575
 20
104.106051
 30
0.0
 40
8.89
 50
211.972878
 51
331.871172
  0
LINE
  5
33D
  8
BEM1
 10
103.178165
 20
95.216051
 30
0.0
 11
89.96803
 21
95.216051
 31
0.0
  0
SOLID
  5
33E
  8
BEM1
 10
90.31803
 20
98.156051
 30
0.0
 11
91.29803
 21
98.156051
 31
0.0
 12
90.80803
 22
95.216051
 32
0.0
 13
90.80803
 23
95.216051
 33
0.0
  0
LINE
  5
33F
  8
BEM1
  6
BYBLOCK
 10
101.957834
 20
122.859415
 30
0.0
 11
131.692327
 21
122.859415
 31
0.0
  0
LINE
  5
340
  8
MITTE
 10
95.596775
 20
104.106051
 30
0.0
 11
118.352375
 21
104.106051
 31
0.0
  0
LINE
  5
341
  8
BEM1
 10
102.873236
 20
112.996051
 30
0.0
 11
89.96803
 21
112.996051
 31
0.0
  0
TEXT
  5
342
  8
035
 62
     4
 10
87.040467
 20
107.393175
 30
0.0
 40
2.0
  1
+0.1
 50
90.0
 41
0.7
 51
15.0
  0
TEXT
  5
343
  8
035
 62
     4
 10
89.694241
 20
107.840707
 30
0.0
 40
2.0
  1
0
 50
90.0
 41
0.7
 51
15.0
  0
SOLID
  5
344
  8
BEM1
 10
91.29803
 20
110.056051
 30
0.0
 11
90.31803
 21
110.056051
 31
0.0
 12
90.80803
 22
112.996051
 32
0.0
 13
90.80803
 23
112.996051
 33
0.0
  0
LINE
  5
345
  8
BEM1
  6
BYBLOCK
 10
106.974575
 20
116.496589
 30
0.0
 11
106.974575
 21
123.699415
 31
0.0
  0
SOLID
  5
346
  8
BEM1
  6
BYBLOCK
 10
104.034575
 20
122.369415
 30
0.0
 11
104.034575
 21
123.349415
 31
0.0
 12
106.974575
 22
122.859415
 32
0.0
 13
106.974575
 23
122.859415
 33
0.0
  0
POINT
  5
347
  8
BEM1
  6
BYBLOCK
 10
106.974575
 20
122.859415
 30
0.0
  0
TEXT
  5
348
  8
BEM1
 62
     4
 10
126.200409
 20
123.940751
 30
0.0
 40
2.0
  1
-0.05
 50
0.0
 41
0.75
 51
15.0
  0
TEXT
  5
349
  8
BEM1
 62
     3
 10
119.692547
 20
124.040751
 30
0.0
 40
3.0
  1
5.6
 50
0.0
 41
0.7
 51
15.0
  0
LINE
  5
34A
  8
BEM1
  6
BYBLOCK
 10
114.814575
 20
110.306366
 30
0.0
 11
114.814575
 21
123.699415
 31
0.0
  0
POINT
  5
34B
  8
07
  6
BYBLOCK
 10
113.515004
 20
110.127255
 30
0.0
  0
SOLID
  5
34C
  8
BEM1
  6
BYBLOCK
 10
117.754575
 20
122.369415
 30
0.0
 11
117.754575
 21
123.349415
 31
0.0
 12
114.814575
 22
122.859415
 32
0.0
 13
114.814575
 23
122.859415
 33
0.0
  0
TEXT
  5
34D
  8
BEM1
 62
     4
 10
126.908351
 20
126.948295
 30
0.0
 40
2.0
  1
+0.05
 50
0.0
 41
0.75
 51
15.0
  0
LINE
  5
34E
  8
MITTE
 10
52.445551
 20
191.556479
 30
0.0
 11
76.937599
 21
191.556479
 31
0.0
  0
LINE
  5
34F
  8
05
 10
57.759594
 20
187.555149
 30
0.0
 11
57.759594
 21
195.412873
 31
0.0
  0
LINE
  5
350
  8
05
 10
57.759594
 20
195.412873
 30
0.0
 11
57.759594
 21
187.555149
 31
0.0
  0
LINE
  5
351
  8
MITTE
 10
64.691575
 20
206.44544
 30
0.0
 11
64.691575
 21
178.061879
 31
0.0
  0
LINE
  5
352
  8
05
 10
53.257379
 20
197.379786
 30
0.0
 11
53.257379
 21
185.733172
 31
0.0
  0
LINE
  5
353
  8
05
 10
76.125771
 20
185.733172
 30
0.0
 11
76.125771
 21
197.379786
 31
0.0
  0
ARC
  5
354
  8
05
 10
64.691575
 20
191.556479
 30
0.0
 40
6.903396
 50
90.0
 51
270.0
  0
ARC
  5
355
  8
05
 10
64.691575
 20
191.556479
 30
0.0
 40
6.903396
 50
270.0
 51
90.0
  0
ARC
  5
356
  8
05
 10
64.691575
 20
191.556479
 30
0.0
 40
5.98866
 50
90.0
 51
270.0
  0
ARC
  5
357
  8
05
 10
64.691575
 20
191.556479
 30
0.0
 40
5.98866
 50
270.0
 51
90.0
  0
LINE
  5
358
  8
05
 10
71.623556
 20
195.55781
 30
0.0
 11
71.623548
 21
187.555135
 31
0.0
  0
LINE
  5
359
  8
05
 10
71.623556
 20
195.55781
 30
0.0
 11
71.623548
 21
187.555135
 31
0.0
  0
LINE
  5
35A
  8
05
 10
53.931345
 20
184.565829
 30
0.0
 11
64.017609
 21
178.742522
 31
0.0
  0
ARC
  5
35B
  8
05
 10
64.691575
 20
191.556479
 30
0.0
 40
8.003937
 50
209.994726
 51
259.695316
  0
ARC
  5
35C
  8
05
 10
53.543234
 20
185.733172
 30
0.0
 40
0.285855
 50
180.0
 51
207.580199
  0
ARC
  5
35D
  8
05
 10
54.074273
 20
184.813386
 30
0.0
 40
0.285855
 50
212.419801
 51
240.0
  0
LINE
  5
35E
  8
05
 10
53.83297
 20
184.660134
 30
0.0
 11
53.289863
 21
185.600824
 31
0.0
  0
LINE
  5
35F
  8
05
 10
65.365541
 20
178.742522
 30
0.0
 11
75.451805
 21
184.565829
 31
0.0
  0
ARC
  5
360
  8
05
 10
64.691575
 20
191.556479
 30
0.0
 40
8.003937
 50
280.304682
 51
330.005156
  0
LINE
  5
361
  8
05
 10
65.234683
 20
178.704479
 30
0.0
 11
64.148467
 21
178.704479
 31
0.0
  0
ARC
  5
362
  8
05
 10
64.160536
 20
178.990079
 30
0.0
 40
0.285855
 50
240.0
 51
267.580199
  0
ARC
  5
363
  8
05
 10
65.222614
 20
178.990079
 30
0.0
 40
0.285855
 50
272.419801
 51
300.0
  0
LINE
  5
364
  8
05
 10
64.689084
 20
183.681642
 30
0.0
 11
66.118358
 21
183.681642
 31
0.0
  0
LINE
  5
365
  8
05
 10
63.262301
 20
184.819747
 30
0.0
 11
63.262301
 21
183.69547
 31
0.0
  0
LINE
  5
366
  8
05
 10
64.689084
 20
183.681642
 30
0.0
 11
63.25981
 21
183.681642
 31
0.0
  0
LINE
  5
367
  8
05
 10
66.12085
 20
184.819748
 30
0.0
 11
66.12085
 21
183.69547
 31
0.0
  0
ARC
  5
368
  8
035
 10
64.691575
 20
191.556479
 30
0.0
 40
1.529324
 50
188.058662
 51
351.941338
  0
ARC
  5
369
  8
035
 10
64.691575
 20
191.556479
 30
0.0
 40
1.529324
 50
8.058662
 51
171.941338
  0
ARC
  5
36A
  8
035
 10
64.691575
 20
191.556479
 30
0.0
 40
1.000492
 50
12.373625
 51
90.0
  0
ARC
  5
36B
  8
035
 10
64.691575
 20
191.556479
 30
0.0
 40
1.000492
 50
270.0
 51
347.626375
  0
ARC
  5
36C
  8
035
 10
64.691575
 20
191.556479
 30
0.0
 40
1.000492
 50
192.373625
 51
270.0
  0
LINE
  5
36D
  8
010
 10
63.177353
 20
191.342088
 30
0.0
 11
63.466728
 21
191.342088
 31
0.0
  0
LINE
  5
36F
  8
010
 10
63.466728
 20
191.77087
 30
0.0
 11
63.177353
 21
191.77087
 31
0.0
  0
LINE
  5
370
  8
010
 10
63.568434
 20
191.342088
 30
0.0
 11
63.466728
 21
191.342088
 31
0.0
  0
LINE
  5
371
  8
010
 10
63.568434
 20
191.77087
 30
0.0
 11
63.466728
 21
191.77087
 31
0.0
  0
ARC
  5
372
  8
025
 10
64.691575
 20
191.556479
 30
0.0
 40
1.529324
 50
188.058662
 51
200.430993
  0
LINE
  5
374
  8
010
 10
63.714323
 20
191.77087
 30
0.0
 11
63.568434
 21
191.77087
 31
0.0
  0
LINE
  5
375
  8
010
 10
63.568434
 20
191.342088
 30
0.0
 11
63.714323
 21
191.342088
 31
0.0
  0
ARC
  5
376
  8
035
 10
64.691575
 20
191.556479
 30
0.0
 40
1.000492
 50
167.626375
 51
192.373625
  0
ARC
  5
377
  8
035
 10
64.691575
 20
191.556479
 30
0.0
 40
1.529324
 50
171.941338
 51
188.058662
  0
ARC
  5
378
  8
035
 10
64.691575
 20
191.556479
 30
0.0
 40
1.000492
 50
90.0
 51
167.626375
  0
LINE
  5
379
  8
010
 10
66.205797
 20
191.77087
 30
0.0
 11
65.916422
 21
191.77087
 31
0.0
  0
LINE
  5
37A
  8
010
 10
65.916422
 20
191.342088
 30
0.0
 11
66.205797
 21
191.342088
 31
0.0
  0
LINE
  5
37B
  8
010
 10
65.916422
 20
191.342088
 30
0.0
 11
65.814716
 21
191.342088
 31
0.0
  0
LINE
  5
37C
  8
010
 10
65.916422
 20
191.77087
 30
0.0
 11
65.814716
 21
191.77087
 31
0.0
  0
LINE
  5
37D
  8
010
 10
65.814716
 20
191.77087
 30
0.0
 11
65.668827
 21
191.77087
 31
0.0
  0
LINE
  5
37E
  8
010
 10
65.668827
 20
191.342088
 30
0.0
 11
65.814716
 21
191.342088
 31
0.0
  0
ARC
  5
37F
  8
035
 10
64.691575
 20
191.556479
 30
0.0
 40
1.000492
 50
347.626375
 51
12.373625
  0
ARC
  5
380
  8
035
 10
64.691575
 20
191.556479
 30
0.0
 40
1.529324
 50
351.941338
 51
8.058662
  0
ARC
  5
381
  8
025
 10
64.691575
 20
191.556479
 30
0.0
 40
1.529324
 50
8.058662
 51
20.430993
  0
ARC
  5
382
  8
05
 10
75.839916
 20
185.733172
 30
0.0
 40
0.285855
 50
332.419801
 51
0.0
  0
ARC
  5
383
  8
05
 10
75.308877
 20
184.813386
 30
0.0
 40
0.285855
 50
300.0
 51
327.580199
  0
ARC
  5
384
  8
05
 10
75.308877
 20
184.813386
 30
0.0
 40
0.285855
 50
300.0
 51
327.580199
  0
ARC
  5
385
  8
05
 10
64.691575
 20
191.556479
 30
0.0
 40
12.86347
 50
327.580199
 51
332.419801
  0
TEXT
  5
386
  8
BEM1
 62
     4
 10
69.192648
 20
216.301206
 30
0.0
 40
2.0
  1
0
 50
0.0
 41
0.75
 51
15.0
  0
TEXT
  5
387
  8
BEM1
 62
     3
 10
56.420256
 20
213.620663
 30
0.0
 40
3.0
  1
SW 16
 41
0.67
 51
15.0
  0
ARC
  5
388
  8
05
 10
64.691575
 20
191.556479
 30
0.0
 40
8.003937
 50
100.304684
 51
150.005274
  0
LINE
  5
389
  8
05
 10
64.017609
 20
204.370437
 30
0.0
 11
53.931345
 21
198.54713
 31
0.0
  0
LINE
  5
38A
  8
BEM1
 10
76.115575
 20
212.339055
 30
0.0
 11
53.267575
 21
212.339055
 31
0.0
  0
LINE
  5
38B
  8
BEM1
 10
53.267575
 20
199.455478
 30
0.0
 11
53.267575
 21
213.195855
 31
0.0
  0
ARC
  5
38C
  8
05
 10
54.074273
 20
198.299572
 30
0.0
 40
0.285855
 50
120.0
 51
147.580199
  0
ARC
  5
38D
  8
05
 10
53.543234
 20
197.379786
 30
0.0
 40
0.285855
 50
152.419801
 51
180.0
  0
LINE
  5
38E
  8
05
 10
53.289863
 20
197.512134
 30
0.0
 11
53.83297
 21
198.452824
 31
0.0
  0
LINE
  5
38F
  8
05
 10
57.759594
 20
195.412873
 30
0.0
 11
57.759594
 21
195.55781
 31
0.0
  0
SOLID
  5
390
  8
BEM1
 10
56.266375
 20
211.839255
 30
0.0
 11
56.266375
 21
212.838855
 31
0.0
 12
53.267575
 22
212.339055
 32
0.0
 13
53.267575
 23
212.339055
 33
0.0
  0
POINT
  5
391
  8
BEM1
 10
53.267575
 20
212.339055
 30
0.0
  0
LINE
  5
392
  8
BEM1
 10
76.115575
 20
199.510689
 30
0.0
 11
76.115575
 21
213.195855
 31
0.0
  0
ARC
  5
393
  8
05
 10
64.691575
 20
191.556479
 30
0.0
 40
8.003937
 50
29.994726
 51
79.695318
  0
LINE
  5
394
  8
05
 10
75.451805
 20
198.54713
 30
0.0
 11
65.365541
 21
204.370437
 31
0.0
  0
LINE
  5
395
  8
05
 10
66.12334
 20
199.431316
 30
0.0
 11
64.694066
 21
199.431316
 31
0.0
  0
LINE
  5
396
  8
05
 10
63.25981
 20
199.431316
 30
0.0
 11
64.689084
 21
199.431316
 31
0.0
  0
LINE
  5
397
  8
05
 10
63.262301
 20
198.29321
 30
0.0
 11
63.262301
 21
199.417489
 31
0.0
  0
LINE
  5
398
  8
05
 10
66.12085
 20
198.293211
 30
0.0
 11
66.12085
 21
199.417489
 31
0.0
  0
LINE
  5
399
  8
05
 10
64.148467
 20
204.408479
 30
0.0
 11
65.234683
 21
204.408479
 31
0.0
  0
ARC
  5
39A
  8
05
 10
64.160536
 20
204.122879
 30
0.0
 40
0.285855
 50
92.419801
 51
120.0
  0
ARC
  5
39B
  8
05
 10
65.222614
 20
204.122879
 30
0.0
 40
0.285855
 50
60.0
 51
87.580199
  0
ARC
  5
39C
  8
05
 10
75.308877
 20
198.299572
 30
0.0
 40
0.285855
 50
32.419801
 51
60.0
  0
ARC
  5
39D
  8
05
 10
75.308877
 20
198.299572
 30
0.0
 40
0.285855
 50
32.419801
 51
60.0
  0
ARC
  5
39E
  8
05
 10
75.839916
 20
197.379786
 30
0.0
 40
0.285855
 50
0.0
 51
27.580199
  0
LINE
  5
39F
  8
05
 10
75.55018
 20
198.452824
 30
0.0
 11
76.093287
 21
197.512134
 31
0.0
  0
TEXT
  5
3A0
  8
BEM1
 62
     4
 10
66.963456
 20
213.532529
 30
0.0
 40
2.0
  1
-0.15
 50
0.0
 41
0.75
 51
15.0
  0
SOLID
  5
3A1
  8
BEM1
 10
73.116775
 20
211.839255
 30
0.0
 11
73.116775
 21
212.838855
 31
0.0
 12
76.115575
 22
212.339055
 32
0.0
 13
76.115575
 23
212.339055
 33
0.0
  0
LINE
  5
3A2
  8
05
 10
143.904395
 20
198.453719
 30
0.0
 11
135.664835
 21
198.453719
 31
0.0
  0
LINE
  5
3A3
  8
05
 10
143.904395
 20
198.453719
 30
0.0
 11
135.664835
 21
198.453719
 31
0.0
  0
TEXT
  5
3A4
  8
BEM1
 62
     4
 10
139.068829
 20
207.846292
 30
0.0
 40
2.5
  1
[.433"]
 41
0.7
 51
15.0
  0
LINE
  5
3A5
  8
BEM1
 10
124.520442
 20
212.339055
 30
0.0
 11
151.372835
 21
212.339055
 31
0.0
  0
LINE
  5
3A6
  8
BEM1
 10
102.820835
 20
218.064658
 30
0.0
 11
151.372835
 21
218.064658
 31
0.0
  0
LINE
  5
3A7
  8
05
 10
143.904395
 20
184.659239
 30
0.0
 11
135.664835
 21
184.659239
 31
0.0
  0
LINE
  5
3A8
  8
05
 10
143.904395
 20
184.659239
 30
0.0
 11
135.664835
 21
184.659239
 31
0.0
  0
LINE
  5
3A9
  8
MITTE
 10
101.607035
 20
191.556466
 30
0.0
 11
152.586635
 21
191.556466
 31
0.0
  0
LINE
  5
3AA
  8
025
 10
131.511853
 20
194.546048
 30
0.0
 11
131.40738
 21
194.973869
 31
0.0
  0
LINE
  5
3AB
  8
025
 10
131.495571
 20
195.146038
 30
0.0
 11
131.511853
 21
194.546048
 31
0.0
  0
LINE
  5
3AC
  8
025
 10
131.424494
 20
195.304099
 30
0.0
 11
131.194419
 21
194.845518
 31
0.0
  0
LINE
  5
3AD
  8
025
 10
131.194419
 20
194.550483
 30
0.0
 11
131.395364
 21
194.950412
 31
0.0
  0
LINE
  5
3AE
  8
025
 10
131.424494
 20
195.304099
 30
0.0
 11
131.194419
 21
194.845518
 31
0.0
  0
LINE
  5
3AF
  8
025
 10
131.194419
 20
194.550483
 30
0.0
 11
131.395364
 21
194.950412
 31
0.0
  0
LINE
  5
3B0
  8
025
 10
130.242053
 20
194.546048
 30
0.0
 11
130.136562
 21
194.97804
 31
0.0
  0
LINE
  5
3B1
  8
025
 10
120.783633
 20
193.85091
 30
0.0
 11
120.947521
 21
194.996759
 31
0.0
  0
LINE
  5
3B2
  8
025
 10
119.384965
 20
194.977908
 30
0.0
 11
119.298826
 21
194.546048
 31
0.0
  0
LINE
  5
3B3
  8
025
 10
120.083653
 20
194.546048
 30
0.0
 11
119.978161
 21
194.97804
 31
0.0
  0
LINE
  5
3B4
  8
025
 10
120.654766
 20
194.977908
 30
0.0
 11
120.568627
 21
194.546048
 31
0.0
  0
LINE
  5
3B5
  8
025
 10
126.815043
 20
193.85091
 30
0.0
 11
126.651156
 21
194.996759
 31
0.0
  0
LINE
  5
3B6
  8
05
 10
131.128834
 20
198.936613
 30
0.0
 11
131.128834
 21
194.321355
 31
0.0
  0
LINE
  5
3B7
  8
05
 10
131.128834
 20
198.936613
 30
0.0
 11
131.128834
 21
194.321355
 31
0.0
  0
LINE
  5
3B8
  8
05
 10
120.649338
 20
191.556466
 30
0.0
 11
120.649338
 21
200.442086
 31
0.0
  0
LINE
  5
3B9
  8
05
 10
126.949338
 20
180.356466
 30
0.0
 11
126.949338
 21
202.756466
 31
0.0
  0
LINE
  5
3BA
  8
05
 10
133.522835
 20
185.738326
 30
0.0
 11
133.522835
 21
197.374594
 31
0.0
  0
LINE
  5
3BB
  8
05
 10
133.522835
 20
185.738365
 30
0.0
 11
133.522835
 21
197.374594
 31
0.0
  0
LINE
  5
3BC
  8
05
 10
135.664835
 20
197.374556
 30
0.0
 11
135.664835
 21
185.738365
 31
0.0
  0
LINE
  5
3BD
  8
05
 10
135.664835
 20
197.374594
 30
0.0
 11
135.664835
 21
185.738365
 31
0.0
  0
LINE
  5
3BE
  8
05
 10
118.528834
 20
193.651795
 30
0.0
 11
118.528834
 21
198.318466
 31
0.0
  0
LINE
  5
3BF
  8
05
 10
102.820835
 20
197.769389
 30
0.0
 11
102.820835
 21
185.34357
 31
0.0
  0
LINE
  5
3C0
  8
05
 10
102.820835
 20
197.76999
 30
0.0
 11
102.820835
 21
185.342943
 31
0.0
  0
LINE
  5
3C1
  8
035
 10
118.793138
 20
195.663526
 30
0.0
 11
118.811911
 21
194.554542
 31
0.0
  0
POLYLINE
  5
3C2
  8
025
 66
     1
 10
0.0
 20
0.0
 30
0.0
  0
VERTEX
  5
73C
  8
025
 10
129.329297
 20
195.899327
 30
0.0
  0
VERTEX
  5
73D
  8
025
 10
129.216531
 20
195.447837
 30
0.0
  0
VERTEX
  5
73E
  8
025
 10
129.11605
 20
195.001726
 30
0.0
  0
VERTEX
  5
73F
  8
025
 10
129.028188
 20
194.561228
 30
0.0
  0
SEQEND
  5
740
  8
025
  0
POLYLINE
  5
3C3
  8
025
 66
     1
 10
0.0
 20
0.0
 30
0.0
  0
VERTEX
  5
741
  8
025
 10
128.533513
 20
194.561228
 30
0.0
  0
VERTEX
  5
742
  8
025
 10
128.425912
 20
195.001859
 30
0.0
  0
VERTEX
  5
743
  8
025
 10
128.306296
 20
195.447946
 30
0.0
  0
VERTEX
  5
744
  8
025
 10
128.175056
 20
195.899327
 30
0.0
  0
SEQEND
  5
745
  8
025
  0
POLYLINE
  5
3C4
  8
025
 66
     1
 10
0.0
 20
0.0
 30
0.0
  0
VERTEX
  5
746
  8
025
 10
128.0341
 20
195.899327
 30
0.0
  0
VERTEX
  5
747
  8
025
 10
127.921333
 20
195.447837
 30
0.0
  0
VERTEX
  5
748
  8
025
 10
127.820852
 20
195.001726
 30
0.0
  0
VERTEX
  5
749
  8
025
 10
127.73299
 20
194.561228
 30
0.0
  0
SEQEND
  5
74A
  8
025
  0
POLYLINE
  5
3C5
  8
025
 66
     1
 10
0.0
 20
0.0
 30
0.0
  0
VERTEX
  5
74B
  8
025
 10
127.238316
 20
194.561228
 30
0.0
  0
VERTEX
  5
74C
  8
025
 10
127.130714
 20
195.00186
 30
0.0
  0
VERTEX
  5
74D
  8
025
 10
127.011098
 20
195.447946
 30
0.0
  0
VERTEX
  5
74E
  8
025
 10
126.949338
 20
195.660361
 30
0.0
  0
SEQEND
  5
74F
  8
025
  0
LINE
  5
3C6
  8
05
 10
130.428834
 20
196.139036
 30
0.0
 11
130.428834
 21
194.566532
 31
0.0
  0
LINE
  5
3C7
  8
05
 10
129.728834
 20
191.556466
 30
0.0
 11
129.728834
 21
196.357251
 31
0.0
  0
LINE
  5
3C8
  8
05
 10
131.828834
 20
191.556466
 30
0.0
 11
131.828834
 21
195.721331
 31
0.0
  0
LINE
  5
3C9
  8
05
 10
131.828834
 20
195.729061
 30
0.0
 11
131.828834
 21
191.556466
 31
0.0
  0
LINE
  5
3CA
  8
05
 10
107.433275
 20
183.702479
 30
0.0
 11
110.289275
 21
183.702479
 31
0.0
  0
ARC
  5
3CB
  8
035
 10
108.861275
 20
177.621927
 30
0.0
 40
7.180709
 50
78.529338
 51
101.470662
  0
LINE
  5
3CC
  8
05
 10
107.433275
 20
184.659239
 30
0.0
 11
103.106435
 21
184.659239
 31
0.0
  0
LINE
  5
3CD
  8
05
 10
107.433275
 20
184.659239
 30
0.0
 11
103.106435
 21
184.659239
 31
0.0
  0
LINE
  5
3CE
  8
05
 10
102.820835
 20
185.34357
 30
0.0
 11
102.820835
 21
185.192401
 31
0.0
  0
LINE
  5
3CF
  8
05
 10
102.820835
 20
185.342943
 30
0.0
 11
102.820835
 21
185.216159
 31
0.0
  0
ARC
  5
3D0
  8
05
 10
103.106435
 20
184.944839
 30
0.0
 40
0.2856
 50
180.0
 51
270.0
  0
ARC
  5
3D1
  8
05
 10
103.106435
 20
184.944839
 30
0.0
 40
0.2856
 50
180.0
 51
270.0
  0
LINE
  5
3D2
  8
05
 10
102.820835
 20
185.192401
 30
0.0
 11
102.820835
 21
184.944839
 31
0.0
  0
LINE
  5
3D3
  8
05
 10
102.820835
 20
185.216159
 30
0.0
 11
102.820835
 21
184.944839
 31
0.0
  0
LINE
  5
3D4
  8
05
 10
107.433275
 20
184.659239
 30
0.0
 11
107.433275
 21
183.702479
 31
0.0
  0
LINE
  5
3D5
  8
05
 10
107.433275
 20
184.659239
 30
0.0
 11
107.433275
 21
183.702479
 31
0.0
  0
LINE
  5
3D6
  8
035
 10
121.457629
 20
185.784119
 30
0.0
 11
126.141048
 21
185.784119
 31
0.0
  0
LINE
  5
3D7
  8
035
 10
121.457629
 20
184.743156
 30
0.0
 11
126.141048
 21
184.743156
 31
0.0
  0
LINE
  5
3D8
  8
05
 10
126.141048
 20
178.956466
 30
0.0
 11
121.457629
 21
178.956466
 31
0.0
  0
LINE
  5
3D9
  8
05
 10
120.484477
 20
183.303822
 30
0.0
 11
120.49128
 21
183.314845
 31
0.0
  0
LINE
  5
3DA
  8
05
 10
119.676125
 20
183.314331
 30
0.0
 11
119.682584
 21
183.303834
 31
0.0
  0
LINE
  5
3DB
  8
05
 10
120.649338
 20
182.670847
 30
0.0
 11
120.649338
 21
191.556466
 31
0.0
  0
LINE
  5
3DC
  8
05
 10
119.06072
 20
183.044581
 30
0.0
 11
118.528834
 21
183.576466
 31
0.0
  0
LINE
  5
3DD
  8
025
 10
120.781865
 20
182.996551
 30
0.0
 11
120.944584
 21
183.568446
 31
0.0
  0
LINE
  5
3DE
  8
035
 10
119.046641
 20
183.109912
 30
0.0
 11
119.027249
 21
183.365722
 31
0.0
  0
LINE
  5
3DF
  8
05
 10
119.120197
 20
183.140324
 30
0.0
 11
119.219473
 21
183.31174
 31
0.0
  0
LINE
  5
3E0
  8
035
 10
119.923112
 20
183.621791
 30
0.0
 11
119.953659
 21
183.132324
 31
0.0
  0
LINE
  5
3E1
  8
025
 10
120.944515
 20
180.145723
 30
0.0
 11
120.78182
 21
180.717609
 31
0.0
  0
LINE
  5
3E2
  8
05
 10
121.457629
 20
178.956466
 30
0.0
 11
120.649338
 21
180.356466
 31
0.0
  0
LINE
  5
3E3
  8
05
 10
120.484477
 20
183.303822
 30
0.0
 11
120.484507
 21
183.303873
 31
0.0
  0
LINE
  5
3E4
  8
05
 10
119.682561
 20
183.303873
 30
0.0
 11
119.682584
 21
183.303834
 31
0.0
  0
LINE
  5
3E5
  8
025
 10
120.649338
 20
181.856982
 30
0.0
 11
120.68272
 21
182.426741
 31
0.0
  0
LINE
  5
3E6
  8
025
 10
120.68272
 20
182.426741
 30
0.0
 11
120.781865
 21
182.996551
 31
0.0
  0
LINE
  5
3E7
  8
05
 10
120.649338
 20
181.856982
 30
0.0
 11
120.649338
 21
182.666466
 31
0.0
  0
LINE
  5
3E8
  8
05
 10
120.649338
 20
182.666466
 30
0.0
 11
120.649338
 21
182.670847
 31
0.0
  0
LINE
  5
3E9
  8
025
 10
120.78182
 20
180.717609
 30
0.0
 11
120.682706
 21
181.287347
 31
0.0
  0
LINE
  5
3EA
  8
025
 10
120.682706
 20
181.287347
 30
0.0
 11
120.649338
 21
181.856982
 31
0.0
  0
LINE
  5
3EB
  8
05
 10
120.649338
 20
180.356466
 30
0.0
 11
120.649338
 21
181.856982
 31
0.0
  0
LINE
  5
3EC
  8
05
 10
119.905015
 20
182.918904
 30
0.0
 11
120.00642
 21
182.743404
 31
0.0
  0
LINE
  5
3ED
  8
05
 10
119.774096
 20
183.145471
 30
0.0
 11
119.905015
 21
182.918904
 31
0.0
  0
LINE
  5
3EE
  8
05
 10
120.152631
 20
182.736466
 30
0.0
 11
120.014437
 21
182.736466
 31
0.0
  0
LINE
  5
3EF
  8
05
 10
120.160647
 20
182.743404
 30
0.0
 11
120.152632
 21
182.736466
 31
0.0
  0
LINE
  5
3F0
  8
05
 10
120.00642
 20
182.743404
 30
0.0
 11
120.014437
 21
182.736466
 31
0.0
  0
LINE
  5
3F1
  8
05
 10
120.259079
 20
182.913756
 30
0.0
 11
120.389998
 21
183.140324
 31
0.0
  0
LINE
  5
3F2
  8
05
 10
120.160647
 20
182.743404
 30
0.0
 11
120.259079
 21
182.913756
 31
0.0
  0
LINE
  5
3F3
  8
035
 10
119.065983
 20
183.046502
 30
0.0
 11
119.120197
 21
183.140324
 31
0.0
  0
LINE
  5
3F4
  8
035
 10
119.06072
 20
183.04458
 30
0.0
 11
119.046641
 21
183.109912
 31
0.0
  0
LINE
  5
3F5
  8
035
 10
119.065983
 20
183.046502
 30
0.0
 11
119.06072
 21
183.04458
 31
0.0
  0
LINE
  5
3F6
  8
035
 10
119.984171
 20
182.835187
 30
0.0
 11
120.00642
 21
182.743404
 31
0.0
  0
LINE
  5
3F7
  8
035
 10
119.953659
 20
183.132324
 30
0.0
 11
119.984171
 21
182.835187
 31
0.0
  0
LINE
  5
3F8
  8
05
 10
120.389998
 20
183.140324
 30
0.0
 11
120.484507
 21
183.303873
 31
0.0
  0
LINE
  5
3F9
  8
05
 10
119.682561
 20
183.303873
 30
0.0
 11
119.774096
 21
183.145471
 31
0.0
  0
LINE
  5
3FA
  8
025
 10
121.457629
 20
178.970808
 30
0.0
 11
121.169145
 21
179.566894
 31
0.0
  0
LINE
  5
3FB
  8
025
 10
121.169145
 20
179.566894
 30
0.0
 11
120.944515
 21
180.145723
 31
0.0
  0
LINE
  5
3FC
  8
05
 10
118.528835
 20
184.659239
 30
0.0
 11
110.289275
 21
184.659239
 31
0.0
  0
LINE
  5
3FD
  8
05
 10
118.528835
 20
184.659239
 30
0.0
 11
110.289275
 21
184.659239
 31
0.0
  0
LINE
  5
3FE
  8
05
 10
110.289275
 20
184.659239
 30
0.0
 11
110.289275
 21
183.702479
 31
0.0
  0
LINE
  5
3FF
  8
05
 10
110.289275
 20
184.659239
 30
0.0
 11
110.289275
 21
183.702479
 31
0.0
  0
LINE
  5
400
  8
025
 10
120.945883
 20
188.125847
 30
0.0
 11
120.782648
 21
189.270543
 31
0.0
  0
LINE
  5
401
  8
025
 10
118.698887
 20
188.885633
 30
0.0
 11
118.528834
 21
189.461138
 31
0.0
  0
LINE
  5
402
  8
05
 10
118.528834
 20
184.794466
 30
0.0
 11
118.528834
 21
189.461138
 31
0.0
  0
LINE
  5
403
  8
035
 10
119.007873
 20
183.806873
 30
0.0
 11
118.995253
 21
184.207927
 31
0.0
  0
LINE
  5
404
  8
035
 10
119.892195
 20
184.301355
 30
0.0
 11
119.923112
 21
183.621791
 31
0.0
  0
LINE
  5
405
  8
05
 10
120.534937
 20
183.365051
 30
0.0
 11
120.649338
 21
183.434168
 31
0.0
  0
LINE
  5
406
  8
05
 10
120.49128
 20
183.314845
 30
0.0
 11
120.534937
 21
183.365051
 31
0.0
  0
LINE
  5
407
  8
05
 10
119.640538
 20
183.357233
 30
0.0
 11
119.676125
 21
183.314331
 31
0.0
  0
LINE
  5
408
  8
05
 10
119.450178
 20
183.436462
 30
0.0
 11
119.565661
 21
183.409202
 31
0.0
  0
LINE
  5
409
  8
05
 10
119.332395
 20
183.409578
 30
0.0
 11
119.450178
 21
183.436462
 31
0.0
  0
LINE
  5
40A
  8
05
 10
119.219473
 20
183.31174
 30
0.0
 11
119.25473
 21
183.355272
 31
0.0
  0
LINE
  5
40B
  8
05
 10
119.565661
 20
183.409202
 30
0.0
 11
119.640538
 21
183.357233
 31
0.0
  0
LINE
  5
40C
  8
05
 10
119.25473
 20
183.355272
 30
0.0
 11
119.332395
 21
183.409578
 31
0.0
  0
LINE
  5
40D
  8
035
 10
119.027249
 20
183.365722
 30
0.0
 11
119.007873
 21
183.806873
 31
0.0
  0
LINE
  5
40E
  8
025
 10
119.309019
 20
188.904528
 30
0.0
 11
119.343216
 21
188.852589
 31
0.0
  0
LINE
  5
40F
  8
025
 10
118.910788
 20
188.295751
 30
0.0
 11
118.937783
 21
188.431583
 31
0.0
  0
LINE
  5
410
  8
025
 10
118.937783
 20
188.431583
 30
0.0
 11
118.963541
 21
188.566885
 31
0.0
  0
LINE
  5
411
  8
025
 10
118.963541
 20
188.566885
 30
0.0
 11
118.981752
 21
188.650405
 31
0.0
  0
LINE
  5
412
  8
025
 10
118.981752
 20
188.650405
 30
0.0
 11
119.003458
 21
188.726108
 31
0.0
  0
LINE
  5
413
  8
025
 10
119.003458
 20
188.726108
 30
0.0
 11
119.028198
 21
188.79369
 31
0.0
  0
LINE
  5
414
  8
025
 10
119.028198
 20
188.79369
 30
0.0
 11
119.055946
 21
188.853153
 31
0.0
  0
LINE
  5
415
  8
025
 10
119.055946
 20
188.853153
 30
0.0
 11
119.087506
 21
188.90466
 31
0.0
  0
LINE
  5
416
  8
025
 10
119.087506
 20
188.90466
 30
0.0
 11
119.124676
 21
188.946955
 31
0.0
  0
LINE
  5
417
  8
025
 10
119.124676
 20
188.946955
 30
0.0
 11
119.169834
 21
188.974415
 31
0.0
  0
LINE
  5
418
  8
025
 10
119.169834
 20
188.974415
 30
0.0
 11
119.22306
 21
188.974495
 31
0.0
  0
LINE
  5
419
  8
025
 10
119.22306
 20
188.974495
 30
0.0
 11
119.269517
 21
188.947163
 31
0.0
  0
LINE
  5
41A
  8
025
 10
119.269517
 20
188.947163
 30
0.0
 11
119.309019
 21
188.904528
 31
0.0
  0
LINE
  5
41B
  8
025
 10
120.233342
 20
188.566885
 30
0.0
 11
120.251553
 21
188.650405
 31
0.0
  0
LINE
  5
41C
  8
025
 10
120.251553
 20
188.650405
 30
0.0
 11
120.273258
 21
188.726108
 31
0.0
  0
LINE
  5
41D
  8
025
 10
120.273258
 20
188.726108
 30
0.0
 11
120.297999
 21
188.79369
 31
0.0
  0
LINE
  5
41E
  8
025
 10
120.297999
 20
188.79369
 30
0.0
 11
120.325746
 21
188.853153
 31
0.0
  0
LINE
  5
41F
  8
025
 10
120.325746
 20
188.853153
 30
0.0
 11
120.357307
 21
188.90466
 31
0.0
  0
LINE
  5
420
  8
025
 10
120.357307
 20
188.90466
 30
0.0
 11
120.394477
 21
188.946956
 31
0.0
  0
LINE
  5
421
  8
025
 10
120.394477
 20
188.946956
 30
0.0
 11
120.439634
 21
188.974415
 31
0.0
  0
LINE
  5
422
  8
025
 10
120.439634
 20
188.974415
 30
0.0
 11
120.492861
 21
188.974495
 31
0.0
  0
LINE
  5
423
  8
025
 10
120.492861
 20
188.974495
 30
0.0
 11
120.539318
 21
188.947163
 31
0.0
  0
LINE
  5
424
  8
025
 10
120.539318
 20
188.947163
 30
0.0
 11
120.57882
 21
188.904528
 31
0.0
  0
LINE
  5
425
  8
025
 10
120.57882
 20
188.904528
 30
0.0
 11
120.613016
 21
188.852589
 31
0.0
  0
LINE
  5
426
  8
025
 10
119.448515
 20
188.566885
 30
0.0
 11
119.553977
 21
188.135009
 31
0.0
  0
LINE
  5
427
  8
025
 10
119.553977
 20
188.135009
 30
0.0
 11
119.671244
 21
187.697671
 31
0.0
  0
LINE
  5
428
  8
025
 10
119.343216
 20
188.852589
 30
0.0
 11
119.373597
 21
188.793283
 31
0.0
  0
LINE
  5
429
  8
025
 10
119.373597
 20
188.793283
 30
0.0
 11
119.401263
 21
188.726166
 31
0.0
  0
LINE
  5
42A
  8
025
 10
119.401263
 20
188.726166
 30
0.0
 11
119.426365
 21
188.650792
 31
0.0
  0
LINE
  5
42B
  8
025
 10
119.426365
 20
188.650792
 30
0.0
 11
119.448515
 21
188.566885
 31
0.0
  0
LINE
  5
42C
  8
025
 10
120.048658
 20
187.697521
 30
0.0
 11
120.147172
 21
188.134883
 31
0.0
  0
LINE
  5
42D
  8
025
 10
120.147172
 20
188.134883
 30
0.0
 11
120.233342
 21
188.566885
 31
0.0
  0
LINE
  5
42E
  8
025
 10
120.613016
 20
188.852589
 30
0.0
 11
120.643398
 21
188.793283
 31
0.0
  0
LINE
  5
42F
  8
035
 10
118.949655
 20
186.119283
 30
0.0
 11
118.930233
 21
187.15885
 31
0.0
  0
LINE
  5
430
  8
035
 10
119.799943
 20
187.255025
 30
0.0
 11
119.830504
 21
186.144127
 31
0.0
  0
LINE
  5
431
  8
035
 10
118.995253
 20
184.207927
 30
0.0
 11
118.988475
 21
184.42334
 31
0.0
  0
LINE
  5
432
  8
035
 10
118.988475
 20
184.42334
 30
0.0
 11
118.969081
 21
185.19972
 31
0.0
  0
LINE
  5
433
  8
035
 10
119.861207
 20
185.152526
 30
0.0
 11
119.892195
 21
184.301355
 31
0.0
  0
LINE
  5
434
  8
035
 10
118.969081
 20
185.19972
 30
0.0
 11
118.949655
 21
186.119283
 31
0.0
  0
LINE
  5
435
  8
035
 10
119.830504
 20
186.144127
 30
0.0
 11
119.861207
 21
185.152526
 31
0.0
  0
LINE
  5
436
  8
035
 10
118.930233
 20
187.15885
 30
0.0
 11
118.910788
 21
188.295751
 31
0.0
  0
LINE
  5
437
  8
025
 10
119.671244
 20
187.697671
 30
0.0
 11
119.799943
 21
187.255025
 31
0.0
  0
LINE
  5
438
  8
025
 10
119.938137
 20
187.255025
 30
0.0
 11
120.048658
 21
187.697521
 31
0.0
  0
LINE
  5
439
  8
05
 10
118.528834
 20
183.847117
 30
0.0
 11
118.528834
 21
184.626466
 31
0.0
  0
LINE
  5
43A
  8
05
 10
118.528834
 20
183.787165
 30
0.0
 11
118.528834
 21
183.847117
 31
0.0
  0
LINE
  5
43B
  8
05
 10
118.528834
 20
183.716523
 30
0.0
 11
118.528834
 21
183.787165
 31
0.0
  0
LINE
  5
43C
  8
05
 10
118.528834
 20
183.57657
 30
0.0
 11
118.528834
 21
183.716523
 31
0.0
  0
LINE
  5
43D
  8
05
 10
118.528834
 20
184.701235
 30
0.0
 11
118.528834
 21
184.794466
 31
0.0
  0
LINE
  5
43E
  8
05
 10
118.528834
 20
184.626466
 30
0.0
 11
118.528834
 21
184.701235
 31
0.0
  0
LINE
  5
43F
  8
025
 10
118.910788
 20
188.295751
 30
0.0
 11
118.698887
 21
188.885633
 31
0.0
  0
LINE
  5
440
  8
025
 10
120.944584
 20
183.568446
 30
0.0
 11
121.169183
 21
184.147157
 31
0.0
  0
LINE
  5
441
  8
025
 10
121.457629
 20
185.784119
 30
0.0
 11
121.170474
 21
186.970213
 31
0.0
  0
LINE
  5
442
  8
035
 10
121.457629
 20
185.256466
 30
0.0
 11
121.457629
 21
185.784119
 31
0.0
  0
LINE
  5
443
  8
025
 10
121.169183
 20
184.147157
 30
0.0
 11
121.457629
 21
184.743156
 31
0.0
  0
LINE
  5
444
  8
035
 10
121.457629
 20
184.743156
 30
0.0
 11
121.457629
 21
185.256466
 31
0.0
  0
LINE
  5
445
  8
025
 10
121.170474
 20
186.970213
 30
0.0
 11
120.945883
 21
188.125847
 31
0.0
  0
LINE
  5
446
  8
025
 10
120.682949
 20
190.413043
 30
0.0
 11
120.649338
 21
191.556466
 31
0.0
  0
LINE
  5
447
  8
05
 10
120.649338
 20
191.556466
 30
0.0
 11
120.683239
 21
192.70482
 31
0.0
  0
LINE
  5
448
  8
05
 10
120.683239
 20
192.70482
 30
0.0
 11
120.783633
 21
193.85091
 31
0.0
  0
LINE
  5
449
  8
025
 10
119.298826
 20
194.546048
 30
0.0
 11
119.281987
 21
194.468029
 31
0.0
  0
LINE
  5
44A
  8
025
 10
119.281987
 20
194.468029
 30
0.0
 11
119.262341
 21
194.397588
 31
0.0
  0
LINE
  5
44B
  8
025
 10
119.262341
 20
194.397588
 30
0.0
 11
119.240225
 21
194.334341
 31
0.0
  0
LINE
  5
44C
  8
025
 10
119.240225
 20
194.334341
 30
0.0
 11
119.215528
 21
194.277679
 31
0.0
  0
LINE
  5
44D
  8
025
 10
119.215528
 20
194.277679
 30
0.0
 11
119.187601
 21
194.227211
 31
0.0
  0
LINE
  5
44E
  8
025
 10
119.187601
 20
194.227211
 30
0.0
 11
119.155393
 21
194.183803
 31
0.0
  0
LINE
  5
44F
  8
025
 10
119.155393
 20
194.183803
 30
0.0
 11
119.119081
 21
194.15158
 31
0.0
  0
LINE
  5
450
  8
025
 10
119.119081
 20
194.15158
 30
0.0
 11
119.076979
 21
194.134899
 31
0.0
  0
LINE
  5
451
  8
025
 10
119.076979
 20
194.134899
 30
0.0
 11
119.030168
 21
194.141855
 31
0.0
  0
LINE
  5
452
  8
025
 10
119.030168
 20
194.141855
 30
0.0
 11
118.987118
 21
194.170847
 31
0.0
  0
LINE
  5
453
  8
025
 10
118.987118
 20
194.170847
 30
0.0
 11
118.949683
 21
194.213282
 31
0.0
  0
LINE
  5
454
  8
025
 10
118.949683
 20
194.213282
 30
0.0
 11
118.916941
 21
194.264216
 31
0.0
  0
LINE
  5
455
  8
025
 10
118.916941
 20
194.264216
 30
0.0
 11
118.887373
 21
194.322713
 31
0.0
  0
LINE
  5
456
  8
025
 10
118.887373
 20
194.322713
 30
0.0
 11
118.86024
 21
194.389104
 31
0.0
  0
LINE
  5
457
  8
025
 10
118.86024
 20
194.389104
 30
0.0
 11
118.835578
 21
194.463566
 31
0.0
  0
LINE
  5
458
  8
025
 10
118.835578
 20
194.463566
 30
0.0
 11
118.813852
 21
194.546048
 31
0.0
  0
LINE
  5
459
  8
025
 10
118.811909
 20
194.554535
 30
0.0
 11
118.813041
 21
194.549569
 31
0.0
  0
LINE
  5
45A
  8
025
 10
118.813041
 20
194.549569
 30
0.0
 11
118.813852
 21
194.546048
 31
0.0
  0
LINE
  5
45B
  8
025
 10
120.568627
 20
194.546048
 30
0.0
 11
120.550226
 21
194.461777
 31
0.0
  0
LINE
  5
45C
  8
025
 10
120.550226
 20
194.461777
 30
0.0
 11
120.527786
 21
194.383993
 31
0.0
  0
LINE
  5
45D
  8
025
 10
120.527786
 20
194.383993
 30
0.0
 11
120.501542
 21
194.313423
 31
0.0
  0
LINE
  5
45E
  8
025
 10
120.501542
 20
194.313423
 30
0.0
 11
120.47139
 21
194.250867
 31
0.0
  0
LINE
  5
45F
  8
025
 10
120.47139
 20
194.250867
 30
0.0
 11
120.436787
 21
194.197742
 31
0.0
  0
LINE
  5
460
  8
025
 10
120.436787
 20
194.197742
 30
0.0
 11
120.396652
 21
194.15706
 31
0.0
  0
LINE
  5
461
  8
025
 10
120.396652
 20
194.15706
 30
0.0
 11
120.349795
 21
194.135368
 31
0.0
  0
LINE
  5
462
  8
025
 10
120.349795
 20
194.135368
 30
0.0
 11
120.300348
 21
194.141694
 31
0.0
  0
LINE
  5
463
  8
025
 10
120.300348
 20
194.141694
 30
0.0
 11
120.258227
 21
194.169655
 31
0.0
  0
LINE
  5
464
  8
025
 10
120.258227
 20
194.169655
 30
0.0
 11
120.22078
 21
194.211539
 31
0.0
  0
LINE
  5
465
  8
025
 10
120.22078
 20
194.211539
 30
0.0
 11
120.186695
 21
194.264299
 31
0.0
  0
LINE
  5
466
  8
025
 10
120.186695
 20
194.264299
 30
0.0
 11
120.155802
 21
194.325751
 31
0.0
  0
LINE
  5
467
  8
025
 10
120.155802
 20
194.325751
 30
0.0
 11
120.128165
 21
194.394233
 31
0.0
  0
LINE
  5
468
  8
025
 10
120.128165
 20
194.394233
 30
0.0
 11
120.103996
 21
194.468257
 31
0.0
  0
LINE
  5
469
  8
025
 10
120.103996
 20
194.468257
 30
0.0
 11
120.083653
 21
194.546048
 31
0.0
  0
LINE
  5
46A
  8
025
 10
120.782648
 20
189.270543
 30
0.0
 11
120.682949
 21
190.413043
 31
0.0
  0
LINE
  5
46B
  8
05
 10
118.528834
 20
193.651795
 30
0.0
 11
118.528834
 21
189.461138
 31
0.0
  0
LINE
  5
46C
  8
025
 10
118.528834
 20
193.651795
 30
0.0
 11
118.657817
 21
194.099221
 31
0.0
  0
LINE
  5
46D
  8
025
 10
118.657817
 20
194.099221
 30
0.0
 11
118.811909
 21
194.554535
 31
0.0
  0
LINE
  5
46E
  8
05
 10
131.128834
 20
183.697404
 30
0.0
 11
131.128834
 21
183.303873
 31
0.0
  0
LINE
  5
46F
  8
05
 10
131.128834
 20
183.697404
 30
0.0
 11
131.128834
 21
183.303873
 31
0.0
  0
POLYLINE
  5
470
  8
035
 66
     1
 10
0.0
 20
0.0
 30
0.0
  0
VERTEX
  5
750
  8
035
 10
129.539328
 20
187.12437
 30
0.0
  0
VERTEX
  5
751
  8
035
 10
129.570587
 20
185.988298
 30
0.0
  0
VERTEX
  5
752
  8
035
 10
129.601869
 20
184.978281
 30
0.0
  0
VERTEX
  5
753
  8
035
 10
129.633102
 20
184.119663
 30
0.0
  0
VERTEX
  5
754
  8
035
 10
129.664403
 20
183.429124
 30
0.0
  0
VERTEX
  5
755
  8
035
 10
129.695618
 20
182.925713
 30
0.0
  0
VERTEX
  5
756
  8
035
 10
129.726921
 20
182.618226
 30
0.0
  0
VERTEX
  5
757
  8
035
 10
129.728834
 20
182.610269
 30
0.0
  0
SEQEND
  5
758
  8
035
  0
POLYLINE
  5
471
  8
035
 66
     1
 10
0.0
 20
0.0
 30
0.0
  0
VERTEX
  5
759
  8
035
 10
128.24413
 20
187.12437
 30
0.0
  0
VERTEX
  5
75A
  8
035
 10
128.275235
 20
185.99358
 30
0.0
  0
VERTEX
  5
75B
  8
035
 10
128.306558
 20
184.981652
 30
0.0
  0
VERTEX
  5
75C
  8
035
 10
128.338114
 20
184.114435
 30
0.0
  0
VERTEX
  5
75D
  8
035
 10
128.369529
 20
183.422929
 30
0.0
  0
VERTEX
  5
75E
  8
035
 10
128.400706
 20
182.921986
 30
0.0
  0
VERTEX
  5
75F
  8
035
 10
128.431963
 20
182.616648
 30
0.0
  0
VERTEX
  5
760
  8
035
 10
128.454737
 20
182.522508
 30
0.0
  0
SEQEND
  5
761
  8
035
  0
LINE
  5
472
  8
05
 10
130.428834
 20
184.17632
 30
0.0
 11
130.428834
 21
182.944402
 31
0.0
  0
LINE
  5
473
  8
05
 10
133.522835
 20
179.0013
 30
0.0
 11
133.522835
 21
184.819399
 31
0.0
  0
LINE
  5
474
  8
05
 10
133.522835
 20
179.001285
 30
0.0
 11
133.522835
 21
184.819399
 31
0.0
  0
LINE
  5
475
  8
05
 10
129.728834
 20
182.670847
 30
0.0
 11
129.728834
 21
187.391508
 31
0.0
  0
LINE
  5
476
  8
025
 10
129.904322
 20
183.39989
 30
0.0
 11
129.728834
 21
183.202033
 31
0.0
  0
LINE
  5
477
  8
05
 10
131.828834
 20
183.586546
 30
0.0
 11
131.828834
 21
182.74809
 31
0.0
  0
LINE
  5
478
  8
05
 10
131.828834
 20
181.609693
 30
0.0
 11
131.828834
 21
183.608445
 31
0.0
  0
LINE
  5
479
  8
05
 10
135.664835
 20
183.63125
 30
0.0
 11
135.664835
 21
179.001285
 31
0.0
  0
LINE
  5
47A
  8
025
 10
126.816811
 20
182.996551
 30
0.0
 11
126.654092
 21
183.568446
 31
0.0
  0
LINE
  5
47B
  8
05
 10
133.237235
 20
182.560079
 30
0.0
 11
131.828834
 21
182.560079
 31
0.0
  0
POLYLINE
  5
47C
  8
05
 66
     1
 10
0.0
 20
0.0
 30
0.0
  0
VERTEX
  5
762
  8
05
 10
128.612048
 20
182.522508
 30
0.0
  0
VERTEX
  5
763
  8
05
 10
128.712449
 20
182.696268
 30
0.0
  0
VERTEX
  5
764
  8
05
 10
128.845986
 20
182.927367
 30
0.0
  0
VERTEX
  5
765
  8
05
 10
128.942385
 20
183.094188
 30
0.0
  0
SEQEND
  5
766
  8
05
  0
LINE
  5
47D
  8
05
 10
128.454737
 20
182.522508
 30
0.0
 11
128.462914
 21
182.515432
 31
0.0
  0
LINE
  5
47E
  8
05
 10
128.1244
 20
183.094188
 30
0.0
 11
128.12442
 21
183.094154
 31
0.0
  0
LINE
  5
47F
  8
05
 10
128.612048
 20
182.522508
 30
0.0
 11
128.603872
 21
182.515432
 31
0.0
  0
LINE
  5
480
  8
05
 10
128.603872
 20
182.515432
 30
0.0
 11
128.462914
 21
182.515432
 31
0.0
  0
LINE
  5
481
  8
05
 10
127.647179
 20
183.094175
 30
0.0
 11
127.647187
 21
183.094188
 31
0.0
  0
LINE
  5
482
  8
05
 10
127.31685
 20
182.522508
 30
0.0
 11
127.308673
 21
182.515432
 31
0.0
  0
LINE
  5
483
  8
05
 10
127.15954
 20
182.522508
 30
0.0
 11
127.167716
 21
182.515432
 31
0.0
  0
LINE
  5
484
  8
05
 10
127.308673
 20
182.515432
 30
0.0
 11
127.167717
 21
182.515432
 31
0.0
  0
POLYLINE
  5
485
  8
05
 66
     1
 10
0.0
 20
0.0
 30
0.0
  0
VERTEX
  5
767
  8
05
 10
126.949338
 20
182.886289
 30
0.0
  0
VERTEX
  5
768
  8
05
 10
127.056106
 20
182.701518
 30
0.0
  0
VERTEX
  5
769
  8
05
 10
127.15954
 20
182.522508
 30
0.0
  0
SEQEND
  5
76A
  8
05
  0
POLYLINE
  5
486
  8
05
 66
     1
 10
0.0
 20
0.0
 30
0.0
  0
VERTEX
  5
76B
  8
05
 10
127.31685
 20
182.522508
 30
0.0
  0
VERTEX
  5
76C
  8
05
 10
127.41725
 20
182.696268
 30
0.0
  0
VERTEX
  5
76D
  8
05
 10
127.550788
 20
182.927367
 30
0.0
  0
VERTEX
  5
76E
  8
05
 10
127.647187
 20
183.094188
 30
0.0
  0
SEQEND
  5
76F
  8
05
  0
POLYLINE
  5
487
  8
05
 66
     1
 10
0.0
 20
0.0
 30
0.0
  0
VERTEX
  5
770
  8
05
 10
128.1244
 20
183.094188
 30
0.0
  0
VERTEX
  5
771
  8
05
 10
128.217766
 20
182.932617
 30
0.0
  0
VERTEX
  5
772
  8
05
 10
128.351303
 20
182.701518
 30
0.0
  0
VERTEX
  5
773
  8
05
 10
128.454737
 20
182.522508
 30
0.0
  0
SEQEND
  5
774
  8
05
  0
LINE
  5
488
  8
025
 10
126.949338
 20
181.856982
 30
0.0
 11
126.915956
 21
182.426741
 31
0.0
  0
LINE
  5
489
  8
025
 10
126.915956
 20
182.426741
 30
0.0
 11
126.816811
 21
182.996551
 31
0.0
  0
LINE
  5
48A
  8
025
 10
126.816856
 20
180.717609
 30
0.0
 11
126.915971
 21
181.287347
 31
0.0
  0
LINE
  5
48B
  8
025
 10
126.915971
 20
181.287347
 30
0.0
 11
126.949338
 21
181.856982
 31
0.0
  0
POLYLINE
  5
48C
  8
05
 66
     1
 10
0.0
 20
0.0
 30
0.0
  0
VERTEX
  5
775
  8
05
 10
127.647179
 20
183.094175
 30
0.0
  0
VERTEX
  5
776
  8
05
 10
127.66039
 20
183.114489
 30
0.0
  0
VERTEX
  5
777
  8
05
 10
127.70324
 20
183.160614
 30
0.0
  0
VERTEX
  5
778
  8
05
 10
127.788628
 20
183.211148
 30
0.0
  0
VERTEX
  5
779
  8
05
 10
127.908057
 20
183.228467
 30
0.0
  0
VERTEX
  5
77A
  8
05
 10
128.018884
 20
183.194603
 30
0.0
  0
VERTEX
  5
77B
  8
05
 10
128.087366
 20
183.142784
 30
0.0
  0
VERTEX
  5
77C
  8
05
 10
128.119658
 20
183.102022
 30
0.0
  0
VERTEX
  5
77D
  8
05
 10
128.12442
 20
183.094154
 30
0.0
  0
SEQEND
  5
77E
  8
05
  0
LINE
  5
48D
  8
025
 10
126.141048
 20
178.970808
 30
0.0
 11
126.429532
 21
179.566894
 31
0.0
  0
LINE
  5
48E
  8
025
 10
126.429532
 20
179.566894
 30
0.0
 11
126.654162
 21
180.145723
 31
0.0
  0
LINE
  5
48F
  8
025
 10
126.654162
 20
180.145723
 30
0.0
 11
126.816856
 21
180.717609
 31
0.0
  0
LINE
  5
490
  8
05
 10
126.949338
 20
180.356466
 30
0.0
 11
126.141048
 21
178.956466
 31
0.0
  0
LINE
  5
491
  8
025
 10
131.828834
 20
182.756893
 30
0.0
 11
131.245933
 21
182.838628
 31
0.0
  0
LINE
  5
492
  8
025
 10
131.653346
 20
182.508925
 30
0.0
 11
131.424494
 21
182.295088
 31
0.0
  0
LINE
  5
493
  8
025
 10
131.653346
 20
182.508925
 30
0.0
 11
131.424494
 21
182.295088
 31
0.0
  0
LINE
  5
494
  8
025
 10
131.424494
 20
182.295088
 30
0.0
 11
131.194419
 21
182.108723
 31
0.0
  0
LINE
  5
495
  8
025
 10
131.424494
 20
182.295088
 30
0.0
 11
131.194419
 21
182.108723
 31
0.0
  0
LINE
  5
496
  8
025
 10
131.828834
 20
182.695037
 30
0.0
 11
131.653346
 21
182.508925
 31
0.0
  0
LINE
  5
497
  8
025
 10
131.828834
 20
182.695037
 30
0.0
 11
131.653346
 21
182.508925
 31
0.0
  0
LINE
  5
498
  8
05
 10
131.828834
 20
182.74809
 30
0.0
 11
131.828834
 21
182.723515
 31
0.0
  0
LINE
  5
499
  8
05
 10
131.828834
 20
182.723515
 30
0.0
 11
131.828834
 21
182.662188
 31
0.0
  0
LINE
  5
49A
  8
05
 10
131.828834
 20
182.666494
 30
0.0
 11
131.828834
 21
182.749669
 31
0.0
  0
LINE
  5
49B
  8
05
 10
131.828834
 20
181.609693
 30
0.0
 11
131.128834
 21
181.539044
 31
0.0
  0
LINE
  5
49C
  8
05
 10
131.128834
 20
181.539044
 30
0.0
 11
131.128834
 21
180.426466
 31
0.0
  0
LINE
  5
49D
  8
05
 10
129.419599
 20
183.094188
 30
0.0
 11
129.419618
 21
183.094154
 31
0.0
  0
LINE
  5
49E
  8
05
 10
128.942378
 20
183.094175
 30
0.0
 11
128.942385
 21
183.094188
 31
0.0
  0
POLYLINE
  5
49F
  8
05
 66
     1
 10
0.0
 20
0.0
 30
0.0
  0
VERTEX
  5
77F
  8
05
 10
129.419599
 20
183.094188
 30
0.0
  0
VERTEX
  5
780
  8
05
 10
129.512964
 20
182.932617
 30
0.0
  0
VERTEX
  5
781
  8
05
 10
129.646501
 20
182.701518
 30
0.0
  0
VERTEX
  5
782
  8
05
 10
129.749936
 20
182.522508
 30
0.0
  0
SEQEND
  5
783
  8
05
  0
LINE
  5
4A0
  8
05
 10
130.428834
 20
182.740514
 30
0.0
 11
130.428834
 21
182.00976
 31
0.0
  0
LINE
  5
4A1
  8
05
 10
130.428834
 20
182.944402
 30
0.0
 11
130.428834
 21
182.740514
 31
0.0
  0
LINE
  5
4A2
  8
05
 10
130.428834
 20
181.482411
 30
0.0
 11
130.428834
 21
181.476466
 31
0.0
  0
LINE
  5
4A3
  8
05
 10
130.428834
 20
181.715403
 30
0.0
 11
130.428834
 21
181.555387
 31
0.0
  0
LINE
  5
4A4
  8
05
 10
130.428834
 20
181.943
 30
0.0
 11
130.428834
 21
181.783743
 31
0.0
  0
LINE
  5
4A5
  8
05
 10
130.399442
 20
181.744849
 30
0.0
 11
130.36325
 21
181.729955
 31
0.0
  0
LINE
  5
4A6
  8
05
 10
130.421447
 20
181.762928
 30
0.0
 11
130.399442
 21
181.744849
 31
0.0
  0
LINE
  5
4A7
  8
05
 10
130.428834
 20
181.783743
 30
0.0
 11
130.421447
 21
181.762928
 31
0.0
  0
LINE
  5
4A8
  8
05
 10
130.428834
 20
181.783743
 30
0.0
 11
130.428834
 21
181.715403
 31
0.0
  0
LINE
  5
4A9
  8
05
 10
130.428834
 20
182.00976
 30
0.0
 11
130.428834
 21
181.943
 31
0.0
  0
LINE
  5
4AA
  8
05
 10
130.421449
 20
182.719824
 30
0.0
 11
130.428834
 21
182.740514
 31
0.0
  0
LINE
  5
4AB
  8
05
 10
130.399444
 20
182.702114
 30
0.0
 11
130.421449
 21
182.719824
 31
0.0
  0
LINE
  5
4AC
  8
025
 10
130.36325
 20
182.687838
 30
0.0
 11
130.399444
 21
182.702114
 31
0.0
  0
LINE
  5
4AD
  8
05
 10
130.428834
 20
181.555387
 30
0.0
 11
130.428834
 21
180.426466
 31
0.0
  0
LINE
  5
4AE
  8
025
 10
129.904322
 20
181.623664
 30
0.0
 11
129.728834
 21
181.616883
 31
0.0
  0
LINE
  5
4AF
  8
025
 10
129.763435
 20
182.590777
 30
0.0
 11
130.06222
 21
182.611129
 31
0.0
  0
LINE
  5
4B0
  8
025
 10
130.311736
 20
182.944091
 30
0.0
 11
129.728834
 21
183.127724
 31
0.0
  0
LINE
  5
4B1
  8
025
 10
130.133175
 20
181.662062
 30
0.0
 11
129.904322
 21
181.623664
 31
0.0
  0
LINE
  5
4B2
  8
05
 10
129.728834
 20
181.616883
 30
0.0
 11
129.728834
 21
182.666466
 31
0.0
  0
LINE
  5
4B3
  8
05
 10
130.311736
 20
181.550863
 30
0.0
 11
129.728834
 21
181.609693
 31
0.0
  0
LINE
  5
4B4
  8
025
 10
130.06222
 20
182.611129
 30
0.0
 11
130.36325
 21
182.687838
 31
0.0
  0
LINE
  5
4B5
  8
025
 10
130.428834
 20
183.076116
 30
0.0
 11
130.311736
 21
182.944091
 31
0.0
  0
LINE
  5
4B6
  8
025
 10
130.428834
 20
183.076116
 30
0.0
 11
130.311736
 21
182.944091
 31
0.0
  0
LINE
  5
4B7
  8
025
 10
130.428834
 20
181.555387
 30
0.0
 11
130.311736
 21
181.550863
 31
0.0
  0
LINE
  5
4B8
  8
025
 10
130.36325
 20
181.729955
 30
0.0
 11
130.133175
 21
181.662062
 31
0.0
  0
LINE
  5
4B9
  8
05
 10
130.428834
 20
181.555387
 30
0.0
 11
130.311736
 21
181.550863
 31
0.0
  0
LINE
  5
4BA
  8
05
 10
131.128834
 20
180.426466
 30
0.0
 11
130.428834
 21
180.426466
 31
0.0
  0
LINE
  5
4BB
  8
05
 10
130.428834
 20
180.426466
 30
0.0
 11
131.128834
 21
180.426466
 31
0.0
  0
POLYLINE
  5
4BC
  8
05
 66
     1
 10
0.0
 20
0.0
 30
0.0
  0
VERTEX
  5
784
  8
05
 10
128.942378
 20
183.094175
 30
0.0
  0
VERTEX
  5
785
  8
05
 10
128.955589
 20
183.114489
 30
0.0
  0
VERTEX
  5
786
  8
05
 10
128.998438
 20
183.160614
 30
0.0
  0
VERTEX
  5
787
  8
05
 10
129.083827
 20
183.211148
 30
0.0
  0
VERTEX
  5
788
  8
05
 10
129.203256
 20
183.228467
 30
0.0
  0
VERTEX
  5
789
  8
05
 10
129.314083
 20
183.194603
 30
0.0
  0
VERTEX
  5
78A
  8
05
 10
129.382565
 20
183.142784
 30
0.0
  0
VERTEX
  5
78B
  8
05
 10
129.414856
 20
183.102022
 30
0.0
  0
VERTEX
  5
78C
  8
05
 10
129.419618
 20
183.094154
 30
0.0
  0
SEQEND
  5
78D
  8
05
  0
LINE
  5
4BD
  8
05
 10
131.128834
 20
183.303873
 30
0.0
 11
131.128834
 21
181.539044
 31
0.0
  0
LINE
  5
4BE
  8
05
 10
131.128834
 20
183.303873
 30
0.0
 11
131.128834
 21
182.944402
 31
0.0
  0
ARC
  5
4BF
  8
05
 10
135.379235
 20
178.990054
 30
0.0
 40
0.2856
 50
270.0
 51
0.0
  0
ARC
  5
4C0
  8
05
 10
133.237235
 20
182.274479
 30
0.0
 40
0.2856
 50
0.0
 51
90.0
  0
ARC
  5
4C1
  8
05
 10
133.808435
 20
178.990054
 30
0.0
 40
0.2856
 50
180.0
 51
270.0
  0
LINE
  5
4C2
  8
05
 10
135.379235
 20
178.704454
 30
0.0
 11
133.808435
 21
178.704454
 31
0.0
  0
LINE
  5
4C3
  8
035
 10
133.237235
 20
187.169009
 30
0.0
 11
131.828834
 21
187.169009
 31
0.0
  0
LINE
  5
4C4
  8
05
 10
131.128834
 20
194.27184
 30
0.0
 11
131.128834
 21
187.596612
 31
0.0
  0
LINE
  5
4C5
  8
05
 10
129.728834
 20
187.391508
 30
0.0
 11
129.728834
 21
191.556466
 31
0.0
  0
LINE
  5
4C6
  8
05
 10
131.828834
 20
191.16077
 30
0.0
 11
131.828834
 21
187.357023
 31
0.0
  0
LINE
  5
4C7
  8
05
 10
131.828834
 20
187.365226
 30
0.0
 11
131.828834
 21
191.162183
 31
0.0
  0
LINE
  5
4C8
  8
05
 10
130.428834
 20
189.374755
 30
0.0
 11
130.428834
 21
188.841093
 31
0.0
  0
LINE
  5
4C9
  8
025
 10
126.652793
 20
188.125847
 30
0.0
 11
126.816029
 21
189.270543
 31
0.0
  0
POLYLINE
  5
4CA
  8
025
 66
     1
 10
0.0
 20
0.0
 30
0.0
  0
VERTEX
  5
78E
  8
025
 10
128.686196
 20
188.462469
 30
0.0
  0
VERTEX
  5
78F
  8
025
 10
128.702533
 20
188.538633
 30
0.0
  0
VERTEX
  5
790
  8
025
 10
128.721561
 20
188.607932
 30
0.0
  0
VERTEX
  5
791
  8
025
 10
128.742824
 20
188.670231
 30
0.0
  0
VERTEX
  5
792
  8
025
 10
128.766052
 20
188.725508
 30
0.0
  0
VERTEX
  5
793
  8
025
 10
128.791335
 20
188.774015
 30
0.0
  0
VERTEX
  5
794
  8
025
 10
128.819392
 20
188.816088
 30
0.0
  0
VERTEX
  5
795
  8
025
 10
128.851747
 20
188.851196
 30
0.0
  0
VERTEX
  5
796
  8
025
 10
128.889591
 20
188.875547
 30
0.0
  0
VERTEX
  5
797
  8
025
 10
128.932112
 20
188.882198
 30
0.0
  0
VERTEX
  5
798
  8
025
 10
128.976077
 20
188.866561
 30
0.0
  0
VERTEX
  5
799
  8
025
 10
129.015283
 20
188.834248
 30
0.0
  0
VERTEX
  5
79A
  8
025
 10
129.05078
 20
188.790028
 30
0.0
  0
VERTEX
  5
79B
  8
025
 10
129.082048
 20
188.73849
 30
0.0
  0
VERTEX
  5
79C
  8
025
 10
129.11026
 20
188.680461
 30
0.0
  0
VERTEX
  5
79D
  8
025
 10
129.136127
 20
188.615501
 30
0.0
  0
VERTEX
  5
79E
  8
025
 10
129.159778
 20
188.542983
 30
0.0
  0
VERTEX
  5
79F
  8
025
 10
129.180871
 20
188.462469
 30
0.0
  0
SEQEND
  5
7A0
  8
025
  0
POLYLINE
  5
4CB
  8
025
 66
     1
 10
0.0
 20
0.0
 30
0.0
  0
VERTEX
  5
7A1
  8
025
 10
127.089889
 20
187.12437
 30
0.0
  0
VERTEX
  5
7A2
  8
025
 10
127.202621
 20
187.575716
 30
0.0
  0
VERTEX
  5
7A3
  8
025
 10
127.303106
 20
188.021827
 30
0.0
  0
VERTEX
  5
7A4
  8
025
 10
127.390998
 20
188.462469
 30
0.0
  0
SEQEND
  5
7A5
  8
025
  0
POLYLINE
  5
4CC
  8
025
 66
     1
 10
0.0
 20
0.0
 30
0.0
  0
VERTEX
  5
7A6
  8
025
 10
127.885673
 20
188.462469
 30
0.0
  0
VERTEX
  5
7A7
  8
025
 10
127.993245
 20
188.021955
 30
0.0
  0
VERTEX
  5
7A8
  8
025
 10
128.112857
 20
187.57587
 30
0.0
  0
VERTEX
  5
7A9
  8
025
 10
128.24413
 20
187.12437
 30
0.0
  0
SEQEND
  5
7AA
  8
025
  0
POLYLINE
  5
4CD
  8
025
 66
     1
 10
0.0
 20
0.0
 30
0.0
  0
VERTEX
  5
7AB
  8
025
 10
128.385087
 20
187.12437
 30
0.0
  0
VERTEX
  5
7AC
  8
025
 10
128.497819
 20
187.575716
 30
0.0
  0
VERTEX
  5
7AD
  8
025
 10
128.598304
 20
188.021827
 30
0.0
  0
VERTEX
  5
7AE
  8
025
 10
128.686196
 20
188.462469
 30
0.0
  0
SEQEND
  5
7AF
  8
025
  0
POLYLINE
  5
4CE
  8
025
 66
     1
 10
0.0
 20
0.0
 30
0.0
  0
VERTEX
  5
7B0
  8
025
 10
127.390998
 20
188.462469
 30
0.0
  0
VERTEX
  5
7B1
  8
025
 10
127.409574
 20
188.54766
 30
0.0
  0
VERTEX
  5
7B2
  8
025
 10
127.431714
 20
188.624877
 30
0.0
  0
VERTEX
  5
7B3
  8
025
 10
127.456949
 20
188.693811
 30
0.0
  0
VERTEX
  5
7B4
  8
025
 10
127.485251
 20
188.754464
 30
0.0
  0
VERTEX
  5
7B5
  8
025
 10
127.517443
 20
188.807001
 30
0.0
  0
VERTEX
  5
7B6
  8
025
 10
127.555357
 20
188.850142
 30
0.0
  0
VERTEX
  5
7B7
  8
025
 10
127.601417
 20
188.878151
 30
0.0
  0
VERTEX
  5
7B8
  8
025
 10
127.655708
 20
188.878232
 30
0.0
  0
VERTEX
  5
7B9
  8
025
 10
127.703095
 20
188.850353
 30
0.0
  0
VERTEX
  5
7BA
  8
025
 10
127.743387
 20
188.806866
 30
0.0
  0
VERTEX
  5
7BB
  8
025
 10
127.778267
 20
188.753888
 30
0.0
  0
VERTEX
  5
7BC
  8
025
 10
127.809256
 20
188.693396
 30
0.0
  0
VERTEX
  5
7BD
  8
025
 10
127.837476
 20
188.624937
 30
0.0
  0
VERTEX
  5
7BE
  8
025
 10
127.86308
 20
188.548055
 30
0.0
  0
VERTEX
  5
7BF
  8
025
 10
127.885673
 20
188.462469
 30
0.0
  0
SEQEND
  5
7C0
  8
025
  0
LINE
  5
4CF
  8
025
 10
126.654092
 20
183.568446
 30
0.0
 11
126.429494
 21
184.147157
 31
0.0
  0
LINE
  5
4D0
  8
025
 10
126.141048
 20
185.784119
 30
0.0
 11
126.428203
 21
186.970213
 31
0.0
  0
LINE
  5
4D1
  8
025
 10
126.429494
 20
184.147157
 30
0.0
 11
126.141048
 21
184.743156
 31
0.0
  0
LINE
  5
4D2
  8
035
 10
126.141048
 20
184.743156
 30
0.0
 11
126.141048
 21
185.256466
 31
0.0
  0
LINE
  5
4D3
  8
035
 10
126.141048
 20
185.256466
 30
0.0
 11
126.141048
 21
185.784119
 31
0.0
  0
LINE
  5
4D4
  8
025
 10
126.428203
 20
186.970213
 30
0.0
 11
126.652793
 21
188.125847
 31
0.0
  0
LINE
  5
4D5
  8
025
 10
131.128834
 20
184.17632
 30
0.0
 11
131.128834
 21
183.697404
 31
0.0
  0
LINE
  5
4D6
  8
05
 10
131.828834
 20
186.236126
 30
0.0
 11
131.828834
 21
183.586546
 31
0.0
  0
LINE
  5
4D7
  8
05
 10
131.828834
 20
183.608445
 30
0.0
 11
131.828834
 21
186.165888
 31
0.0
  0
LINE
  5
4D8
  8
05
 10
131.128834
 20
184.17632
 30
0.0
 11
131.128834
 21
183.697404
 31
0.0
  0
LINE
  5
4D9
  8
025
 10
131.794229
 20
183.608445
 30
0.0
 11
131.159814
 21
183.697404
 31
0.0
  0
LINE
  5
4DA
  8
025
 10
131.794221
 20
186.755783
 30
0.0
 11
131.159806
 21
186.973894
 31
0.0
  0
LINE
  5
4DB
  8
025
 10
131.828834
 20
186.26193
 30
0.0
 11
131.245933
 21
186.462331
 31
0.0
  0
LINE
  5
4DC
  8
025
 10
131.828834
 20
187.255025
 30
0.0
 11
131.228144
 21
187.255025
 31
0.0
  0
LINE
  5
4DD
  8
025
 10
131.653346
 20
185.818467
 30
0.0
 11
131.424494
 21
185.409694
 31
0.0
  0
LINE
  5
4DE
  8
025
 10
131.653346
 20
185.818467
 30
0.0
 11
131.424494
 21
185.409694
 31
0.0
  0
LINE
  5
4DF
  8
025
 10
131.128834
 20
186.973793
 30
0.0
 11
131.128834
 21
186.932897
 31
0.0
  0
LINE
  5
4E0
  8
025
 10
131.128834
 20
186.973793
 30
0.0
 11
131.128834
 21
186.932897
 31
0.0
  0
LINE
  5
4E1
  8
025
 10
131.128834
 20
185.455887
 30
0.0
 11
131.128834
 21
184.898852
 31
0.0
  0
LINE
  5
4E2
  8
025
 10
131.424494
 20
185.409694
 30
0.0
 11
131.194419
 21
185.019006
 31
0.0
  0
LINE
  5
4E3
  8
025
 10
131.424494
 20
185.409694
 30
0.0
 11
131.194419
 21
185.019006
 31
0.0
  0
LINE
  5
4E4
  8
025
 10
131.128834
 20
186.932897
 30
0.0
 11
131.128834
 21
185.455887
 31
0.0
  0
LINE
  5
4E5
  8
025
 10
131.828834
 20
186.147603
 30
0.0
 11
131.653346
 21
185.818467
 31
0.0
  0
LINE
  5
4E6
  8
025
 10
131.828834
 20
186.147603
 30
0.0
 11
131.653346
 21
185.818467
 31
0.0
  0
LINE
  5
4E7
  8
05
 10
131.828834
 20
186.742531
 30
0.0
 11
131.828834
 21
186.236126
 31
0.0
  0
LINE
  5
4E8
  8
05
 10
131.828834
 20
186.24422
 30
0.0
 11
131.828834
 21
186.755783
 31
0.0
  0
LINE
  5
4E9
  8
05
 10
131.828834
 20
186.165888
 30
0.0
 11
131.828834
 21
186.24422
 31
0.0
  0
LINE
  5
4EA
  8
05
 10
131.828834
 20
187.357023
 30
0.0
 11
131.828834
 21
186.742531
 31
0.0
  0
LINE
  5
4EB
  8
05
 10
131.828834
 20
186.755783
 30
0.0
 11
131.828834
 21
187.365226
 31
0.0
  0
LINE
  5
4EC
  8
05
 10
131.128834
 20
184.914225
 30
0.0
 11
131.128834
 21
184.17632
 31
0.0
  0
LINE
  5
4ED
  8
05
 10
131.128834
 20
186.932897
 30
0.0
 11
131.128834
 21
185.455887
 31
0.0
  0
LINE
  5
4EE
  8
05
 10
131.128834
 20
185.455887
 30
0.0
 11
131.128834
 21
184.898852
 31
0.0
  0
LINE
  5
4EF
  8
025
 10
131.194419
 20
185.019006
 30
0.0
 11
131.158227
 21
184.944936
 31
0.0
  0
LINE
  5
4F0
  8
025
 10
131.194419
 20
185.019006
 30
0.0
 11
131.158227
 21
184.944936
 31
0.0
  0
LINE
  5
4F1
  8
05
 10
131.128834
 20
184.961516
 30
0.0
 11
131.128834
 21
184.914225
 31
0.0
  0
LINE
  5
4F2
  8
05
 10
131.128834
 20
184.961516
 30
0.0
 11
131.128834
 21
184.914225
 31
0.0
  0
LINE
  5
4F3
  8
025
 10
131.128834
 20
188.546401
 30
0.0
 11
131.128834
 21
186.973793
 31
0.0
  0
LINE
  5
4F4
  8
025
 10
131.128834
 20
187.596612
 30
0.0
 11
131.228144
 21
187.255025
 31
0.0
  0
LINE
  5
4F5
  8
05
 10
131.128834
 20
188.546401
 30
0.0
 11
131.128834
 21
186.973793
 31
0.0
  0
LINE
  5
4F6
  8
025
 10
129.76343
 20
183.975452
 30
0.0
 11
130.062231
 21
184.319033
 31
0.0
  0
LINE
  5
4F7
  8
025
 10
130.133175
 20
183.680233
 30
0.0
 11
129.904322
 21
183.39989
 31
0.0
  0
LINE
  5
4F8
  8
025
 10
130.36325
 20
183.984193
 30
0.0
 11
130.133175
 21
183.680233
 31
0.0
  0
POLYLINE
  5
4F9
  8
025
 66
     1
 10
0.0
 20
0.0
 30
0.0
  0
VERTEX
  5
7C1
  8
025
 10
129.180871
 20
188.462469
 30
0.0
  0
VERTEX
  5
7C2
  8
025
 10
129.288443
 20
188.021955
 30
0.0
  0
VERTEX
  5
7C3
  8
025
 10
129.408055
 20
187.57587
 30
0.0
  0
VERTEX
  5
7C4
  8
025
 10
129.539328
 20
187.12437
 30
0.0
  0
SEQEND
  5
7C5
  8
025
  0
LINE
  5
4FA
  8
05
 10
130.428834
 20
188.841093
 30
0.0
 11
130.428834
 21
188.546401
 31
0.0
  0
LINE
  5
4FB
  8
025
 10
130.062198
 20
187.966134
 30
0.0
 11
130.36325
 21
188.56245
 31
0.0
  0
LINE
  5
4FC
  8
05
 10
130.428834
 20
185.455887
 30
0.0
 11
130.428834
 21
184.898852
 31
0.0
  0
LINE
  5
4FD
  8
05
 10
130.428834
 20
184.746517
 30
0.0
 11
130.428834
 21
184.17632
 31
0.0
  0
LINE
  5
4FE
  8
025
 10
130.399444
 20
184.767065
 30
0.0
 11
130.421449
 21
184.831289
 31
0.0
  0
LINE
  5
4FF
  8
025
 10
130.36325
 20
184.707565
 30
0.0
 11
130.399444
 21
184.767065
 31
0.0
  0
LINE
  5
500
  8
05
 10
130.428834
 20
184.793808
 30
0.0
 11
130.428834
 21
184.746517
 31
0.0
  0
LINE
  5
501
  8
05
 10
130.428834
 20
184.898852
 30
0.0
 11
130.428834
 21
184.793808
 31
0.0
  0
LINE
  5
502
  8
025
 10
129.728834
 20
187.20494
 30
0.0
 11
129.76343
 21
187.391508
 31
0.0
  0
LINE
  5
503
  8
025
 10
129.970955
 20
186.796552
 30
0.0
 11
129.988822
 21
186.147001
 31
0.0
  0
LINE
  5
504
  8
025
 10
130.311736
 20
186.644998
 30
0.0
 11
129.728834
 21
186.904229
 31
0.0
  0
LINE
  5
505
  8
025
 10
130.019295
 20
185.16192
 30
0.0
 11
130.050171
 21
184.311914
 31
0.0
  0
LINE
  5
506
  8
025
 10
130.050171
 20
184.311914
 30
0.0
 11
130.050462
 21
184.3055
 31
0.0
  0
LINE
  5
507
  8
025
 10
129.988822
 20
186.147001
 30
0.0
 11
130.019295
 21
185.16192
 31
0.0
  0
LINE
  5
508
  8
025
 10
130.428834
 20
186.869147
 30
0.0
 11
130.311736
 21
186.644998
 31
0.0
  0
LINE
  5
509
  8
025
 10
130.428834
 20
186.869147
 30
0.0
 11
130.311736
 21
186.644998
 31
0.0
  0
LINE
  5
50A
  8
025
 10
130.062231
 20
184.319033
 30
0.0
 11
130.36325
 21
184.707565
 31
0.0
  0
LINE
  5
50B
  8
025
 10
129.76343
 20
187.391508
 30
0.0
 11
130.062198
 21
187.966134
 31
0.0
  0
LINE
  5
50C
  8
05
 10
130.428834
 20
188.546401
 30
0.0
 11
130.428834
 21
185.455887
 31
0.0
  0
POLYLINE
  5
50D
  8
025
 66
     1
 10
0.0
 20
0.0
 30
0.0
  0
VERTEX
  5
7C6
  8
025
 10
129.028188
 20
194.561228
 30
0.0
  0
VERTEX
  5
7C7
  8
025
 10
129.011012
 20
194.481648
 30
0.0
  0
VERTEX
  5
7C8
  8
025
 10
128.990974
 20
194.409798
 30
0.0
  0
VERTEX
  5
7C9
  8
025
 10
128.968415
 20
194.345285
 30
0.0
  0
VERTEX
  5
7CA
  8
025
 10
128.943224
 20
194.287491
 30
0.0
  0
VERTEX
  5
7CB
  8
025
 10
128.914738
 20
194.236013
 30
0.0
  0
VERTEX
  5
7CC
  8
025
 10
128.881886
 20
194.191737
 30
0.0
  0
VERTEX
  5
7CD
  8
025
 10
128.844848
 20
194.158869
 30
0.0
  0
VERTEX
  5
7CE
  8
025
 10
128.801903
 20
194.141855
 30
0.0
  0
VERTEX
  5
7CF
  8
025
 10
128.754156
 20
194.148949
 30
0.0
  0
VERTEX
  5
7D0
  8
025
 10
128.710245
 20
194.178521
 30
0.0
  0
VERTEX
  5
7D1
  8
025
 10
128.672062
 20
194.221805
 30
0.0
  0
VERTEX
  5
7D2
  8
025
 10
128.638665
 20
194.273758
 30
0.0
  0
VERTEX
  5
7D3
  8
025
 10
128.608505
 20
194.333425
 30
0.0
  0
VERTEX
  5
7D4
  8
025
 10
128.580829
 20
194.401144
 30
0.0
  0
VERTEX
  5
7D5
  8
025
 10
128.555674
 20
194.477095
 30
0.0
  0
VERTEX
  5
7D6
  8
025
 10
128.533513
 20
194.561228
 30
0.0
  0
SEQEND
  5
7D7
  8
025
  0
POLYLINE
  5
50E
  8
025
 66
     1
 10
0.0
 20
0.0
 30
0.0
  0
VERTEX
  5
7D8
  8
025
 10
127.73299
 20
194.561228
 30
0.0
  0
VERTEX
  5
7D9
  8
025
 10
127.715814
 20
194.481648
 30
0.0
  0
VERTEX
  5
7DA
  8
025
 10
127.695776
 20
194.409798
 30
0.0
  0
VERTEX
  5
7DB
  8
025
 10
127.673217
 20
194.345285
 30
0.0
  0
VERTEX
  5
7DC
  8
025
 10
127.648026
 20
194.287491
 30
0.0
  0
VERTEX
  5
7DD
  8
025
 10
127.61954
 20
194.236013
 30
0.0
  0
VERTEX
  5
7DE
  8
025
 10
127.586688
 20
194.191737
 30
0.0
  0
VERTEX
  5
7DF
  8
025
 10
127.54965
 20
194.158869
 30
0.0
  0
VERTEX
  5
7E0
  8
025
 10
127.506706
 20
194.141855
 30
0.0
  0
VERTEX
  5
7E1
  8
025
 10
127.458958
 20
194.148949
 30
0.0
  0
VERTEX
  5
7E2
  8
025
 10
127.415048
 20
194.178521
 30
0.0
  0
VERTEX
  5
7E3
  8
025
 10
127.376864
 20
194.221806
 30
0.0
  0
VERTEX
  5
7E4
  8
025
 10
127.343467
 20
194.273758
 30
0.0
  0
VERTEX
  5
7E5
  8
025
 10
127.313307
 20
194.333425
 30
0.0
  0
VERTEX
  5
7E6
  8
025
 10
127.285631
 20
194.401145
 30
0.0
  0
VERTEX
  5
7E7
  8
025
 10
127.260477
 20
194.477095
 30
0.0
  0
VERTEX
  5
7E8
  8
025
 10
127.238316
 20
194.561228
 30
0.0
  0
SEQEND
  5
7E9
  8
025
  0
LINE
  5
50F
  8
025
 10
126.915727
 20
190.413043
 30
0.0
 11
126.949338
 21
191.556466
 31
0.0
  0
LINE
  5
510
  8
025
 10
126.949338
 20
191.556466
 30
0.0
 11
126.915438
 21
192.70482
 31
0.0
  0
LINE
  5
511
  8
025
 10
126.915438
 20
192.70482
 30
0.0
 11
126.815043
 21
193.85091
 31
0.0
  0
LINE
  5
512
  8
025
 10
126.816029
 20
189.270543
 30
0.0
 11
126.915727
 21
190.413043
 31
0.0
  0
LINE
  5
513
  8
025
 10
131.653346
 20
190.665501
 30
0.0
 11
131.424494
 21
190.171322
 31
0.0
  0
LINE
  5
514
  8
025
 10
131.653346
 20
190.665501
 30
0.0
 11
131.424494
 21
190.171322
 31
0.0
  0
LINE
  5
515
  8
025
 10
131.424494
 20
190.171322
 30
0.0
 11
131.194419
 21
189.680997
 31
0.0
  0
LINE
  5
516
  8
025
 10
131.424494
 20
190.171322
 30
0.0
 11
131.194419
 21
189.680997
 31
0.0
  0
LINE
  5
517
  8
025
 10
131.194419
 20
194.845518
 30
0.0
 11
131.194419
 21
194.550483
 31
0.0
  0
LINE
  5
518
  8
025
 10
131.194419
 20
194.845518
 30
0.0
 11
131.194419
 21
194.550483
 31
0.0
  0
LINE
  5
519
  8
025
 10
131.158225
 20
194.461703
 30
0.0
 11
131.194419
 21
194.550483
 31
0.0
  0
LINE
  5
51A
  8
025
 10
131.158225
 20
194.461703
 30
0.0
 11
131.194419
 21
194.550483
 31
0.0
  0
LINE
  5
51B
  8
025
 10
131.194419
 20
194.845518
 30
0.0
 11
131.158227
 21
194.756553
 31
0.0
  0
LINE
  5
51C
  8
025
 10
131.194419
 20
194.845518
 30
0.0
 11
131.158227
 21
194.756553
 31
0.0
  0
LINE
  5
51D
  8
025
 10
131.685119
 20
194.170847
 30
0.0
 11
131.647684
 21
194.213282
 31
0.0
  0
LINE
  5
51E
  8
025
 10
131.647684
 20
194.213282
 30
0.0
 11
131.614942
 21
194.264216
 31
0.0
  0
LINE
  5
51F
  8
025
 10
131.614942
 20
194.264216
 30
0.0
 11
131.585374
 21
194.322713
 31
0.0
  0
LINE
  5
520
  8
025
 10
131.585374
 20
194.322713
 30
0.0
 11
131.55824
 21
194.389105
 31
0.0
  0
LINE
  5
521
  8
025
 10
131.55824
 20
194.389105
 30
0.0
 11
131.533579
 21
194.463566
 31
0.0
  0
LINE
  5
522
  8
025
 10
131.533579
 20
194.463566
 30
0.0
 11
131.511853
 21
194.546048
 31
0.0
  0
LINE
  5
523
  8
05
 10
131.728169
 20
194.141855
 30
0.0
 11
131.685119
 21
194.170847
 31
0.0
  0
LINE
  5
524
  8
05
 10
131.77498
 20
194.134899
 30
0.0
 11
131.728169
 21
194.141855
 31
0.0
  0
LINE
  5
525
  8
05
 10
131.817082
 20
194.15158
 30
0.0
 11
131.77498
 21
194.134899
 31
0.0
  0
LINE
  5
526
  8
05
 10
131.828834
 20
194.162009
 30
0.0
 11
131.817082
 21
194.15158
 31
0.0
  0
LINE
  5
527
  8
05
 10
131.128834
 20
194.27184
 30
0.0
 11
131.128834
 21
193.738178
 31
0.0
  0
LINE
  5
528
  8
05
 10
131.128834
 20
194.566532
 30
0.0
 11
131.128834
 21
194.27184
 31
0.0
  0
LINE
  5
529
  8
05
 10
131.128834
 20
194.566532
 30
0.0
 11
131.128834
 21
194.27184
 31
0.0
  0
LINE
  5
52A
  8
025
 10
131.828834
 20
191.185635
 30
0.0
 11
131.245933
 21
191.451003
 31
0.0
  0
LINE
  5
52B
  8
025
 10
131.828834
 20
191.04947
 30
0.0
 11
131.653346
 21
190.665501
 31
0.0
  0
LINE
  5
52C
  8
025
 10
131.828834
 20
191.04947
 30
0.0
 11
131.653346
 21
190.665501
 31
0.0
  0
LINE
  5
52D
  8
05
 10
131.828834
 20
191.556466
 30
0.0
 11
131.828834
 21
191.16077
 31
0.0
  0
LINE
  5
52E
  8
05
 10
131.828834
 20
191.162183
 30
0.0
 11
131.828834
 21
191.556466
 31
0.0
  0
LINE
  5
52F
  8
05
 10
130.428834
 20
191.634734
 30
0.0
 11
130.428834
 21
189.602017
 31
0.0
  0
LINE
  5
530
  8
05
 10
130.428834
 20
189.602017
 30
0.0
 11
130.428834
 21
189.389906
 31
0.0
  0
LINE
  5
531
  8
05
 10
130.428834
 20
189.389906
 30
0.0
 11
130.428834
 21
189.374755
 31
0.0
  0
LINE
  5
532
  8
025
 10
130.428834
 20
194.161745
 30
0.0
 11
130.41532
 21
194.170846
 31
0.0
  0
LINE
  5
533
  8
025
 10
130.41532
 20
194.170846
 30
0.0
 11
130.377885
 21
194.213282
 31
0.0
  0
LINE
  5
534
  8
025
 10
130.377885
 20
194.213282
 30
0.0
 11
130.345143
 21
194.264216
 31
0.0
  0
LINE
  5
535
  8
05
 10
130.428834
 20
194.566532
 30
0.0
 11
130.428834
 21
194.27184
 31
0.0
  0
LINE
  5
536
  8
05
 10
130.428834
 20
194.27184
 30
0.0
 11
130.428834
 21
193.738178
 31
0.0
  0
LINE
  5
537
  8
05
 10
130.428834
 20
193.510916
 30
0.0
 11
130.428834
 21
191.634734
 31
0.0
  0
LINE
  5
538
  8
05
 10
130.421447
 20
193.623754
 30
0.0
 11
130.399442
 21
193.526064
 31
0.0
  0
LINE
  5
539
  8
05
 10
130.428834
 20
193.723027
 30
0.0
 11
130.421447
 21
193.623754
 31
0.0
  0
LINE
  5
53A
  8
05
 10
130.399442
 20
193.526064
 30
0.0
 11
130.36325
 21
193.431936
 31
0.0
  0
LINE
  5
53B
  8
05
 10
130.428834
 20
193.723027
 30
0.0
 11
130.428834
 21
193.510916
 31
0.0
  0
LINE
  5
53C
  8
05
 10
130.428834
 20
193.738178
 30
0.0
 11
130.428834
 21
193.723027
 31
0.0
  0
LINE
  5
53D
  8
025
 10
130.315575
 20
194.322712
 30
0.0
 11
130.288441
 21
194.389104
 31
0.0
  0
LINE
  5
53E
  8
025
 10
130.288441
 20
194.389104
 30
0.0
 11
130.26378
 21
194.463566
 31
0.0
  0
LINE
  5
53F
  8
025
 10
130.26378
 20
194.463566
 30
0.0
 11
130.242053
 21
194.546048
 31
0.0
  0
LINE
  5
540
  8
025
 10
130.311736
 20
191.66193
 30
0.0
 11
129.728834
 21
191.927298
 31
0.0
  0
LINE
  5
541
  8
025
 10
129.904322
 20
192.447432
 30
0.0
 11
129.728834
 21
192.063463
 31
0.0
  0
LINE
  5
542
  8
025
 10
130.133175
 20
192.941611
 30
0.0
 11
129.904322
 21
192.447432
 31
0.0
  0
LINE
  5
543
  8
025
 10
130.36325
 20
193.431936
 30
0.0
 11
130.133175
 21
192.941611
 31
0.0
  0
LINE
  5
544
  8
025
 10
130.311736
 20
191.66193
 30
0.0
 11
130.397865
 21
191.634734
 31
0.0
  0
LINE
  5
545
  8
025
 10
130.311736
 20
191.66193
 30
0.0
 11
130.397865
 21
191.634734
 31
0.0
  0
LINE
  5
546
  8
025
 10
130.345143
 20
194.264216
 30
0.0
 11
130.315575
 21
194.322712
 31
0.0
  0
LINE
  5
547
  8
05
 10
135.664835
 20
184.819399
 30
0.0
 11
135.664835
 21
183.63125
 31
0.0
  0
LINE
  5
548
  8
05
 10
135.650856
 20
185.738339
 30
0.0
 11
135.61029
 21
185.738339
 31
0.0
  0
LINE
  5
549
  8
05
 10
135.664835
 20
185.738339
 30
0.0
 11
135.650856
 21
185.738339
 31
0.0
  0
LINE
  5
54A
  8
05
 10
135.651039
 20
184.743431
 30
0.0
 11
135.610504
 21
184.674248
 31
0.0
  0
LINE
  5
54B
  8
05
 10
135.664835
 20
184.819373
 30
0.0
 11
135.651039
 21
184.743431
 31
0.0
  0
LINE
  5
54C
  8
05
 10
135.664835
 20
185.738339
 30
0.0
 11
135.664835
 21
184.819373
 31
0.0
  0
LINE
  5
54D
  8
05
 10
135.664835
 20
184.819373
 30
0.0
 11
135.664835
 21
185.738377
 31
0.0
  0
LINE
  5
54E
  8
05
 10
135.610504
 20
184.674248
 30
0.0
 11
135.547193
 21
184.619328
 31
0.0
  0
LINE
  5
54F
  8
05
 10
135.547193
 20
184.619328
 30
0.0
 11
135.467358
 21
184.584105
 31
0.0
  0
LINE
  5
550
  8
05
 10
135.467358
 20
184.584105
 30
0.0
 11
135.379235
 21
184.572037
 31
0.0
  0
LINE
  5
551
  8
05
 10
135.61029
 20
185.738339
 30
0.0
 11
135.547106
 21
185.738339
 31
0.0
  0
LINE
  5
552
  8
05
 10
135.547106
 20
185.738339
 30
0.0
 11
135.46749
 21
185.738339
 31
0.0
  0
LINE
  5
553
  8
05
 10
135.46749
 20
185.738339
 30
0.0
 11
135.379235
 21
185.738339
 31
0.0
  0
LINE
  5
554
  8
05
 10
133.53663
 20
185.738339
 30
0.0
 11
133.577165
 21
185.738339
 31
0.0
  0
LINE
  5
555
  8
05
 10
133.522835
 20
185.738339
 30
0.0
 11
133.53663
 21
185.738339
 31
0.0
  0
LINE
  5
556
  8
05
 10
133.237235
 20
187.169009
 30
0.0
 11
133.348272
 21
187.163162
 31
0.0
  0
LINE
  5
557
  8
05
 10
133.348272
 20
187.163162
 30
0.0
 11
133.440941
 21
187.146823
 31
0.0
  0
LINE
  5
558
  8
05
 10
133.440941
 20
187.146823
 30
0.0
 11
133.501784
 21
187.122908
 31
0.0
  0
LINE
  5
559
  8
05
 10
133.501784
 20
187.122908
 30
0.0
 11
133.522835
 21
187.095265
 31
0.0
  0
LINE
  5
55A
  8
05
 10
133.536813
 20
184.742942
 30
0.0
 11
133.577379
 21
184.673993
 31
0.0
  0
LINE
  5
55B
  8
05
 10
133.522835
 20
184.819373
 30
0.0
 11
133.536813
 21
184.742942
 31
0.0
  0
LINE
  5
55C
  8
05
 10
133.522835
 20
185.738339
 30
0.0
 11
133.522835
 21
184.819353
 31
0.0
  0
LINE
  5
55D
  8
05
 10
133.720179
 20
184.584142
 30
0.0
 11
133.808435
 21
184.572037
 31
0.0
  0
LINE
  5
55E
  8
05
 10
133.577379
 20
184.673993
 30
0.0
 11
133.640563
 21
184.619274
 31
0.0
  0
LINE
  5
55F
  8
05
 10
133.640563
 20
184.619274
 30
0.0
 11
133.720179
 21
184.584142
 31
0.0
  0
LINE
  5
560
  8
05
 10
133.720311
 20
185.738339
 30
0.0
 11
133.808435
 21
185.738339
 31
0.0
  0
LINE
  5
561
  8
05
 10
133.577165
 20
185.738339
 30
0.0
 11
133.640476
 21
185.738339
 31
0.0
  0
LINE
  5
562
  8
05
 10
133.640476
 20
185.738339
 30
0.0
 11
133.720311
 21
185.738339
 31
0.0
  0
LINE
  5
563
  8
05
 10
133.808435
 20
184.572037
 30
0.0
 11
135.379235
 21
184.572037
 31
0.0
  0
LINE
  5
564
  8
05
 10
135.379235
 20
185.738339
 30
0.0
 11
133.808435
 21
185.738339
 31
0.0
  0
LINE
  5
565
  8
05
 10
110.289275
 20
199.410479
 30
0.0
 11
107.433275
 21
199.410479
 31
0.0
  0
ARC
  5
566
  8
035
 10
108.861275
 20
205.491006
 30
0.0
 40
7.180709
 50
258.529338
 51
281.470662
  0
TEXT
  5
567
  8
BEM1
 62
     4
 10
105.660218
 20
207.846292
 30
0.0
 40
2.5
  1
[.433"]
 41
0.7
 51
15.0
  0
LINE
  5
568
  8
BEM1
 10
102.820835
 20
212.339055
 30
0.0
 11
118.528835
 21
212.339055
 31
0.0
  0
SOLID
  5
569
  8
BEM1
 10
105.819635
 20
217.564858
 30
0.0
 11
105.819635
 21
218.564458
 31
0.0
 12
102.820835
 22
218.064658
 32
0.0
 13
102.820835
 23
218.064658
 33
0.0
  0
LINE
  5
56A
  8
BEM1
 10
102.820835
 20
199.738894
 30
0.0
 11
102.820835
 21
218.921458
 31
0.0
  0
LINE
  5
56B
  8
05
 10
107.433275
 20
198.453719
 30
0.0
 11
103.106435
 21
198.453719
 31
0.0
  0
LINE
  5
56C
  8
05
 10
107.433275
 20
198.453719
 30
0.0
 11
103.106435
 21
198.453719
 31
0.0
  0
ARC
  5
56D
  8
05
 10
103.106435
 20
198.168119
 30
0.0
 40
0.2856
 50
90.0
 51
180.0
  0
ARC
  5
56E
  8
05
 10
103.106435
 20
198.168119
 30
0.0
 40
0.2856
 50
90.0
 51
180.0
  0
LINE
  5
56F
  8
05
 10
102.820835
 20
197.920558
 30
0.0
 11
102.820835
 21
197.769389
 31
0.0
  0
LINE
  5
570
  8
05
 10
102.820835
 20
197.896799
 30
0.0
 11
102.820835
 21
197.76999
 31
0.0
  0
LINE
  5
571
  8
05
 10
102.820835
 20
198.168119
 30
0.0
 11
102.820835
 21
197.920558
 31
0.0
  0
LINE
  5
572
  8
05
 10
102.820835
 20
198.168119
 30
0.0
 11
102.820835
 21
197.896799
 31
0.0
  0
LINE
  5
573
  8
05
 10
107.433275
 20
198.453719
 30
0.0
 11
107.433275
 21
199.410479
 31
0.0
  0
LINE
  5
574
  8
05
 10
107.433275
 20
198.453719
 30
0.0
 11
107.433275
 21
199.410479
 31
0.0
  0
SOLID
  5
575
  8
BEM1
 10
105.819635
 20
211.839255
 30
0.0
 11
105.819635
 21
212.838855
 31
0.0
 12
102.820835
 22
212.339055
 32
0.0
 13
102.820835
 23
212.339055
 33
0.0
  0
LINE
  5
576
  8
05
 10
126.141048
 20
204.156466
 30
0.0
 11
121.457629
 21
204.156466
 31
0.0
  0
LINE
  5
577
  8
035
 10
121.457629
 20
198.369777
 30
0.0
 11
126.141048
 21
198.369777
 31
0.0
  0
LINE
  5
578
  8
035
 10
121.457629
 20
197.328814
 30
0.0
 11
126.141048
 21
197.328814
 31
0.0
  0
TEXT
  5
579
  8
BEM1
 62
     4
 10
123.160633
 20
207.846292
 30
0.0
 40
2.5
  1
[.059"]
 41
0.7
 51
15.0
  0
LINE
  5
57A
  8
BEM1
 10
118.528835
 20
200.931151
 30
0.0
 11
118.528835
 21
213.195855
 31
0.0
  0
LINE
  5
57B
  8
05
 10
118.528835
 20
198.453719
 30
0.0
 11
110.289275
 21
198.453719
 31
0.0
  0
LINE
  5
57C
  8
05
 10
118.528835
 20
198.453719
 30
0.0
 11
110.289275
 21
198.453719
 31
0.0
  0
LINE
  5
57D
  8
05
 10
110.289275
 20
198.453719
 30
0.0
 11
110.289275
 21
199.410479
 31
0.0
  0
LINE
  5
57E
  8
05
 10
110.289275
 20
198.453719
 30
0.0
 11
110.289275
 21
199.410479
 31
0.0
  0
LINE
  5
57F
  8
025
 10
120.682706
 20
200.686316
 30
0.0
 11
120.649338
 21
201.255951
 31
0.0
  0
LINE
  5
580
  8
05
 10
120.649338
 20
200.446466
 30
0.0
 11
120.649338
 21
201.255951
 31
0.0
  0
LINE
  5
581
  8
025
 10
120.944515
 20
199.544692
 30
0.0
 11
120.78182
 21
200.116578
 31
0.0
  0
LINE
  5
582
  8
035
 10
118.775676
 20
196.676289
 30
0.0
 11
118.793138
 21
195.663526
 31
0.0
  0
LINE
  5
583
  8
035
 10
119.566052
 20
196.879364
 30
0.0
 11
119.594031
 21
195.857908
 31
0.0
  0
LINE
  5
584
  8
025
 10
120.78182
 20
200.116578
 30
0.0
 11
120.682706
 21
200.686316
 31
0.0
  0
LINE
  5
585
  8
05
 10
120.649338
 20
200.442086
 30
0.0
 11
120.649338
 21
200.446466
 31
0.0
  0
LINE
  5
586
  8
05
 10
119.624179
 20
200.199177
 30
0.0
 11
119.525747
 21
200.369529
 31
0.0
  0
LINE
  5
587
  8
05
 10
120.641321
 20
200.369529
 30
0.0
 11
120.649338
 21
200.376466
 31
0.0
  0
LINE
  5
588
  8
05
 10
120.641321
 20
200.369529
 30
0.0
 11
120.539915
 21
200.194029
 31
0.0
  0
LINE
  5
589
  8
05
 10
119.755097
 20
199.972609
 30
0.0
 11
119.624179
 21
200.199177
 31
0.0
  0
LINE
  5
58A
  8
05
 10
120.539915
 20
200.194029
 30
0.0
 11
120.408996
 21
199.967462
 31
0.0
  0
LINE
  5
58B
  8
05
 10
119.270115
 20
200.194029
 30
0.0
 11
119.139196
 21
199.967462
 31
0.0
  0
LINE
  5
58C
  8
05
 10
119.379573
 20
200.376466
 30
0.0
 11
119.397325
 21
200.342324
 31
0.0
  0
LINE
  5
58D
  8
05
 10
119.517731
 20
200.376466
 30
0.0
 11
119.379537
 21
200.376466
 31
0.0
  0
LINE
  5
58E
  8
05
 10
119.371521
 20
200.369529
 30
0.0
 11
119.379573
 21
200.376466
 31
0.0
  0
LINE
  5
58F
  8
05
 10
119.525747
 20
200.369529
 30
0.0
 11
119.517739
 21
200.376466
 31
0.0
  0
LINE
  5
590
  8
05
 10
119.371521
 20
200.369529
 30
0.0
 11
119.270115
 21
200.194029
 31
0.0
  0
LINE
  5
591
  8
035
 10
119.397325
 20
200.342324
 30
0.0
 11
119.425507
 21
200.14927
 31
0.0
  0
LINE
  5
592
  8
05
 10
119.873497
 20
199.775156
 30
0.0
 11
119.849603
 21
199.809064
 31
0.0
  0
LINE
  5
593
  8
05
 10
119.925693
 20
199.72758
 30
0.0
 11
119.873497
 21
199.775156
 31
0.0
  0
LINE
  5
594
  8
05
 10
120.019042
 20
199.684658
 30
0.0
 11
119.925693
 21
199.72758
 31
0.0
  0
LINE
  5
595
  8
05
 10
120.287963
 20
199.768706
 30
0.0
 11
120.23065
 21
199.720418
 31
0.0
  0
LINE
  5
596
  8
05
 10
120.315054
 20
199.804994
 30
0.0
 11
120.287963
 21
199.768706
 31
0.0
  0
LINE
  5
597
  8
05
 10
120.317473
 20
199.809079
 30
0.0
 11
120.315054
 21
199.804994
 31
0.0
  0
LINE
  5
598
  8
05
 10
120.317473
 20
199.809079
 30
0.0
 11
120.326021
 21
199.816466
 31
0.0
  0
LINE
  5
599
  8
05
 10
119.849603
 20
199.809064
 30
0.0
 11
119.849606
 21
199.809059
 31
0.0
  0
LINE
  5
59A
  8
05
 10
120.317462
 20
199.809059
 30
0.0
 11
120.317473
 21
199.809079
 31
0.0
  0
LINE
  5
59B
  8
05
 10
120.23065
 20
199.720418
 30
0.0
 11
120.133567
 21
199.681404
 31
0.0
  0
LINE
  5
59C
  8
05
 10
120.133567
 20
199.681404
 30
0.0
 11
120.019042
 21
199.684658
 31
0.0
  0
LINE
  5
59D
  8
05
 10
118.902653
 20
199.692066
 30
0.0
 11
118.784094
 21
199.678208
 31
0.0
  0
LINE
  5
59E
  8
05
 10
118.994013
 20
199.745056
 30
0.0
 11
118.902653
 21
199.692066
 31
0.0
  0
LINE
  5
59F
  8
05
 10
119.040019
 20
199.796775
 30
0.0
 11
118.994013
 21
199.745056
 31
0.0
  0
LINE
  5
5A0
  8
035
 10
119.48145
 20
199.27855
 30
0.0
 11
119.509688
 21
198.609761
 31
0.0
  0
LINE
  5
5A1
  8
035
 10
119.453435
 20
199.793352
 30
0.0
 11
119.48145
 21
199.27855
 31
0.0
  0
LINE
  5
5A2
  8
035
 10
119.537961
 20
197.802419
 30
0.0
 11
119.566052
 21
196.879364
 31
0.0
  0
LINE
  5
5A3
  8
035
 10
119.509688
 20
198.609761
 30
0.0
 11
119.537961
 21
197.802419
 31
0.0
  0
LINE
  5
5A4
  8
05
 10
120.408996
 20
199.967462
 30
0.0
 11
120.317462
 21
199.809059
 31
0.0
  0
LINE
  5
5A5
  8
05
 10
119.849606
 20
199.809059
 30
0.0
 11
119.755097
 21
199.972609
 31
0.0
  0
LINE
  5
5A6
  8
05
 10
119.139196
 20
199.967462
 30
0.0
 11
119.047662
 21
199.80906
 31
0.0
  0
LINE
  5
5A7
  8
035
 10
119.425507
 20
200.14927
 30
0.0
 11
119.453435
 21
199.793352
 31
0.0
  0
LINE
  5
5A8
  8
05
 10
118.696679
 20
199.703742
 30
0.0
 11
118.706064
 21
199.625467
 31
0.0
  0
LINE
  5
5A9
  8
05
 10
118.695911
 20
199.703543
 30
0.0
 11
118.696679
 21
199.703742
 31
0.0
  0
LINE
  5
5AA
  8
05
 10
118.528834
 20
199.396409
 30
0.0
 11
118.528834
 21
199.536363
 31
0.0
  0
LINE
  5
5AB
  8
05
 10
118.528834
 20
199.325768
 30
0.0
 11
118.528834
 21
199.396409
 31
0.0
  0
LINE
  5
5AC
  8
05
 10
118.528834
 20
199.265816
 30
0.0
 11
118.528834
 21
199.325768
 31
0.0
  0
LINE
  5
5AD
  8
05
 10
118.528834
 20
198.318466
 30
0.0
 11
118.528834
 21
198.411698
 31
0.0
  0
LINE
  5
5AE
  8
05
 10
118.528834
 20
198.411698
 30
0.0
 11
118.528834
 21
198.486466
 31
0.0
  0
LINE
  5
5AF
  8
05
 10
118.528834
 20
198.486466
 30
0.0
 11
118.528834
 21
199.265816
 31
0.0
  0
LINE
  5
5B0
  8
05
 10
118.695925
 20
199.703558
 30
0.0
 11
118.528834
 21
199.536466
 31
0.0
  0
LINE
  5
5B1
  8
035
 10
118.71767
 20
199.36596
 30
0.0
 11
118.730448
 21
198.930191
 31
0.0
  0
LINE
  5
5B2
  8
035
 10
118.730448
 20
198.930191
 30
0.0
 11
118.744372
 21
198.327457
 31
0.0
  0
LINE
  5
5B3
  8
035
 10
118.706064
 20
199.625467
 30
0.0
 11
118.71767
 21
199.36596
 31
0.0
  0
LINE
  5
5B4
  8
035
 10
118.744372
 20
198.327457
 30
0.0
 11
118.759439
 21
197.570713
 31
0.0
  0
LINE
  5
5B5
  8
05
 10
118.784094
 20
199.678208
 30
0.0
 11
118.696681
 21
199.703744
 31
0.0
  0
LINE
  5
5B6
  8
035
 10
118.759439
 20
197.570713
 30
0.0
 11
118.775676
 21
196.676289
 31
0.0
  0
LINE
  5
5B7
  8
025
 10
119.483476
 20
195.415271
 30
0.0
 11
119.384965
 21
194.977908
 31
0.0
  0
LINE
  5
5B8
  8
025
 10
119.978161
 20
194.97804
 30
0.0
 11
119.86089
 21
195.415379
 31
0.0
  0
LINE
  5
5B9
  8
025
 10
119.594031
 20
195.857908
 30
0.0
 11
119.483476
 21
195.415271
 31
0.0
  0
LINE
  5
5BA
  8
025
 10
119.86089
 20
195.415379
 30
0.0
 11
119.732225
 21
195.857908
 31
0.0
  0
LINE
  5
5BB
  8
025
 10
121.172071
 20
196.150016
 30
0.0
 11
121.457629
 21
197.328814
 31
0.0
  0
LINE
  5
5BC
  8
025
 10
121.457629
 20
198.369777
 30
0.0
 11
121.169145
 21
198.965863
 31
0.0
  0
LINE
  5
5BD
  8
025
 10
121.169145
 20
198.965863
 30
0.0
 11
120.944515
 21
199.544692
 31
0.0
  0
LINE
  5
5BE
  8
035
 10
121.457629
 20
197.328814
 30
0.0
 11
121.457629
 21
197.856466
 31
0.0
  0
LINE
  5
5BF
  8
035
 10
121.457629
 20
197.856466
 30
0.0
 11
121.457629
 21
198.369777
 31
0.0
  0
LINE
  5
5C0
  8
025
 10
120.947521
 20
194.996759
 30
0.0
 11
121.172071
 21
196.150016
 31
0.0
  0
LINE
  5
5C1
  8
025
 10
120.781865
 20
202.39552
 30
0.0
 11
120.944584
 21
202.967416
 31
0.0
  0
LINE
  5
5C2
  8
05
 10
121.457629
 20
204.156466
 30
0.0
 11
120.649338
 21
202.756466
 31
0.0
  0
LINE
  5
5C3
  8
025
 10
120.68272
 20
201.82571
 30
0.0
 11
120.781865
 21
202.39552
 31
0.0
  0
LINE
  5
5C4
  8
05
 10
120.649338
 20
201.255951
 30
0.0
 11
120.649338
 21
202.756466
 31
0.0
  0
LINE
  5
5C5
  8
025
 10
120.649338
 20
201.255951
 30
0.0
 11
120.68272
 21
201.82571
 31
0.0
  0
LINE
  5
5C6
  8
025
 10
121.169183
 20
203.546126
 30
0.0
 11
121.457629
 21
204.142125
 31
0.0
  0
LINE
  5
5C7
  8
025
 10
120.944584
 20
202.967416
 30
0.0
 11
121.169183
 21
203.546126
 31
0.0
  0
SOLID
  5
5C8
  8
BEM1
 10
115.530035
 20
211.839255
 30
0.0
 11
115.530035
 21
212.838855
 31
0.0
 12
118.528835
 22
212.339055
 32
0.0
 13
118.528835
 23
212.339055
 33
0.0
  0
TEXT
  5
5C9
  8
BEM1
 62
     3
 10
109.20146
 20
213.596292
 30
0.0
 40
3.0
  1
11
 41
0.8
 51
15.0
  0
POINT
  5
5CA
  8
BEM1
 10
118.528835
 20
212.339055
 30
0.0
  0
LINE
  5
5CB
  8
035
 10
133.237235
 20
195.94395
 30
0.0
 11
131.828834
 21
195.94395
 31
0.0
  0
LINE
  5
5CC
  8
05
 10
133.237235
 20
200.552879
 30
0.0
 11
131.828834
 21
200.552879
 31
0.0
  0
LINE
  5
5CD
  8
05
 10
131.794235
 20
200.522172
 30
0.0
 11
131.828834
 21
200.914265
 31
0.0
  0
LINE
  5
5CE
  8
05
 10
131.828834
 20
200.522172
 30
0.0
 11
131.828834
 21
201.49804
 31
0.0
  0
LINE
  5
5CF
  8
05
 10
131.828834
 20
201.512591
 30
0.0
 11
131.828834
 21
200.531622
 31
0.0
  0
LINE
  5
5D0
  8
025
 10
131.794235
 20
200.522172
 30
0.0
 11
131.828834
 21
200.914265
 31
0.0
  0
LINE
  5
5D1
  8
05
 10
131.128834
 20
201.530635
 30
0.0
 11
131.128834
 21
200.372419
 31
0.0
  0
LINE
  5
5D2
  8
05
 10
130.428834
 20
201.103173
 30
0.0
 11
130.428834
 21
200.372419
 31
0.0
  0
LINE
  5
5D3
  8
025
 10
126.915971
 20
200.686316
 30
0.0
 11
126.949338
 21
201.255951
 31
0.0
  0
LINE
  5
5D4
  8
025
 10
130.133175
 20
200.817845
 30
0.0
 11
129.904322
 21
200.604008
 31
0.0
  0
LINE
  5
5D5
  8
05
 10
129.728834
 20
200.446466
 30
0.0
 11
129.728834
 21
201.50324
 31
0.0
  0
POLYLINE
  5
5D6
  8
05
 66
     1
 10
0.0
 20
0.0
 30
0.0
  0
VERTEX
  5
7EA
  8
05
 10
129.102336
 20
200.501189
 30
0.0
  0
VERTEX
  5
7EB
  8
05
 10
128.998902
 20
200.322179
 30
0.0
  0
VERTEX
  5
7EC
  8
05
 10
128.865365
 20
200.09108
 30
0.0
  0
VERTEX
  5
7ED
  8
05
 10
128.771999
 20
199.929509
 30
0.0
  0
SEQEND
  5
7EE
  8
05
  0
POLYLINE
  5
5D7
  8
035
 66
     1
 10
0.0
 20
0.0
 30
0.0
  0
VERTEX
  5
7EF
  8
035
 10
127.815306
 20
200.508265
 30
0.0
  0
VERTEX
  5
7F0
  8
035
 10
127.844701
 20
200.417009
 30
0.0
  0
VERTEX
  5
7F1
  8
035
 10
127.876035
 20
200.120788
 30
0.0
  0
VERTEX
  5
7F2
  8
035
 10
127.907046
 20
199.632122
 30
0.0
  0
VERTEX
  5
7F3
  8
035
 10
127.938043
 20
198.960355
 30
0.0
  0
VERTEX
  5
7F4
  8
035
 10
127.968992
 20
198.12192
 30
0.0
  0
VERTEX
  5
7F5
  8
035
 10
127.999976
 20
197.133557
 30
0.0
  0
VERTEX
  5
7F6
  8
035
 10
128.0341
 20
195.899327
 30
0.0
  0
SEQEND
  5
7F7
  8
035
  0
LINE
  5
5D8
  8
05
 10
128.771999
 20
199.929509
 30
0.0
 11
128.772019
 21
199.929543
 31
0.0
  0
LINE
  5
5D9
  8
05
 10
128.294778
 20
199.929522
 30
0.0
 11
128.294786
 21
199.929509
 31
0.0
  0
LINE
  5
5DA
  8
05
 10
127.964449
 20
200.501189
 30
0.0
 11
127.956272
 21
200.508265
 31
0.0
  0
LINE
  5
5DB
  8
05
 10
127.807139
 20
200.501189
 30
0.0
 11
127.815306
 21
200.508265
 31
0.0
  0
LINE
  5
5DC
  8
05
 10
127.956272
 20
200.508265
 30
0.0
 11
127.815316
 21
200.508265
 31
0.0
  0
LINE
  5
5DD
  8
05
 10
127.476802
 20
199.929509
 30
0.0
 11
127.476822
 21
199.929543
 31
0.0
  0
LINE
  5
5DE
  8
05
 10
126.999581
 20
199.929522
 30
0.0
 11
126.999588
 21
199.929509
 31
0.0
  0
POLYLINE
  5
5DF
  8
05
 66
     1
 10
0.0
 20
0.0
 30
0.0
  0
VERTEX
  5
7F8
  8
05
 10
127.807139
 20
200.501189
 30
0.0
  0
VERTEX
  5
7F9
  8
05
 10
127.703705
 20
200.322179
 30
0.0
  0
VERTEX
  5
7FA
  8
05
 10
127.570167
 20
200.09108
 30
0.0
  0
VERTEX
  5
7FB
  8
05
 10
127.476802
 20
199.929509
 30
0.0
  0
SEQEND
  5
7FC
  8
05
  0
POLYLINE
  5
5E0
  8
05
 66
     1
 10
0.0
 20
0.0
 30
0.0
  0
VERTEX
  5
7FD
  8
05
 10
127.476822
 20
199.929543
 30
0.0
  0
VERTEX
  5
7FE
  8
05
 10
127.472059
 20
199.921675
 30
0.0
  0
VERTEX
  5
7FF
  8
05
 10
127.439768
 20
199.880913
 30
0.0
  0
VERTEX
  5
800
  8
05
 10
127.371286
 20
199.829094
 30
0.0
  0
VERTEX
  5
801
  8
05
 10
127.260459
 20
199.79523
 30
0.0
  0
VERTEX
  5
802
  8
05
 10
127.14103
 20
199.812549
 30
0.0
  0
VERTEX
  5
803
  8
05
 10
127.055641
 20
199.863082
 30
0.0
  0
VERTEX
  5
804
  8
05
 10
127.012792
 20
199.909208
 30
0.0
  0
VERTEX
  5
805
  8
05
 10
126.999581
 20
199.929522
 30
0.0
  0
SEQEND
  5
806
  8
05
  0
POLYLINE
  5
5E1
  8
05
 66
     1
 10
0.0
 20
0.0
 30
0.0
  0
VERTEX
  5
807
  8
05
 10
126.999588
 20
199.929509
 30
0.0
  0
VERTEX
  5
808
  8
05
 10
126.949338
 20
200.016468
 30
0.0
  0
SEQEND
  5
809
  8
05
  0
POLYLINE
  5
5E2
  8
05
 66
     1
 10
0.0
 20
0.0
 30
0.0
  0
VERTEX
  5
80A
  8
05
 10
128.772019
 20
199.929543
 30
0.0
  0
VERTEX
  5
80B
  8
05
 10
128.767257
 20
199.921675
 30
0.0
  0
VERTEX
  5
80C
  8
05
 10
128.734965
 20
199.880913
 30
0.0
  0
VERTEX
  5
80D
  8
05
 10
128.666483
 20
199.829094
 30
0.0
  0
VERTEX
  5
80E
  8
05
 10
128.555656
 20
199.79523
 30
0.0
  0
VERTEX
  5
80F
  8
05
 10
128.436227
 20
199.812549
 30
0.0
  0
VERTEX
  5
810
  8
05
 10
128.350839
 20
199.863082
 30
0.0
  0
VERTEX
  5
811
  8
05
 10
128.307989
 20
199.909208
 30
0.0
  0
VERTEX
  5
812
  8
05
 10
128.294778
 20
199.929522
 30
0.0
  0
SEQEND
  5
813
  8
05
  0
POLYLINE
  5
5E3
  8
05
 66
     1
 10
0.0
 20
0.0
 30
0.0
  0
VERTEX
  5
814
  8
05
 10
128.294786
 20
199.929509
 30
0.0
  0
VERTEX
  5
815
  8
05
 10
128.198387
 20
200.09633
 30
0.0
  0
VERTEX
  5
816
  8
05
 10
128.064849
 20
200.327429
 30
0.0
  0
VERTEX
  5
817
  8
05
 10
127.964449
 20
200.501189
 30
0.0
  0
SEQEND
  5
818
  8
05
  0
LINE
  5
5E4
  8
025
 10
126.816856
 20
200.116578
 30
0.0
 11
126.915971
 21
200.686316
 31
0.0
  0
LINE
  5
5E5
  8
025
 10
126.426606
 20
196.150016
 30
0.0
 11
126.141048
 21
197.328814
 31
0.0
  0
LINE
  5
5E6
  8
035
 10
126.141048
 20
197.328814
 30
0.0
 11
126.141048
 21
197.856466
 31
0.0
  0
LINE
  5
5E7
  8
035
 10
126.141048
 20
197.856466
 30
0.0
 11
126.141048
 21
198.369777
 31
0.0
  0
LINE
  5
5E8
  8
025
 10
126.141048
 20
198.369777
 30
0.0
 11
126.429532
 21
198.965863
 31
0.0
  0
LINE
  5
5E9
  8
025
 10
126.429532
 20
198.965863
 30
0.0
 11
126.654162
 21
199.544692
 31
0.0
  0
LINE
  5
5EA
  8
025
 10
126.654162
 20
199.544692
 30
0.0
 11
126.816856
 21
200.116578
 31
0.0
  0
LINE
  5
5EB
  8
025
 10
126.651156
 20
194.996759
 30
0.0
 11
126.426606
 21
196.150016
 31
0.0
  0
LINE
  5
5EC
  8
025
 10
131.828834
 20
196.208703
 30
0.0
 11
131.245933
 21
196.467935
 31
0.0
  0
LINE
  5
5ED
  8
025
 10
131.245933
 20
196.467935
 30
0.0
 11
131.128834
 21
196.243786
 31
0.0
  0
LINE
  5
5EE
  8
025
 10
131.451202
 20
196.688764
 30
0.0
 11
131.460557
 21
196.372486
 31
0.0
  0
LINE
  5
5EF
  8
05
 10
131.828834
 20
196.185794
 30
0.0
 11
131.828834
 21
199.137401
 31
0.0
  0
LINE
  5
5F0
  8
05
 10
131.828834
 20
199.150204
 30
0.0
 11
131.828834
 21
196.198798
 31
0.0
  0
LINE
  5
5F1
  8
025
 10
131.828834
 20
196.087186
 30
0.0
 11
131.653346
 21
195.751269
 31
0.0
  0
LINE
  5
5F2
  8
025
 10
131.828834
 20
196.087186
 30
0.0
 11
131.653346
 21
195.751269
 31
0.0
  0
LINE
  5
5F3
  8
05
 10
131.794221
 20
195.721331
 30
0.0
 11
131.828834
 21
195.907993
 31
0.0
  0
LINE
  5
5F4
  8
05
 10
131.828834
 20
195.747707
 30
0.0
 11
131.828834
 21
196.185794
 31
0.0
  0
LINE
  5
5F5
  8
05
 10
131.828834
 20
195.721331
 30
0.0
 11
131.828834
 21
195.747707
 31
0.0
  0
LINE
  5
5F6
  8
05
 10
131.828834
 20
196.198798
 30
0.0
 11
131.828834
 21
195.755909
 31
0.0
  0
LINE
  5
5F7
  8
05
 10
131.828834
 20
195.755909
 30
0.0
 11
131.828834
 21
195.729061
 31
0.0
  0
LINE
  5
5F8
  8
05
 10
131.794221
 20
195.721331
 30
0.0
 11
131.828834
 21
195.907993
 31
0.0
  0
LINE
  5
5F9
  8
025
 10
131.828834
 20
199.985209
 30
0.0
 11
131.245933
 21
200.168842
 31
0.0
  0
LINE
  5
5FA
  8
025
 10
131.395387
 20
200.482478
 30
0.0
 11
131.595411
 21
200.514902
 31
0.0
  0
LINE
  5
5FB
  8
025
 10
131.395387
 20
200.482478
 30
0.0
 11
131.595411
 21
200.514902
 31
0.0
  0
LINE
  5
5FC
  8
025
 10
131.245933
 20
200.168842
 30
0.0
 11
131.128834
 21
200.036817
 31
0.0
  0
LINE
  5
5FD
  8
025
 10
131.158225
 20
200.410818
 30
0.0
 11
131.194419
 21
200.425095
 31
0.0
  0
LINE
  5
5FE
  8
025
 10
131.194419
 20
200.425095
 30
0.0
 11
131.395387
 21
200.482478
 31
0.0
  0
LINE
  5
5FF
  8
025
 10
131.158225
 20
200.410818
 30
0.0
 11
131.194419
 21
200.425095
 31
0.0
  0
LINE
  5
600
  8
025
 10
131.194419
 20
200.425095
 30
0.0
 11
131.395387
 21
200.482478
 31
0.0
  0
LINE
  5
601
  8
025
 10
131.595411
 20
200.514902
 30
0.0
 11
131.794235
 21
200.522172
 31
0.0
  0
LINE
  5
602
  8
025
 10
131.595411
 20
200.514902
 30
0.0
 11
131.794235
 21
200.522172
 31
0.0
  0
LINE
  5
603
  8
05
 10
131.828834
 20
200.44644
 30
0.0
 11
131.828834
 21
200.522172
 31
0.0
  0
LINE
  5
604
  8
05
 10
131.828834
 20
200.05837
 30
0.0
 11
131.828834
 21
200.44644
 31
0.0
  0
LINE
  5
605
  8
05
 10
131.828834
 20
199.96898
 30
0.0
 11
131.828834
 21
200.05837
 31
0.0
  0
LINE
  5
606
  8
05
 10
131.828834
 20
200.531622
 30
0.0
 11
131.828834
 21
200.450745
 31
0.0
  0
LINE
  5
607
  8
05
 10
131.828834
 20
200.389418
 30
0.0
 11
131.828834
 21
199.987371
 31
0.0
  0
LINE
  5
608
  8
025
 10
131.395359
 20
198.669388
 30
0.0
 11
131.595381
 21
198.913557
 31
0.0
  0
LINE
  5
609
  8
025
 10
131.395359
 20
198.669388
 30
0.0
 11
131.595381
 21
198.913557
 31
0.0
  0
LINE
  5
60A
  8
025
 10
131.653346
 20
199.713043
 30
0.0
 11
131.424494
 21
199.4327
 31
0.0
  0
LINE
  5
60B
  8
025
 10
131.653346
 20
199.713043
 30
0.0
 11
131.424494
 21
199.4327
 31
0.0
  0
LINE
  5
60C
  8
025
 10
131.424494
 20
199.4327
 30
0.0
 11
131.194419
 21
199.12874
 31
0.0
  0
LINE
  5
60D
  8
025
 10
131.424494
 20
199.4327
 30
0.0
 11
131.194419
 21
199.12874
 31
0.0
  0
LINE
  5
60E
  8
025
 10
131.158225
 20
198.345868
 30
0.0
 11
131.194419
 21
198.405368
 31
0.0
  0
LINE
  5
60F
  8
025
 10
131.158225
 20
198.345868
 30
0.0
 11
131.194419
 21
198.405368
 31
0.0
  0
LINE
  5
610
  8
025
 10
131.377222
 20
198.645557
 30
0.0
 11
131.39055
 21
198.372681
 31
0.0
  0
LINE
  5
611
  8
025
 10
131.194419
 20
199.12874
 30
0.0
 11
131.158227
 21
199.068777
 31
0.0
  0
LINE
  5
612
  8
025
 10
131.158227
 20
199.068777
 30
0.0
 11
131.136221
 21
199.004276
 31
0.0
  0
LINE
  5
613
  8
025
 10
131.136221
 20
199.004276
 30
0.0
 11
131.128834
 21
198.936613
 31
0.0
  0
LINE
  5
614
  8
025
 10
131.194419
 20
198.405368
 30
0.0
 11
131.395359
 21
198.669388
 31
0.0
  0
LINE
  5
615
  8
025
 10
131.194419
 20
199.12874
 30
0.0
 11
131.158227
 21
199.068777
 31
0.0
  0
LINE
  5
616
  8
025
 10
131.158227
 20
199.068777
 30
0.0
 11
131.136221
 21
199.004276
 31
0.0
  0
LINE
  5
617
  8
025
 10
131.136221
 20
199.004276
 30
0.0
 11
131.128834
 21
198.936613
 31
0.0
  0
LINE
  5
618
  8
025
 10
131.194419
 20
198.405368
 30
0.0
 11
131.395359
 21
198.669388
 31
0.0
  0
LINE
  5
619
  8
025
 10
131.420876
 20
197.598621
 30
0.0
 11
131.451202
 21
196.688764
 31
0.0
  0
LINE
  5
61A
  8
025
 10
131.39055
 20
198.372681
 30
0.0
 11
131.420876
 21
197.598621
 31
0.0
  0
LINE
  5
61B
  8
025
 10
131.595381
 20
198.913557
 30
0.0
 11
131.79423
 21
199.137401
 31
0.0
  0
LINE
  5
61C
  8
025
 10
131.595381
 20
198.913557
 30
0.0
 11
131.79423
 21
199.137401
 31
0.0
  0
LINE
  5
61D
  8
05
 10
131.819363
 20
199.380092
 30
0.0
 11
131.828834
 21
199.238388
 31
0.0
  0
LINE
  5
61E
  8
05
 10
131.79423
 20
199.137401
 30
0.0
 11
131.828834
 21
199.471549
 31
0.0
  0
LINE
  5
61F
  8
025
 10
131.79423
 20
199.137401
 30
0.0
 11
131.828834
 21
199.471549
 31
0.0
  0
LINE
  5
620
  8
025
 10
131.828834
 20
199.9109
 30
0.0
 11
131.653346
 21
199.713043
 31
0.0
  0
LINE
  5
621
  8
025
 10
131.828834
 20
199.9109
 30
0.0
 11
131.653346
 21
199.713043
 31
0.0
  0
LINE
  5
622
  8
05
 10
131.828834
 20
199.987371
 30
0.0
 11
131.828834
 21
199.150204
 31
0.0
  0
LINE
  5
623
  8
05
 10
131.828834
 20
199.137401
 30
0.0
 11
131.828834
 21
199.96898
 31
0.0
  0
LINE
  5
624
  8
05
 10
131.128834
 20
200.572245
 30
0.0
 11
131.128834
 21
198.936613
 31
0.0
  0
POLYLINE
  5
625
  8
035
 66
     1
 10
0.0
 20
0.0
 30
0.0
  0
VERTEX
  5
819
  8
035
 10
129.110513
 20
200.508265
 30
0.0
  0
VERTEX
  5
81A
  8
035
 10
129.141762
 20
200.405089
 30
0.0
  0
VERTEX
  5
81B
  8
035
 10
129.173054
 20
200.097375
 30
0.0
  0
VERTEX
  5
81C
  8
035
 10
129.204249
 20
199.594063
 30
0.0
  0
VERTEX
  5
81D
  8
035
 10
129.235481
 20
198.905086
 30
0.0
  0
VERTEX
  5
81E
  8
035
 10
129.266664
 20
198.048183
 30
0.0
  0
VERTEX
  5
81F
  8
035
 10
129.298023
 20
197.035933
 30
0.0
  0
VERTEX
  5
820
  8
035
 10
129.329297
 20
195.899327
 30
0.0
  0
SEQEND
  5
821
  8
035
  0
LINE
  5
626
  8
05
 10
130.428834
 20
197.657046
 30
0.0
 11
130.428834
 21
196.180036
 31
0.0
  0
LINE
  5
627
  8
05
 10
129.728834
 20
196.562739
 30
0.0
 11
129.76343
 21
196.357251
 31
0.0
  0
LINE
  5
628
  8
025
 10
130.311736
 20
196.650602
 30
0.0
 11
130.397863
 21
196.139036
 31
0.0
  0
LINE
  5
629
  8
025
 10
130.311736
 20
196.650602
 30
0.0
 11
130.397863
 21
196.139036
 31
0.0
  0
LINE
  5
62A
  8
05
 10
129.728834
 20
196.357251
 30
0.0
 11
129.728834
 21
200.442086
 31
0.0
  0
LINE
  5
62B
  8
025
 10
130.428834
 20
196.180036
 30
0.0
 11
130.428834
 21
196.139036
 31
0.0
  0
LINE
  5
62C
  8
025
 10
130.397863
 20
196.139036
 30
0.0
 11
130.428834
 21
196.196502
 31
0.0
  0
LINE
  5
62D
  8
025
 10
130.397863
 20
196.139036
 30
0.0
 11
130.428834
 21
196.196502
 31
0.0
  0
LINE
  5
62E
  8
025
 10
129.890626
 20
195.857908
 30
0.0
 11
129.752431
 21
195.857908
 31
0.0
  0
LINE
  5
62F
  8
025
 10
130.397863
 20
196.139036
 30
0.0
 11
129.763448
 21
196.357147
 31
0.0
  0
LINE
  5
630
  8
05
 10
129.589977
 20
199.929522
 30
0.0
 11
129.589985
 21
199.929509
 31
0.0
  0
LINE
  5
631
  8
05
 10
129.259648
 20
200.501189
 30
0.0
 11
129.25147
 21
200.508265
 31
0.0
  0
LINE
  5
632
  8
05
 10
129.102336
 20
200.501189
 30
0.0
 11
129.110513
 21
200.508265
 31
0.0
  0
LINE
  5
633
  8
05
 10
129.251471
 20
200.508265
 30
0.0
 11
129.110513
 21
200.508265
 31
0.0
  0
POLYLINE
  5
634
  8
05
 66
     1
 10
0.0
 20
0.0
 30
0.0
  0
VERTEX
  5
822
  8
05
 10
129.728834
 20
199.814083
 30
0.0
  0
VERTEX
  5
823
  8
05
 10
129.646038
 20
199.863082
 30
0.0
  0
VERTEX
  5
824
  8
05
 10
129.603188
 20
199.909208
 30
0.0
  0
VERTEX
  5
825
  8
05
 10
129.589977
 20
199.929522
 30
0.0
  0
SEQEND
  5
826
  8
05
  0
POLYLINE
  5
635
  8
05
 66
     1
 10
0.0
 20
0.0
 30
0.0
  0
VERTEX
  5
827
  8
05
 10
129.589985
 20
199.929509
 30
0.0
  0
VERTEX
  5
828
  8
05
 10
129.493586
 20
200.09633
 30
0.0
  0
VERTEX
  5
829
  8
05
 10
129.360049
 20
200.327429
 30
0.0
  0
VERTEX
  5
82A
  8
05
 10
129.259648
 20
200.501189
 30
0.0
  0
SEQEND
  5
82B
  8
05
  0
LINE
  5
636
  8
025
 10
129.904322
 20
200.604008
 30
0.0
 11
129.743095
 21
200.43302
 31
0.0
  0
LINE
  5
637
  8
025
 10
130.311736
 20
200.274305
 30
0.0
 11
129.728834
 21
200.35604
 31
0.0
  0
LINE
  5
638
  8
05
 10
129.728834
 20
200.442086
 30
0.0
 11
129.728834
 21
200.446466
 31
0.0
  0
LINE
  5
639
  8
05
 10
129.743095
 20
200.43302
 30
0.0
 11
129.728834
 21
200.417896
 31
0.0
  0
LINE
  5
63A
  8
025
 10
130.428834
 20
200.398493
 30
0.0
 11
130.311736
 21
200.274305
 31
0.0
  0
LINE
  5
63B
  8
025
 10
130.428834
 20
200.398493
 30
0.0
 11
130.311736
 21
200.274305
 31
0.0
  0
LINE
  5
63C
  8
025
 10
130.399442
 20
198.167997
 30
0.0
 11
130.36325
 21
198.093927
 31
0.0
  0
LINE
  5
63D
  8
025
 10
130.397854
 20
199.415534
 30
0.0
 11
130.428834
 21
199.447503
 31
0.0
  0
LINE
  5
63E
  8
025
 10
130.397854
 20
199.415534
 30
0.0
 11
130.428834
 21
199.447503
 31
0.0
  0
LINE
  5
63F
  8
05
 10
130.428834
 20
200.446384
 30
0.0
 11
130.428834
 21
197.657046
 31
0.0
  0
LINE
  5
640
  8
025
 10
129.904322
 20
197.294466
 30
0.0
 11
129.728834
 21
196.96533
 31
0.0
  0
LINE
  5
641
  8
025
 10
130.311736
 20
196.650602
 30
0.0
 11
129.728834
 21
196.851003
 31
0.0
  0
LINE
  5
642
  8
025
 10
130.133175
 20
197.703239
 30
0.0
 11
129.904322
 21
197.294466
 31
0.0
  0
LINE
  5
643
  8
05
 10
129.728834
 20
199.849567
 30
0.0
 11
129.76343
 21
199.504575
 31
0.0
  0
LINE
  5
644
  8
025
 10
130.397854
 20
199.415534
 30
0.0
 11
129.763438
 21
199.504493
 31
0.0
  0
LINE
  5
645
  8
025
 10
130.428834
 20
196.870226
 30
0.0
 11
130.311736
 21
196.650602
 31
0.0
  0
LINE
  5
646
  8
025
 10
130.428834
 20
196.870226
 30
0.0
 11
130.311736
 21
196.650602
 31
0.0
  0
LINE
  5
647
  8
025
 10
130.36325
 20
198.093927
 30
0.0
 11
130.133175
 21
197.703239
 31
0.0
  0
LINE
  5
648
  8
025
 10
131.395364
 20
194.950412
 30
0.0
 11
131.595385
 21
195.340897
 31
0.0
  0
LINE
  5
649
  8
025
 10
131.395364
 20
194.950412
 30
0.0
 11
131.595385
 21
195.340897
 31
0.0
  0
LINE
  5
64A
  8
025
 10
130.136562
 20
194.97804
 30
0.0
 11
130.019291
 21
195.415378
 31
0.0
  0
POLYLINE
  5
64B
  8
025
 66
     1
 10
0.0
 20
0.0
 30
0.0
  0
VERTEX
  5
82C
  8
025
 10
129.728834
 20
194.970232
 30
0.0
  0
VERTEX
  5
82D
  8
025
 10
129.721111
 20
195.001859
 30
0.0
  0
VERTEX
  5
82E
  8
025
 10
129.601495
 20
195.447946
 30
0.0
  0
VERTEX
  5
82F
  8
025
 10
129.470256
 20
195.899327
 30
0.0
  0
SEQEND
  5
830
  8
025
  0
LINE
  5
64C
  8
025
 10
130.019291
 20
195.415378
 30
0.0
 11
129.890626
 21
195.857908
 31
0.0
  0
LINE
  5
64D
  8
025
 10
131.653346
 20
195.751269
 30
0.0
 11
131.424494
 21
195.304099
 31
0.0
  0
LINE
  5
64E
  8
025
 10
131.653346
 20
195.751269
 30
0.0
 11
131.424494
 21
195.304099
 31
0.0
  0
LINE
  5
64F
  8
025
 10
131.595385
 20
195.340897
 30
0.0
 11
131.794221
 21
195.721331
 31
0.0
  0
LINE
  5
650
  8
025
 10
131.595385
 20
195.340897
 30
0.0
 11
131.794221
 21
195.721331
 31
0.0
  0
LINE
  5
651
  8
025
 10
126.915956
 20
201.82571
 30
0.0
 11
126.816811
 21
202.39552
 31
0.0
  0
LINE
  5
652
  8
025
 10
126.949338
 20
201.255951
 30
0.0
 11
126.915956
 21
201.82571
 31
0.0
  0
LINE
  5
653
  8
025
 10
126.429494
 20
203.546126
 30
0.0
 11
126.141048
 21
204.142125
 31
0.0
  0
LINE
  5
654
  8
025
 10
126.654092
 20
202.967416
 30
0.0
 11
126.429494
 21
203.546126
 31
0.0
  0
LINE
  5
655
  8
05
 10
126.949338
 20
202.756466
 30
0.0
 11
126.141048
 21
204.156466
 31
0.0
  0
LINE
  5
656
  8
025
 10
126.816811
 20
202.39552
 30
0.0
 11
126.654092
 21
202.967416
 31
0.0
  0
LINE
  5
657
  8
05
 10
131.128834
 20
202.686466
 30
0.0
 11
131.128834
 21
201.636332
 31
0.0
  0
LINE
  5
658
  8
05
 10
131.128834
 20
202.686466
 30
0.0
 11
131.128834
 21
201.636332
 31
0.0
  0
LINE
  5
659
  8
05
 10
130.428834
 20
202.686466
 30
0.0
 11
130.428834
 21
201.636332
 31
0.0
  0
LINE
  5
65A
  8
05
 10
131.128834
 20
202.686466
 30
0.0
 11
130.428834
 21
202.686466
 31
0.0
  0
LINE
  5
65B
  8
05
 10
130.428834
 20
202.686466
 30
0.0
 11
131.128834
 21
202.686466
 31
0.0
  0
LINE
  5
65C
  8
025
 10
131.653346
 20
201.489269
 30
0.0
 11
131.424494
 21
201.450871
 31
0.0
  0
LINE
  5
65D
  8
025
 10
131.653346
 20
201.489269
 30
0.0
 11
131.424494
 21
201.450871
 31
0.0
  0
LINE
  5
65E
  8
025
 10
131.194419
 20
201.382978
 30
0.0
 11
131.158227
 21
201.368084
 31
0.0
  0
LINE
  5
65F
  8
025
 10
131.424494
 20
201.450871
 30
0.0
 11
131.194419
 21
201.382978
 31
0.0
  0
LINE
  5
660
  8
025
 10
131.194419
 20
201.382978
 30
0.0
 11
131.158227
 21
201.368084
 31
0.0
  0
LINE
  5
661
  8
025
 10
131.424494
 20
201.450871
 30
0.0
 11
131.194419
 21
201.382978
 31
0.0
  0
LINE
  5
662
  8
025
 10
131.828834
 20
201.49605
 30
0.0
 11
131.653346
 21
201.489269
 31
0.0
  0
LINE
  5
663
  8
025
 10
131.828834
 20
201.49605
 30
0.0
 11
131.653346
 21
201.489269
 31
0.0
  0
LINE
  5
664
  8
05
 10
131.245933
 20
201.56207
 30
0.0
 11
131.128834
 21
201.557546
 31
0.0
  0
LINE
  5
665
  8
05
 10
131.828834
 20
201.50324
 30
0.0
 11
131.245933
 21
201.56207
 31
0.0
  0
LINE
  5
666
  8
025
 10
130.399442
 20
201.038375
 30
0.0
 11
130.36325
 21
201.00421
 31
0.0
  0
LINE
  5
667
  8
05
 10
130.428834
 20
201.39753
 30
0.0
 11
130.428834
 21
201.329189
 31
0.0
  0
LINE
  5
668
  8
05
 10
130.428834
 20
201.329189
 30
0.0
 11
130.428834
 21
201.098689
 31
0.0
  0
LINE
  5
669
  8
05
 10
130.311736
 20
201.56207
 30
0.0
 11
129.728834
 21
201.50324
 31
0.0
  0
LINE
  5
66A
  8
025
 10
130.36325
 20
201.00421
 30
0.0
 11
130.133175
 21
200.817845
 31
0.0
  0
LINE
  5
66B
  8
05
 10
130.428834
 20
201.557546
 30
0.0
 11
130.311736
 21
201.56207
 31
0.0
  0
LINE
  5
66C
  8
05
 10
130.428834
 20
201.557546
 30
0.0
 11
130.311736
 21
201.56207
 31
0.0
  0
LINE
  5
66D
  8
05
 10
130.428834
 20
201.636332
 30
0.0
 11
130.428834
 21
201.39753
 31
0.0
  0
LINE
  5
66E
  8
025
 10
131.128834
 20
201.636332
 30
0.0
 11
131.128834
 21
201.39753
 31
0.0
  0
LINE
  5
66F
  8
05
 10
131.128834
 20
201.636332
 30
0.0
 11
131.128834
 21
201.39753
 31
0.0
  0
LINE
  5
670
  8
05
 10
135.664835
 20
204.122879
 30
0.0
 11
135.664835
 21
199.481749
 31
0.0
  0
LINE
  5
671
  8
05
 10
135.664835
 20
204.111674
 30
0.0
 11
135.664835
 21
199.481746
 31
0.0
  0
ARC
  5
672
  8
05
 10
133.237235
 20
200.838479
 30
0.0
 40
0.2856
 50
270.0
 51
0.0
  0
LINE
  5
673
  8
05
 10
133.522835
 20
198.29358
 30
0.0
 11
133.522835
 21
204.123084
 31
0.0
  0
LINE
  5
674
  8
05
 10
135.664835
 20
199.481749
 30
0.0
 11
135.664835
 21
198.293559
 31
0.0
  0
LINE
  5
675
  8
05
 10
135.664835
 20
199.481746
 30
0.0
 11
135.664835
 21
198.293559
 31
0.0
  0
LINE
  5
676
  8
05
 10
135.664835
 20
198.293559
 30
0.0
 11
135.651039
 21
198.369502
 31
0.0
  0
LINE
  5
677
  8
05
 10
135.651039
 20
198.369502
 30
0.0
 11
135.610504
 21
198.438685
 31
0.0
  0
LINE
  5
678
  8
05
 10
135.664835
 20
197.374594
 30
0.0
 11
135.650856
 21
197.374594
 31
0.0
  0
LINE
  5
679
  8
05
 10
135.650856
 20
197.374594
 30
0.0
 11
135.61029
 21
197.374594
 31
0.0
  0
LINE
  5
67A
  8
05
 10
135.664835
 20
198.293559
 30
0.0
 11
135.664835
 21
197.374556
 31
0.0
  0
LINE
  5
67B
  8
05
 10
135.664835
 20
197.374594
 30
0.0
 11
135.664835
 21
198.293559
 31
0.0
  0
LINE
  5
67C
  8
05
 10
135.46749
 20
197.374594
 30
0.0
 11
135.379235
 21
197.374594
 31
0.0
  0
LINE
  5
67D
  8
05
 10
135.547106
 20
197.374594
 30
0.0
 11
135.46749
 21
197.374594
 31
0.0
  0
LINE
  5
67E
  8
05
 10
135.61029
 20
197.374594
 30
0.0
 11
135.547106
 21
197.374594
 31
0.0
  0
LINE
  5
67F
  8
05
 10
135.467358
 20
198.528828
 30
0.0
 11
135.379235
 21
198.540896
 31
0.0
  0
LINE
  5
680
  8
05
 10
135.547193
 20
198.493604
 30
0.0
 11
135.467358
 21
198.528828
 31
0.0
  0
LINE
  5
681
  8
05
 10
135.610504
 20
198.438685
 30
0.0
 11
135.547193
 21
198.493604
 31
0.0
  0
LINE
  5
682
  8
05
 10
133.237235
 20
195.94395
 30
0.0
 11
133.348272
 21
195.949796
 31
0.0
  0
LINE
  5
683
  8
05
 10
133.348272
 20
195.949796
 30
0.0
 11
133.440941
 21
195.966136
 31
0.0
  0
LINE
  5
684
  8
05
 10
133.440941
 20
195.966136
 30
0.0
 11
133.501784
 21
195.990051
 31
0.0
  0
LINE
  5
685
  8
05
 10
133.501784
 20
195.990051
 30
0.0
 11
133.522835
 21
196.017694
 31
0.0
  0
LINE
  5
686
  8
05
 10
133.522835
 20
198.293559
 30
0.0
 11
133.536813
 21
198.369991
 31
0.0
  0
LINE
  5
687
  8
05
 10
133.522835
 20
197.374594
 30
0.0
 11
133.53663
 21
197.374594
 31
0.0
  0
LINE
  5
688
  8
05
 10
133.522835
 20
197.374594
 30
0.0
 11
133.522835
 21
198.29358
 31
0.0
  0
LINE
  5
689
  8
05
 10
133.640476
 20
197.374594
 30
0.0
 11
133.720311
 21
197.374594
 31
0.0
  0
LINE
  5
68A
  8
05
 10
133.577165
 20
197.374594
 30
0.0
 11
133.640476
 21
197.374594
 31
0.0
  0
LINE
  5
68B
  8
05
 10
133.53663
 20
197.374594
 30
0.0
 11
133.577165
 21
197.374594
 31
0.0
  0
LINE
  5
68C
  8
05
 10
133.720311
 20
197.374594
 30
0.0
 11
133.808435
 21
197.374594
 31
0.0
  0
LINE
  5
68D
  8
05
 10
133.640563
 20
198.493659
 30
0.0
 11
133.720179
 21
198.528791
 31
0.0
  0
LINE
  5
68E
  8
05
 10
133.577379
 20
198.43894
 30
0.0
 11
133.640563
 21
198.493659
 31
0.0
  0
LINE
  5
68F
  8
05
 10
133.536813
 20
198.369991
 30
0.0
 11
133.577379
 21
198.43894
 31
0.0
  0
LINE
  5
690
  8
05
 10
133.720179
 20
198.528791
 30
0.0
 11
133.808435
 21
198.540896
 31
0.0
  0
LINE
  5
691
  8
05
 10
135.379235
 20
197.374594
 30
0.0
 11
133.808435
 21
197.374594
 31
0.0
  0
LINE
  5
692
  8
05
 10
133.808435
 20
198.540896
 30
0.0
 11
135.379235
 21
198.540896
 31
0.0
  0
ARC
  5
693
  8
05
 10
135.379235
 20
204.122879
 30
0.0
 40
0.2856
 50
0.0
 51
90.0
  0
ARC
  5
694
  8
05
 10
133.808435
 20
204.122879
 30
0.0
 40
0.2856
 50
90.0
 51
180.0
  0
LINE
  5
695
  8
05
 10
135.379235
 20
204.408479
 30
0.0
 11
133.808435
 21
204.408479
 31
0.0
  0
SOLID
  5
696
  8
BEM1
 10
130.524035
 20
211.839255
 30
0.0
 11
130.524035
 21
212.838855
 31
0.0
 12
133.522835
 22
212.339055
 32
0.0
 13
133.522835
 23
212.339055
 33
0.0
  0
TEXT
  5
697
  8
BEM1
 62
     3
 10
125.820688
 20
213.596292
 30
0.0
 40
3.0
  1
1.5
 41
0.7
 51
15.0
  0
SOLID
  5
698
  8
BEM1
 10
138.663635
 20
211.839255
 30
0.0
 11
138.663635
 21
212.838855
 31
0.0
 12
135.664835
 22
212.339055
 32
0.0
 13
135.664835
 23
212.339055
 33
0.0
  0
LINE
  5
699
  8
BEM1
 10
133.522835
 20
206.791209
 30
0.0
 11
133.522835
 21
213.195855
 31
0.0
  0
LINE
  5
69A
  8
BEM1
 10
135.664835
 20
206.791209
 30
0.0
 11
135.664835
 21
213.195855
 31
0.0
  0
POINT
  5
69B
  8
BEM1
 10
135.664835
 20
212.339055
 30
0.0
  0
POINT
  5
69C
  8
BEM1
 10
135.664835
 20
212.339055
 30
0.0
  0
TEXT
  5
69D
  8
BEM1
 62
     3
 10
117.870191
 20
219.346292
 30
0.0
 40
3.0
  1
34 [1.339]
 41
0.7
 51
15.0
  0
LINE
  5
69E
  8
05
 10
151.372835
 20
197.770108
 30
0.0
 11
151.372835
 21
185.342968
 31
0.0
  0
LINE
  5
69F
  8
05
 10
151.372835
 20
197.769389
 30
0.0
 11
151.372835
 21
185.34357
 31
0.0
  0
LINE
  5
6A0
  8
05
 10
151.087235
 20
184.659239
 30
0.0
 11
146.760395
 21
184.659239
 31
0.0
  0
LINE
  5
6A1
  8
05
 10
151.087235
 20
184.659239
 30
0.0
 11
146.760395
 21
184.659239
 31
0.0
  0
LINE
  5
6A2
  8
05
 10
143.904395
 20
183.702479
 30
0.0
 11
146.760395
 21
183.702479
 31
0.0
  0
ARC
  5
6A3
  8
035
 10
145.332395
 20
177.621927
 30
0.0
 40
7.180709
 50
78.529338
 51
101.470662
  0
LINE
  5
6A4
  8
05
 10
143.904395
 20
184.659239
 30
0.0
 11
143.904395
 21
183.702479
 31
0.0
  0
LINE
  5
6A5
  8
05
 10
143.904395
 20
184.659239
 30
0.0
 11
143.904395
 21
183.702479
 31
0.0
  0
LINE
  5
6A6
  8
05
 10
146.760395
 20
184.659239
 30
0.0
 11
146.760395
 21
183.702479
 31
0.0
  0
LINE
  5
6A7
  8
05
 10
146.760395
 20
184.659239
 30
0.0
 11
146.760395
 21
183.702479
 31
0.0
  0
LINE
  5
6A8
  8
05
 10
151.372835
 20
185.342968
 30
0.0
 11
151.372835
 21
185.216159
 31
0.0
  0
LINE
  5
6A9
  8
05
 10
151.372835
 20
185.34357
 30
0.0
 11
151.372835
 21
185.192401
 31
0.0
  0
LINE
  5
6AA
  8
05
 10
151.372835
 20
185.216159
 30
0.0
 11
151.372835
 21
184.944839
 31
0.0
  0
LINE
  5
6AB
  8
05
 10
151.372835
 20
185.192401
 30
0.0
 11
151.372835
 21
184.944839
 31
0.0
  0
SOLID
  5
6AC
  8
BEM1
 10
148.374035
 20
217.564858
 30
0.0
 11
148.374035
 21
218.564458
 31
0.0
 12
151.372835
 22
218.064658
 32
0.0
 13
151.372835
 23
218.064658
 33
0.0
  0
LINE
  5
6AD
  8
BEM1
 10
151.372835
 20
199.738894
 30
0.0
 11
151.372835
 21
218.921458
 31
0.0
  0
LINE
  5
6AE
  8
BEM1
 10
151.372835
 20
199.738894
 30
0.0
 11
151.372835
 21
213.195855
 31
0.0
  0
LINE
  5
6AF
  8
05
 10
151.087235
 20
198.453719
 30
0.0
 11
146.760395
 21
198.453719
 31
0.0
  0
LINE
  5
6B0
  8
05
 10
151.087235
 20
198.453719
 30
0.0
 11
146.760395
 21
198.453719
 31
0.0
  0
LINE
  5
6B1
  8
05
 10
146.760395
 20
199.410479
 30
0.0
 11
143.904395
 21
199.410479
 31
0.0
  0
ARC
  5
6B2
  8
035
 10
145.332395
 20
205.491006
 30
0.0
 40
7.180709
 50
258.529338
 51
281.470662
  0
LINE
  5
6B3
  8
05
 10
143.904395
 20
198.453719
 30
0.0
 11
143.904395
 21
199.410479
 31
0.0
  0
LINE
  5
6B4
  8
05
 10
143.904395
 20
198.453719
 30
0.0
 11
143.904395
 21
199.410479
 31
0.0
  0
LINE
  5
6B5
  8
05
 10
146.760395
 20
198.453719
 30
0.0
 11
146.760395
 21
199.410479
 31
0.0
  0
LINE
  5
6B6
  8
05
 10
146.760395
 20
198.453719
 30
0.0
 11
146.760395
 21
199.410479
 31
0.0
  0
ARC
  5
6B7
  8
05
 10
151.087235
 20
198.168119
 30
0.0
 40
0.2856
 50
0.0
 51
90.0
  0
ARC
  5
6B8
  8
05
 10
151.087235
 20
198.168119
 30
0.0
 40
0.2856
 50
0.0
 51
90.0
  0
LINE
  5
6B9
  8
05
 10
151.372835
 20
197.896799
 30
0.0
 11
151.372835
 21
197.770108
 31
0.0
  0
LINE
  5
6BA
  8
05
 10
151.372835
 20
197.920558
 30
0.0
 11
151.372835
 21
197.769389
 31
0.0
  0
LINE
  5
6BB
  8
05
 10
151.372835
 20
198.168119
 30
0.0
 11
151.372835
 21
197.896799
 31
0.0
  0
LINE
  5
6BC
  8
05
 10
151.372835
 20
198.168119
 30
0.0
 11
151.372835
 21
197.920558
 31
0.0
  0
SOLID
  5
6BD
  8
BEM1
 10
148.374035
 20
211.839255
 30
0.0
 11
148.374035
 21
212.838855
 31
0.0
 12
151.372835
 22
212.339055
 32
0.0
 13
151.372835
 23
212.339055
 33
0.0
  0
TEXT
  5
6BE
  8
BEM1
 62
     3
 10
142.002204
 20
213.596292
 30
0.0
 40
3.0
  1
11
 41
0.8
 51
15.0
  0
POINT
  5
6BF
  8
BEM1
 10
151.372835
 20
218.064658
 30
0.0
  0
TEXT
  8
5
  40
5
  5
835
  72
0
  71
0
 10
90.5796
 20
250.763
 30
0.000000
  1
NBB75FI
  7
ASHADE
  0
ENDSEC
  0
EOF
