  0
SECTION
  2
HEADER
  9
$ACADVER
  1
AC1009
  9
$INSBASE
 10
0.0
 20
0.0
 30
0.0
  9
$EXTMIN
 10
192.0
 20
-5.0
 30
0.0
  9
$EXTMAX
 10
412.0
 20
292.0
 30
0.0
  9
$LIMMIN
 10
0.0
 20
0.0
  9
$LIMMAX
 10
410.0
 20
287.0
  9
$ORTHOMODE
 70
     1
  9
$REGENMODE
 70
     1
  9
$FILLMODE
 70
     1
  9
$QTEXTMODE
 70
     0
  9
$MIRRTEXT
 70
     1
  9
$DRAGMODE
 70
     2
  9
$LTSCALE
 40
5.0
  9
$OSMODE
 70
     0
  9
$ATTMODE
 70
     1
  9
$TEXTSIZE
 40
3.5
  9
$TRACEWID
 40
26.0
  9
$TEXTSTYLE
  7
STANDARD
  9
$CLAYER
  8
035
  9
$CELTYPE
  6
BYLAYER
  9
$CECOLOR
 62
   256
  9
$DIMSCALE
 40
1.0
  9
$DIMASZ
 40
3.5
  9
$DIMEXO
 40
0.8
  9
$DIMDLI
 40
8.0
  9
$DIMRND
 40
0.0
  9
$DIMDLE
 40
0.0
  9
$DIMEXE
 40
1.8
  9
$DIMTP
 40
0.0
  9
$DIMTM
 40
0.0
  9
$DIMTXT
 40
3.5
  9
$DIMCEN
 40
1.5
  9
$DIMTSZ
 40
0.0
  9
$DIMTOL
 70
     0
  9
$DIMLIM
 70
     0
  9
$DIMTIH
 70
     0
  9
$DIMTOH
 70
     0
  9
$DIMSE1
 70
     0
  9
$DIMSE2
 70
     0
  9
$DIMTAD
 70
     1
  9
$DIMZIN
 70
     0
  9
$DIMBLK
  1

  9
$DIMASO
 70
     0
  9
$DIMSHO
 70
     0
  9
$DIMPOST
  1

  9
$DIMAPOST
  1
"
  9
$DIMALT
 70
     0
  9
$DIMALTD
 70
     3
  9
$DIMALTF
 40
0.03937
  9
$DIMLFAC
 40
0.5
  9
$DIMTOFL
 70
     0
  9
$DIMTVP
 40
0.0
  9
$DIMTIX
 70
     0
  9
$DIMSOXD
 70
     0
  9
$DIMSAH
 70
     0
  9
$DIMBLK1
  1

  9
$DIMBLK2
  1

  9
$DIMSTYLE
  2
STANDARD
  9
$DIMCLRD
 70
     0
  9
$DIMCLRE
 70
     0
  9
$DIMCLRT
 70
     0
  9
$DIMTFAC
 40
1.0
  9
$DIMGAP
 40
0.09
  9
$LUNITS
 70
     2
  9
$LUPREC
 70
     2
  9
$SKETCHINC
 40
1.0
  9
$FILLETRAD
 40
0.0
  9
$AUNITS
 70
     0
  9
$AUPREC
 70
     0
  9
$MENU
  1
acad
  9
$ELEVATION
 40
0.0
  9
$PELEVATION
 40
0.0
  9
$THICKNESS
 40
0.0
  9
$LIMCHECK
 70
     0
  9
$BLIPMODE
 70
     0
  9
$CHAMFERA
 40
0.0
  9
$CHAMFERB
 40
0.0
  9
$SKPOLY
 70
     0
  9
$TDCREATE
 40
2449552.534298
  9
$TDUPDATE
 40
2451751.435833
  9
$TDINDWG
 40
0.452079
  9
$TDUSRTIMER
 40
0.452079
  9
$USRTIMER
 70
     1
  9
$ANGBASE
 50
0.0
  9
$ANGDIR
 70
     0
  9
$PDMODE
 70
     0
  9
$PDSIZE
 40
0.0
  9
$PLINEWID
 40
0.0
  9
$COORDS
 70
     2
  9
$SPLFRAME
 70
     0
  9
$SPLINETYPE
 70
     6
  9
$SPLINESEGS
 70
     8
  9
$ATTDIA
 70
     1
  9
$ATTREQ
 70
     1
  9
$HANDLING
 70
     1
  9
$HANDSEED
  5
891
  9
$SURFTAB1
 70
     6
  9
$SURFTAB2
 70
     6
  9
$SURFTYPE
 70
     6
  9
$SURFU
 70
     6
  9
$SURFV
 70
     6
  9
$UCSNAME
  2

  9
$UCSORG
 10
0.0
 20
0.0
 30
0.0
  9
$UCSXDIR
 10
1.0
 20
0.0
 30
0.0
  9
$UCSYDIR
 10
0.0
 20
1.0
 30
0.0
  9
$PUCSNAME
  2

  9
$PUCSORG
 10
0.0
 20
0.0
 30
0.0
  9
$PUCSXDIR
 10
1.0
 20
0.0
 30
0.0
  9
$PUCSYDIR
 10
0.0
 20
1.0
 30
0.0
  9
$USERI1
 70
     0
  9
$USERI2
 70
     0
  9
$USERI3
 70
     0
  9
$USERI4
 70
     0
  9
$USERI5
 70
     0
  9
$USERR1
 40
0.0
  9
$USERR2
 40
0.0
  9
$USERR3
 40
0.0
  9
$USERR4
 40
0.0
  9
$USERR5
 40
0.0
  9
$WORLDVIEW
 70
     1
  9
$SHADEDGE
 70
     3
  9
$SHADEDIF
 70
    70
  9
$TILEMODE
 70
     1
  9
$MAXACTVP
 70
    16
  9
$PLIMCHECK
 70
     0
  9
$PEXTMIN
 10
1.000000E+020
 20
1.000000E+020
 30
1.000000E+020
  9
$PEXTMAX
 10
-1.000000E+020
 20
-1.000000E+020
 30
-1.000000E+020
  9
$PLIMMIN
 10
0.0
 20
0.0
  9
$PLIMMAX
 10
12.0
 20
9.0
  9
$UNITMODE
 70
     0
  9
$VISRETAIN
 70
     0
  9
$PLINEGEN
 70
     0
  9
$PSLTSCALE
 70
     0
  0
ENDSEC
  0
SECTION
  2
TABLES
  0
TABLE
  2
VPORT
 70
     2
  0
VPORT
  2
*ACTIVE
 70
     0
 10
0.0
 20
0.0
 11
1.0
 21
1.0
 12
301.998416
 22
148.368956
 13
0.0
 23
0.0
 14
1.0
 24
1.0
 15
2.0
 25
2.0
 16
0.0
 26
0.0
 36
1.0
 17
0.0
 27
0.0
 37
0.0
 40
309.537293
 41
1.525
 42
50.0
 43
0.0
 44
0.0
 50
0.0
 51
0.0
 71
     0
 72
   500
 73
     1
 74
     0
 75
     0
 76
     0
 77
     0
 78
     0
  0
ENDTAB
  0
TABLE
  2
LTYPE
 70
     1
  0
LTYPE
  2
AUSGEZOGEN
 70
     0
  3
Ausgezogene Linie
 72
    65
 73
     0
 40
0.0
  0
ENDTAB
  0
TABLE
  2
LAYER
 70
     5
  0
LAYER
  2
0
 70
     0
 62
     8
  6
AUSGEZOGEN
  0
LAYER
  2
05
 70
     0
 62
     2
  6
AUSGEZOGEN
  0
LAYER
  2
035
 70
     0
 62
     3
  6
AUSGEZOGEN
  0
LAYER
  2
025
 70
     0
 62
     4
  6
AUSGEZOGEN
  0
LAYER
  2
RAHMEN
 70
     0
 62
     2
  6
AUSGEZOGEN
  0
ENDTAB
  0
TABLE
  2
STYLE
 70
     3
  0
STYLE
  2
STANDARD
 70
     0
 40
0.0
 41
0.7
 50
15.0
 71
     0
 42
3.5
  3
txt
  4

  0
STYLE
  2
UNIV
 70
     0
 40
0.0
 41
1.0
 50
0.0
 71
     0
 42
2.5
  3
univ
  4

  0
STYLE
  2
SCRIPTS
 70
     0
 40
0.0
 41
1.0
 50
0.0
 71
     0
 42
5.0
  3
scripts
  4

  0
ENDTAB
  0
TABLE
  2
VIEW
 70
     0
  0
ENDTAB
  0
TABLE
  2
UCS
 70
     0
  0
ENDTAB
  0
TABLE
  2
APPID
 70
     1
  0
APPID
  2
ACAD
 70
     0
  0
ENDTAB
  0
TABLE
  2
DIMSTYLE
 70
     1
  0
DIMSTYLE
  2
STANDARD
 70
     0
  3

  4

  5

  6

  7

 40
1.0
 41
0.18
 42
0.0625
 43
0.38
 44
0.18
 45
0.0
 46
0.0
 47
0.0
 48
0.0
140
0.18
141
0.09
142
0.0
143
25.4
144
1.0
145
0.0
146
1.0
147
0.09
 71
     0
 72
     0
 73
     1
 74
     1
 75
     0
 76
     0
 77
     0
 78
     0
170
     0
171
     2
172
     0
173
     0
174
     0
175
     0
176
     0
177
     0
178
     0
  0
ENDTAB
  0
ENDSEC
  0
SECTION
  2
BLOCKS
  0
BLOCK
  8
0
  2
$MODEL_SPACE
 70
     0
 10
0.0
 20
0.0
 30
0.0
  3
$MODEL_SPACE
  1

  0
ENDBLK
  5
6
  8
0
  0
BLOCK
 67
     1
  8
0
  2
$PAPER_SPACE
 70
     0
 10
0.0
 20
0.0
 30
0.0
  3
$PAPER_SPACE
  1

  0
ENDBLK
  5
9
 67
     1
  8
0
  0
BLOCK
  8
0
  2
ZKOPF
 70
     2
 10
0.0
 20
0.0
 30
0.0
  3
ZKOPF
  1

  0
ATTDEF
  5
50
  8
0
 62
     4
 10
-13.321429
 20
37.0
 30
0.0
 40
2.5
  1
Dobler
  7
SCRIPTS
 72
     1
 11
-8.5
 21
37.0
 31
0.0
  3
Name des Konstrukteurs ?
  2
NAME
 70
     0
  0
POLYLINE
  5
51
  8
0
 62
     2
 66
     1
 10
0.0
 20
0.0
 30
0.0
  0
VERTEX
  5
43A
  8
0
 62
     2
 10
-51.0
 20
0.0
 30
0.0
  0
VERTEX
  5
43B
  8
0
 62
     2
 10
-51.0
 20
46.0
 30
0.0
  0
SEQEND
  5
43C
  8
0
 62
     2
  0
POLYLINE
  5
52
  8
0
 62
     2
 66
     1
 10
0.0
 20
0.0
 30
0.0
  0
VERTEX
  5
43D
  8
0
 62
     2
 10
-17.0
 20
9.0
 30
0.0
  0
VERTEX
  5
43E
  8
0
 62
     2
 10
-17.0
 20
46.0
 30
0.0
  0
SEQEND
  5
43F
  8
0
 62
     2
  0
POLYLINE
  5
53
  8
0
 62
     2
 66
     1
 10
0.0
 20
0.0
 30
0.0
  0
VERTEX
  5
440
  8
0
 62
     2
 10
-32.0
 20
26.0
 30
0.0
  0
VERTEX
  5
441
  8
0
 62
     2
 10
-32.0
 20
46.0
 30
0.0
  0
SEQEND
  5
442
  8
0
 62
     2
  0
POLYLINE
  5
54
  8
0
 62
     2
 66
     1
 10
0.0
 20
0.0
 30
0.0
  0
VERTEX
  5
443
  8
0
 62
     2
 10
-133.0
 20
41.0
 30
0.0
  0
VERTEX
  5
444
  8
0
 62
     2
 10
-92.0
 20
41.0
 30
0.0
  0
SEQEND
  5
445
  8
0
 62
     2
  0
POLYLINE
  5
55
  8
0
 62
     2
 66
     1
 10
0.0
 20
0.0
 30
0.0
  0
VERTEX
  5
446
  8
0
 62
     2
 10
-145.0
 20
0.0
 30
0.0
  0
VERTEX
  5
447
  8
0
 62
     2
 10
-145.0
 20
46.0
 30
0.0
  0
SEQEND
  5
448
  8
0
 62
     2
  0
POLYLINE
  5
56
  8
0
 62
     2
 66
     1
 10
0.0
 20
0.0
 30
0.0
  0
VERTEX
  5
449
  8
0
 62
     2
 10
-158.0
 20
0.0
 30
0.0
  0
VERTEX
  5
44A
  8
0
 62
     2
 10
-158.0
 20
46.0
 30
0.0
  0
SEQEND
  5
44B
  8
0
 62
     2
  0
LINE
  5
57
  8
0
 62
     2
 10
-200.0
 20
6.0
 30
0.0
 11
-133.0
 21
6.0
 31
0.0
  0
POLYLINE
  5
58
  8
0
 62
     4
 66
     1
 10
0.0
 20
0.0
 30
0.0
  0
VERTEX
  5
44C
  8
0
 62
     4
 10
-200.0
 20
11.0
 30
0.0
  0
VERTEX
  5
44D
  8
0
 62
     4
 10
-133.0
 20
11.0
 30
0.0
  0
SEQEND
  5
44E
  8
0
 62
     4
  0
POLYLINE
  5
59
  8
0
 62
     4
 66
     1
 10
0.0
 20
0.0
 30
0.0
  0
VERTEX
  5
44F
  8
0
 62
     4
 10
-200.0
 20
16.0
 30
0.0
  0
VERTEX
  5
450
  8
0
 62
     4
 10
-133.0
 20
16.0
 30
0.0
  0
SEQEND
  5
451
  8
0
 62
     4
  0
POLYLINE
  5
5A
  8
0
 62
     4
 66
     1
 10
0.0
 20
0.0
 30
0.0
  0
VERTEX
  5
452
  8
0
 62
     4
 10
-200.0
 20
21.0
 30
0.0
  0
VERTEX
  5
453
  8
0
 62
     4
 10
-133.0
 20
21.0
 30
0.0
  0
SEQEND
  5
454
  8
0
 62
     4
  0
POLYLINE
  5
5B
  8
0
 62
     4
 66
     1
 10
0.0
 20
0.0
 30
0.0
  0
VERTEX
  5
455
  8
0
 62
     4
 10
-200.0
 20
26.0
 30
0.0
  0
VERTEX
  5
456
  8
0
 62
     4
 10
-133.0
 20
26.0
 30
0.0
  0
SEQEND
  5
457
  8
0
 62
     4
  0
POLYLINE
  5
5C
  8
0
 62
     4
 66
     1
 10
0.0
 20
0.0
 30
0.0
  0
VERTEX
  5
458
  8
0
 62
     4
 10
-200.0
 20
31.0
 30
0.0
  0
VERTEX
  5
459
  8
0
 62
     4
 10
-133.0
 20
31.0
 30
0.0
  0
SEQEND
  5
45A
  8
0
 62
     4
  0
POLYLINE
  5
5D
  8
0
 62
     4
 66
     1
 10
0.0
 20
0.0
 30
0.0
  0
VERTEX
  5
45B
  8
0
 62
     4
 10
-200.0
 20
36.0
 30
0.0
  0
VERTEX
  5
45C
  8
0
 62
     4
 10
-133.0
 20
36.0
 30
0.0
  0
SEQEND
  5
45D
  8
0
 62
     4
  0
POLYLINE
  5
5E
  8
0
 62
     4
 66
     1
 10
0.0
 20
0.0
 30
0.0
  0
VERTEX
  5
45E
  8
0
 62
     4
 10
-200.0
 20
41.0
 30
0.0
  0
VERTEX
  5
45F
  8
0
 62
     4
 10
-133.0
 20
41.0
 30
0.0
  0
SEQEND
  5
460
  8
0
 62
     4
  0
TEXT
  5
5F
  8
0
 62
     4
 10
-50.0
 20
6.0
 30
0.0
 40
1.5
  1
Zeichn. Nr.
 51
15.0
  0
TEXT
  5
60
  8
0
 62
     4
 10
-50.0
 20
23.0
 30
0.0
 40
1.5
  1
Ersetzt durch:         Blatt
 51
15.0
  0
TEXT
  5
61
  8
0
 62
     4
 10
-50.0
 20
38.0
 30
0.0
 40
1.5
  1
Gezeichnet
 51
15.0
  0
TEXT
  5
62
  8
0
 62
     4
 10
-50.0
 20
27.0
 30
0.0
 40
1.5
  1
Gesehen
 51
15.0
  0
TEXT
  5
63
  8
0
 62
     4
 10
-31.0
 20
42.0
 30
0.0
 40
1.5
  1
Datum     Name
 51
15.0
  0
TEXT
  5
64
  8
0
 62
     4
 10
-91.0
 20
42.0
 30
0.0
 40
1.5
  1
Werkstoff:      Massstab:
 51
15.0
  0
TEXT
  5
65
  8
0
 62
     4
 10
-132.0
 20
23.0
 30
0.0
 40
1.5
  1
Benennung:
 51
15.0
  0
LINE
  5
66
  8
0
 62
     2
 10
-133.0
 20
33.0
 30
0.0
 11
-92.0
 21
33.0
 31
0.0
  0
TEXT
  5
67
  8
0
 62
     4
 10
-132.0
 20
39.0
 30
0.0
 40
1.5
  1
*)Lieferant darf ohne 
 51
15.0
  0
TEXT
  5
68
  8
0
 62
     4
 10
-132.0
 20
36.5
 30
0.0
 40
1.5
  1
 Ruecksprache nicht 
 51
15.0
  0
TEXT
  5
69
  8
0
 62
     4
 10
-132.0
 20
34.0
 30
0.0
 40
1.5
  1
 geaendert werden
 51
15.0
  0
TEXT
  5
6A
  8
0
 62
     4
 10
-132.0
 20
30.0
 30
0.0
 40
1.5
  1
Zeichnung urheberrechtlich
 51
15.0
  0
TEXT
  5
6B
  8
0
 62
     4
 10
-132.0
 20
27.5
 30
0.0
 40
1.5
  1
geschuetzt (DIN 34) (C)
 51
15.0
  0
TEXT
  5
6C
  8
0
 62
     4
 10
-50.0
 20
32.0
 30
0.0
 40
1.5
  1
Geprueft
 51
15.0
  0
TEXT
  5
6D
  8
0
 62
     4
 10
-50.0
 20
15.0
 30
0.0
 40
1.5
  1
Ersatz fuer:           von  Blatt
 51
15.0
  0
TEXT
  5
6E
  8
0
 62
     4
 10
-197.0
 20
1.0
 30
0.0
 40
1.5
  1
Ind.  Aenderung             Datum    Name
 51
15.0
  0
TEXT
  5
6F
  8
0
 62
     4
 10
-128.0
 20
3.0
 30
0.0
 40
3.005964
  1
NEUTRIK AG, FL-9494 SCHAAN
  7
UNIV
 72
     3
 11
-56.0
 21
3.0
 31
0.0
  0
ATTDEF
  5
71
  8
0
 62
     4
 10
-28.875
 20
37.0
 30
0.0
 40
2.5
  1
01.10.91
 41
0.7
 51
15.0
 72
     1
 11
-24.5
 21
37.0
 31
0.0
  3
Datum der Zeichnung ?
  2
DATE
 70
     0
  0
ATTDEF
  5
72
  8
0
 62
     4
 10
-80.5
 20
36.0
 30
0.0
 40
2.5
  1

 41
0.7
 51
15.0
 72
     1
 11
-80.5
 21
36.0
 31
0.0
  3
Aus welchem Werkstoff ?
  2
WERKSTOFF
 70
     0
  0
ATTDEF
  5
73
  8
0
 62
     2
 10
-92.0
 20
12.5
 30
0.0
 40
5.0
  1

 41
0.7
 51
15.0
 72
     1
 11
-92.0
 21
12.5
 31
0.0
  3
Zeichnungsname ?
  2
BENENNUNG
 70
     0
  0
ATTDEF
  5
74
  8
0
 62
     3
 10
-93.225
 20
21.0
 30
0.0
 40
3.5
  1
()
 41
0.7
 51
15.0
 72
     1
 11
-92.0
 21
21.0
 31
0.0
  3
Zu welchem Produkt ?
  2
TEIL
 70
     0
  0
ATTDEF
  5
75
  8
0
 62
     3
 10
-25.5
 20
2.0
 30
0.0
 40
3.5
  1

 41
0.7
 51
15.0
 72
     1
 11
-25.5
 21
2.0
 31
0.0
  3
Zeichnungsnummer ?
  2
NUMMER
 70
     0
  0
ATTDEF
  5
76
  8
0
 62
     2
 10
-63.860366
 20
34.930682
 30
0.0
 40
5.0
  1
5:1
 41
0.7
 51
15.0
 72
     1
 11
-60.943699
 21
34.930682
 31
0.0
  3
Hauptmassstab:
  2
MASS
 70
     0
  0
ATTDEF
  5
77
  8
0
 62
     3
 10
-60.0
 20
29.0
 30
0.0
 40
3.5
  1

 41
0.7
 51
15.0
 72
     1
 11
-60.0
 21
29.0
 31
0.0
  3
Nebenmassstab:
  2
MASS2
 70
     0
  0
ATTDEF
  5
78
  8
0
 62
     4
 10
-81.0
 20
29.0
 30
0.0
 40
2.5
  1

 41
0.7
 51
15.0
 72
     1
 11
-81.0
 21
29.0
 31
0.0
  3
Werkstoffzusatz:
  2
TEIL
 70
     0
  0
ATTDEF
  5
79
  8
0
 62
     3
 10
-99.549591
 20
59.004319
 30
0.0
 40
3.5
  1
Freimasstoleranzen %%p0.1
 41
0.7
 51
15.0
  3
Freimasstoleranzen:
  2
TOL
 70
     0
  0
ATTDEF
  5
7A
  8
0
 62
     3
 10
-99.549591
 20
54.004319
 30
0.0
 40
3.5
  1
nicht bemasste Radien R=0.2
 41
0.7
 51
15.0
  3
Nicht bemasste Radien:
  2
RADIEN
 70
     0
  0
ATTDEF
  5
7B
  8
0
 62
     3
 10
-99.549591
 20
49.004319
 30
0.0
 40
3.5
  1
nicht bemasste Facetten 0.5 x 45%%D
 41
0.7
 51
15.0
  3
nicht bemasste Facetten:
  2
FACETTE
 70
     0
  0
POLYLINE
  5
7C
  8
0
 62
     2
 66
     1
 10
0.0
 20
0.0
 30
0.0
  0
VERTEX
  5
461
  8
0
 62
     2
 10
-191.0
 20
0.0
 30
0.0
  0
VERTEX
  5
462
  8
0
 62
     2
 10
-191.0
 20
46.0
 30
0.0
  0
SEQEND
  5
463
  8
0
 62
     2
  0
POLYLINE
  5
7D
  8
0
 62
     2
 66
     1
 10
0.0
 20
0.0
 30
0.0
  0
VERTEX
  5
464
  8
0
 62
     2
 10
-133.0
 20
0.0
 30
0.0
  0
VERTEX
  5
465
  8
0
 62
     2
 10
-133.0
 20
46.0
 30
0.0
  0
SEQEND
  5
466
  8
0
 62
     2
  0
POLYLINE
  5
7E
  8
0
 62
     2
 66
     1
 10
0.0
 20
0.0
 30
0.0
  0
VERTEX
  5
467
  8
0
 62
     2
 10
-92.0
 20
26.0
 30
0.0
  0
VERTEX
  5
468
  8
0
 62
     2
 10
-92.0
 20
46.0
 30
0.0
  0
SEQEND
  5
469
  8
0
 62
     2
  0
POLYLINE
  5
7F
  8
0
 62
     2
 66
     1
 10
0.0
 20
0.0
 30
0.0
  0
VERTEX
  5
46A
  8
0
 62
     2
 10
-69.0
 20
26.0
 30
0.0
  0
VERTEX
  5
46B
  8
0
 62
     2
 10
-69.0
 20
46.0
 30
0.0
  0
SEQEND
  5
46C
  8
0
 62
     2
  0
ATTDEF
  5
80
  8
0
 62
     4
 10
-197.186267
 20
7.0
 30
0.0
 40
2.5
  1

 41
0.7
 51
15.0
  3
Index1:
  2
INDEX1
 70
     0
  0
ATTDEF
  5
81
  8
0
 62
     4
 10
-190.348743
 20
7.0
 30
0.0
 40
2.5
  1

 41
0.7
 51
15.0
  3
Aenderung1:
  2
A1
 70
     0
  0
ATTDEF
  5
82
  8
0
 62
     4
 10
-157.348743
 20
7.0
 30
0.0
 40
2.5
  1

 41
0.7
 51
15.0
  3
Datum1:
  2
DATUM1
 70
     0
  0
ATTDEF
  5
83
  8
0
 62
     4
 10
-144.46499
 20
7.0
 30
0.0
 40
2.5
  1

 41
0.7
 51
15.0
  3
Name1:
  2
NAME1
 70
     0
  0
ATTDEF
  5
84
  8
0
 62
     4
 10
-197.186267
 20
12.0
 30
0.0
 40
2.5
  1

 41
0.7
 51
15.0
  3
Index2:
  2
INDEX2
 70
     0
  0
ATTDEF
  5
85
  8
0
 62
     4
 10
-190.348743
 20
12.0
 30
0.0
 40
2.5
  1

 41
0.7
 51
15.0
  3
Aenderung2:
  2
A2
 70
     0
  0
ATTDEF
  5
86
  8
0
 62
     4
 10
-157.348743
 20
12.0
 30
0.0
 40
2.5
  1

 41
0.7
 51
15.0
  3
Datum2:
  2
DATUM2
 70
     0
  0
ATTDEF
  5
87
  8
0
 62
     4
 10
-144.46499
 20
12.0
 30
0.0
 40
2.5
  1

 41
0.7
 51
15.0
  3
Name2
  2
NAME2
 70
     0
  0
ATTDEF
  5
88
  8
0
 62
     4
 10
-197.186267
 20
17.0
 30
0.0
 40
2.5
  1

 41
0.7
 51
15.0
  3
Index3:
  2
INDEX3
 70
     0
  0
ATTDEF
  5
89
  8
0
 62
     4
 10
-190.348743
 20
17.0
 30
0.0
 40
2.5
  1

 41
0.7
 51
15.0
  3
Aenderung3
  2
A3
 70
     0
  0
ATTDEF
  5
8A
  8
0
 62
     4
 10
-157.348743
 20
17.0
 30
0.0
 40
2.5
  1

 41
0.7
 51
15.0
  3
Datum3:
  2
DATUM3
 70
     0
  0
ATTDEF
  5
8B
  8
0
 62
     4
 10
-144.46499
 20
17.0
 30
0.0
 40
2.5
  1

 41
0.7
 51
15.0
  3
Name3:
  2
NAME3
 70
     0
  0
ATTDEF
  5
8C
  8
0
 62
     4
 10
-197.186267
 20
22.0
 30
0.0
 40
2.5
  1

 41
0.7
 51
15.0
  3
Index4:
  2
INDEX4
 70
     0
  0
ATTDEF
  5
8D
  8
0
 62
     4
 10
-190.348743
 20
22.0
 30
0.0
 40
2.5
  1

 41
0.7
 51
15.0
  3
Aenderung4:
  2
A4
 70
     0
  0
ATTDEF
  5
8E
  8
0
 62
     4
 10
-157.348743
 20
22.0
 30
0.0
 40
2.5
  1

 41
0.7
 51
15.0
  3
Datum4:
  2
DATUM4
 70
     0
  0
ATTDEF
  5
8F
  8
0
 62
     4
 10
-144.46499
 20
22.0
 30
0.0
 40
2.5
  1

 41
0.7
 51
15.0
  3
Name4:
  2
NAME4
 70
     0
  0
ATTDEF
  5
90
  8
0
 62
     4
 10
-197.186267
 20
27.0
 30
0.0
 40
2.5
  1

 41
0.7
 51
15.0
  3
Index5:
  2
INDEX5
 70
     0
  0
ATTDEF
  5
91
  8
0
 62
     4
 10
-190.348743
 20
27.0
 30
0.0
 40
2.5
  1

 41
0.7
 51
15.0
  3
Aenderung5:
  2
A5
 70
     0
  0
ATTDEF
  5
92
  8
0
 62
     4
 10
-157.348743
 20
27.0
 30
0.0
 40
2.5
  1

 41
0.7
 51
15.0
  3
Datum5:
  2
DATUM5
 70
     0
  0
ATTDEF
  5
93
  8
0
 62
     4
 10
-144.46499
 20
27.0
 30
0.0
 40
2.5
  1

 41
0.7
 51
15.0
  3
Name5
  2
NAME5
 70
     0
  0
ATTDEF
  5
94
  8
0
 62
     4
 10
-197.186267
 20
32.0
 30
0.0
 40
2.5
  1

 41
0.7
 51
15.0
  3
Index6:
  2
INDEX6
 70
     0
  0
ATTDEF
  5
95
  8
0
 62
     4
 10
-190.348743
 20
32.0
 30
0.0
 40
2.5
  1

 41
0.7
 51
15.0
  3
Aenderung6:
  2
A6
 70
     0
  0
ATTDEF
  5
96
  8
0
 62
     4
 10
-157.348743
 20
32.0
 30
0.0
 40
2.5
  1

 41
0.7
 51
15.0
  3
Datum6:
  2
DATUM6
 70
     0
  0
ATTDEF
  5
97
  8
0
 62
     4
 10
-144.46499
 20
32.0
 30
0.0
 40
2.5
  1

 41
0.7
 51
15.0
  3
Name6:
  2
NAME6
 70
     0
  0
ATTDEF
  5
98
  8
0
 62
     4
 10
-197.186267
 20
37.0
 30
0.0
 40
2.5
  1

 41
0.7
 51
15.0
  3
Index7:
  2
INDEX7
 70
     0
  0
ATTDEF
  5
99
  8
0
 62
     4
 10
-190.348743
 20
37.0
 30
0.0
 40
2.5
  1

 41
0.7
 51
15.0
  3
Aenderung7:
  2
A7
 70
     0
  0
ATTDEF
  5
9A
  8
0
 62
     4
 10
-157.348743
 20
37.0
 30
0.0
 40
2.5
  1

 41
0.7
 51
15.0
  3
Datum7:
  2
DATUM7
 70
     0
  0
ATTDEF
  5
9B
  8
0
 62
     4
 10
-144.46499
 20
37.0
 30
0.0
 40
2.5
  1

 41
0.7
 51
15.0
  3
Name7:
  2
NAME7
 70
     0
  0
ATTDEF
  5
9C
  8
0
 62
     4
 10
-197.186267
 20
42.0
 30
0.0
 40
2.5
  1

 41
0.7
 51
15.0
  3
Index8:
  2
INDEX8
 70
     0
  0
ATTDEF
  5
9D
  8
0
 62
     4
 10
-190.348743
 20
42.0
 30
0.0
 40
2.5
  1

 41
0.7
 51
15.0
  3
Aenderung8:
  2
A8
 70
     0
  0
ATTDEF
  5
9E
  8
0
 62
     4
 10
-157.348743
 20
42.0
 30
0.0
 40
2.5
  1

 41
0.7
 51
15.0
  3
Datum8:
  2
DATUM8
 70
     0
  0
ATTDEF
  5
9F
  8
0
 62
     4
 10
-144.46499
 20
42.0
 30
0.0
 40
2.5
  1

 41
0.7
 51
15.0
  3
Name8:
  2
NAME8
 70
     0
  0
POLYLINE
  5
A0
  8
0
 62
     2
 66
     1
 10
0.0
 20
0.0
 30
0.0
  0
VERTEX
  5
46D
  8
0
 62
     2
 10
0.0
 20
0.0
 30
0.0
  0
VERTEX
  5
46E
  8
0
 62
     2
 10
0.0
 20
46.0
 30
0.0
  0
SEQEND
  5
46F
  8
0
 62
     2
  0
POLYLINE
  5
A1
  8
0
 62
     2
 66
     1
 10
0.0
 20
0.0
 30
0.0
  0
VERTEX
  5
470
  8
0
 62
     2
 10
-200.0
 20
46.0
 30
0.0
  0
VERTEX
  5
471
  8
0
 62
     2
 10
-200.0
 20
0.0
 30
0.0
  0
SEQEND
  5
472
  8
0
 62
     2
  0
POLYLINE
  5
A2
  8
0
 62
     2
 66
     1
 10
0.0
 20
0.0
 30
0.0
  0
VERTEX
  5
473
  8
0
 62
     2
 10
0.0
 20
9.0
 30
0.0
  0
VERTEX
  5
474
  8
0
 62
     2
 10
-133.0
 20
9.0
 30
0.0
  0
SEQEND
  5
475
  8
0
 62
     2
  0
POLYLINE
  5
A3
  8
0
 62
     2
 66
     1
 10
0.0
 20
0.0
 30
0.0
  0
VERTEX
  5
476
  8
0
 62
     2
 10
0.0
 20
18.0
 30
0.0
  0
VERTEX
  5
477
  8
0
 62
     2
 10
-51.0
 20
18.0
 30
0.0
  0
SEQEND
  5
478
  8
0
 62
     2
  0
POLYLINE
  5
A4
  8
0
 62
     2
 66
     1
 10
0.0
 20
0.0
 30
0.0
  0
VERTEX
  5
479
  8
0
 62
     2
 10
0.0
 20
26.0
 30
0.0
  0
VERTEX
  5
47A
  8
0
 62
     2
 10
-133.0
 20
26.0
 30
0.0
  0
SEQEND
  5
47B
  8
0
 62
     2
  0
POLYLINE
  5
A5
  8
0
 62
     2
 66
     1
 10
0.0
 20
0.0
 30
0.0
  0
VERTEX
  5
47C
  8
0
 62
     2
 10
0.0
 20
31.0
 30
0.0
  0
VERTEX
  5
47D
  8
0
 62
     2
 10
-51.0
 20
31.0
 30
0.0
  0
SEQEND
  5
47E
  8
0
 62
     2
  0
POLYLINE
  5
A6
  8
0
 62
     2
 66
     1
 10
0.0
 20
0.0
 30
0.0
  0
VERTEX
  5
47F
  8
0
 62
     2
 10
0.0
 20
36.0
 30
0.0
  0
VERTEX
  5
480
  8
0
 62
     2
 10
-51.0
 20
36.0
 30
0.0
  0
SEQEND
  5
481
  8
0
 62
     2
  0
POLYLINE
  5
A7
  8
0
 62
     2
 66
     1
 10
0.0
 20
0.0
 30
0.0
  0
VERTEX
  5
482
  8
0
 62
     2
 10
0.0
 20
41.0
 30
0.0
  0
VERTEX
  5
483
  8
0
 62
     2
 10
-51.0
 20
41.0
 30
0.0
  0
SEQEND
  5
484
  8
0
 62
     2
  0
POLYLINE
  5
A8
  8
0
 62
     2
 66
     1
 10
0.0
 20
0.0
 30
0.0
  0
VERTEX
  5
485
  8
0
 62
     2
 10
0.0
 20
46.0
 30
0.0
  0
VERTEX
  5
486
  8
0
 62
     2
 10
-200.0
 20
46.0
 30
0.0
  0
SEQEND
  5
487
  8
0
 62
     2
  0
ENDBLK
  5
AA
  8
0
  0
ENDSEC
  0
SECTION
  2
ENTITIES
  0
POLYLINE
  5
1E
  8
RAHMEN
 66
     1
 10
0.0
 20
0.0
 30
0.0
 70
     1
  0
VERTEX
  5
435
  8
RAHMEN
 10
202.0
 20
5.0
 30
0.0
  0
VERTEX
  5
436
  8
RAHMEN
 10
402.0
 20
5.0
 30
0.0
  0
VERTEX
  5
437
  8
RAHMEN
 10
402.0
 20
282.0
 30
0.0
  0
VERTEX
  5
438
  8
RAHMEN
 10
202.0
 20
282.0
 30
0.0
  0
SEQEND
  5
439
  8
RAHMEN
  0
INSERT
  5
20
  8
05
 66
     1
  2
ZKOPF
 10
402.0
 20
5.0
 30
0.0
  0
ATTRIB
  5
21
  8
0
 62
     4
 10
386.833333
 20
42.0
 30
0.0
 40
2.5
  1
Battlogg
  7
SCRIPTS
 72
     1
 11
393.5
 21
42.0
 31
0.0
  2
NAME
 70
     0
  0
ATTRIB
  5
23
  8
0
 62
     4
 10
373.125
 20
42.0
 30
0.0
 40
2.5
  1
25.7.00
 41
0.7
 51
15.0
 72
     1
 11
377.5
 21
42.0
 31
0.0
  2
DATE
 70
     0
  0
ATTRIB
  5
24
  8
0
 62
     4
 10
321.5
 20
41.0
 30
0.0
 40
2.5
  1

 41
0.7
 51
15.0
 72
     1
 11
321.5
 21
41.0
 31
0.0
  2
WERKSTOFF
 70
     0
  0
ATTRIB
  5
25
  8
0
 62
     2
 10
293.666667
 20
17.5
 30
0.0
 40
5.0
  1
DIE-BNC-JD
 41
0.7
 51
15.0
 72
     1
 11
310.0
 21
17.5
 31
0.0
  2
BENENNUNG
 70
     0
  0
ATTRIB
  5
26
  8
0
 62
     3
 10
306.733333
 20
26.0
 30
0.0
 40
3.5
  1
BNC
 41
0.7
 51
15.0
 72
     1
 11
310.0
 21
26.0
 31
0.0
  2
TEIL
 70
     0
  0
ATTRIB
  5
27
  8
0
 62
     3
 10
376.5
 20
7.0
 30
0.0
 40
3.5
  1

 41
0.7
 51
15.0
 72
     1
 11
376.5
 21
7.0
 31
0.0
  2
NUMMER
 70
     0
  0
ATTRIB
  5
28
  8
0
 62
     2
 10
341.056301
 20
39.930682
 30
0.0
 40
5.0
  1

 41
0.7
 51
15.0
 72
     1
 11
341.056301
 21
39.930682
 31
0.0
  2
MASS
 70
     0
  0
ATTRIB
  5
29
  8
0
 62
     3
 10
342.0
 20
34.0
 30
0.0
 40
3.5
  1

 41
0.7
 51
15.0
 72
     1
 11
342.0
 21
34.0
 31
0.0
  2
MASS2
 70
     0
  0
ATTRIB
  5
2A
  8
0
 62
     4
 10
321.0
 20
34.0
 30
0.0
 40
2.5
  1

 41
0.7
 51
15.0
 72
     1
 11
321.0
 21
34.0
 31
0.0
  2
TEIL
 70
     0
  0
ATTRIB
  5
2B
  8
0
 62
     3
 10
302.450409
 20
64.004319
 30
0.0
 40
3.5
  1
 
 41
0.7
 51
15.0
  2
TOL
 70
     0
  0
ATTRIB
  5
2C
  8
0
 62
     3
 10
302.450409
 20
59.004319
 30
0.0
 40
3.5
  1

 41
0.7
 51
15.0
  2
RADIEN
 70
     0
  0
ATTRIB
  5
2D
  8
0
 62
     3
 10
302.450409
 20
54.004319
 30
0.0
 40
3.5
  1

 41
0.7
 51
15.0
  2
FACETTE
 70
     0
  0
ATTRIB
  5
2E
  8
0
 62
     4
 10
204.813733
 20
12.0
 30
0.0
 40
2.5
  1

 41
0.7
 51
15.0
  2
INDEX1
 70
     0
  0
ATTRIB
  5
2F
  8
0
 62
     4
 10
211.651257
 20
12.0
 30
0.0
 40
2.5
  1

 41
0.7
 51
15.0
  2
A1
 70
     0
  0
ATTRIB
  5
30
  8
0
 62
     4
 10
244.651257
 20
12.0
 30
0.0
 40
2.5
  1

 41
0.7
 51
15.0
  2
DATUM1
 70
     0
  0
ATTRIB
  5
31
  8
0
 62
     4
 10
257.53501
 20
12.0
 30
0.0
 40
2.5
  1

 41
0.7
 51
15.0
  2
NAME1
 70
     0
  0
ATTRIB
  5
32
  8
0
 62
     4
 10
204.813733
 20
17.0
 30
0.0
 40
2.5
  1

 41
0.7
 51
15.0
  2
INDEX2
 70
     0
  0
ATTRIB
  5
33
  8
0
 62
     4
 10
211.651257
 20
17.0
 30
0.0
 40
2.5
  1

 41
0.7
 51
15.0
  2
A2
 70
     0
  0
ATTRIB
  5
34
  8
0
 62
     4
 10
244.651257
 20
17.0
 30
0.0
 40
2.5
  1

 41
0.7
 51
15.0
  2
DATUM2
 70
     0
  0
ATTRIB
  5
35
  8
0
 62
     4
 10
257.53501
 20
17.0
 30
0.0
 40
2.5
  1

 41
0.7
 51
15.0
  2
NAME2
 70
     0
  0
ATTRIB
  5
36
  8
0
 62
     4
 10
204.813733
 20
22.0
 30
0.0
 40
2.5
  1

 41
0.7
 51
15.0
  2
INDEX3
 70
     0
  0
ATTRIB
  5
37
  8
0
 62
     4
 10
211.651257
 20
22.0
 30
0.0
 40
2.5
  1

 41
0.7
 51
15.0
  2
A3
 70
     0
  0
ATTRIB
  5
38
  8
0
 62
     4
 10
244.651257
 20
22.0
 30
0.0
 40
2.5
  1

 41
0.7
 51
15.0
  2
DATUM3
 70
     0
  0
ATTRIB
  5
39
  8
0
 62
     4
 10
257.53501
 20
22.0
 30
0.0
 40
2.5
  1

 41
0.7
 51
15.0
  2
NAME3
 70
     0
  0
ATTRIB
  5
3A
  8
0
 62
     4
 10
204.813733
 20
27.0
 30
0.0
 40
2.5
  1

 41
0.7
 51
15.0
  2
INDEX4
 70
     0
  0
ATTRIB
  5
3B
  8
0
 62
     4
 10
211.651257
 20
27.0
 30
0.0
 40
2.5
  1

 41
0.7
 51
15.0
  2
A4
 70
     0
  0
ATTRIB
  5
3C
  8
0
 62
     4
 10
244.651257
 20
27.0
 30
0.0
 40
2.5
  1

 41
0.7
 51
15.0
  2
DATUM4
 70
     0
  0
ATTRIB
  5
3D
  8
0
 62
     4
 10
257.53501
 20
27.0
 30
0.0
 40
2.5
  1

 41
0.7
 51
15.0
  2
NAME4
 70
     0
  0
ATTRIB
  5
3E
  8
0
 62
     4
 10
204.813733
 20
32.0
 30
0.0
 40
2.5
  1

 41
0.7
 51
15.0
  2
INDEX5
 70
     0
  0
ATTRIB
  5
3F
  8
0
 62
     4
 10
211.651257
 20
32.0
 30
0.0
 40
2.5
  1

 41
0.7
 51
15.0
  2
A5
 70
     0
  0
ATTRIB
  5
40
  8
0
 62
     4
 10
244.651257
 20
32.0
 30
0.0
 40
2.5
  1

 41
0.7
 51
15.0
  2
DATUM5
 70
     0
  0
ATTRIB
  5
41
  8
0
 62
     4
 10
257.53501
 20
32.0
 30
0.0
 40
2.5
  1

 41
0.7
 51
15.0
  2
NAME5
 70
     0
  0
ATTRIB
  5
42
  8
0
 62
     4
 10
204.813733
 20
37.0
 30
0.0
 40
2.5
  1

 41
0.7
 51
15.0
  2
INDEX6
 70
     0
  0
ATTRIB
  5
43
  8
0
 62
     4
 10
211.651257
 20
37.0
 30
0.0
 40
2.5
  1

 41
0.7
 51
15.0
  2
A6
 70
     0
  0
ATTRIB
  5
44
  8
0
 62
     4
 10
244.651257
 20
37.0
 30
0.0
 40
2.5
  1

 41
0.7
 51
15.0
  2
DATUM6
 70
     0
  0
ATTRIB
  5
45
  8
0
 62
     4
 10
257.53501
 20
37.0
 30
0.0
 40
2.5
  1

 41
0.7
 51
15.0
  2
NAME6
 70
     0
  0
ATTRIB
  5
46
  8
0
 62
     4
 10
204.813733
 20
42.0
 30
0.0
 40
2.5
  1

 41
0.7
 51
15.0
  2
INDEX7
 70
     0
  0
ATTRIB
  5
47
  8
0
 62
     4
 10
211.651257
 20
42.0
 30
0.0
 40
2.5
  1

 41
0.7
 51
15.0
  2
A7
 70
     0
  0
ATTRIB
  5
48
  8
0
 62
     4
 10
244.651257
 20
42.0
 30
0.0
 40
2.5
  1

 41
0.7
 51
15.0
  2
DATUM7
 70
     0
  0
ATTRIB
  5
49
  8
0
 62
     4
 10
257.53501
 20
42.0
 30
0.0
 40
2.5
  1

 41
0.7
 51
15.0
  2
NAME7
 70
     0
  0
ATTRIB
  5
4A
  8
0
 62
     4
 10
204.813733
 20
47.0
 30
0.0
 40
2.5
  1

 41
0.7
 51
15.0
  2
INDEX8
 70
     0
  0
ATTRIB
  5
4B
  8
0
 62
     4
 10
211.651257
 20
47.0
 30
0.0
 40
2.5
  1

 41
0.7
 51
15.0
  2
A8
 70
     0
  0
ATTRIB
  5
4C
  8
0
 62
     4
 10
244.651257
 20
47.0
 30
0.0
 40
2.5
  1

 41
0.7
 51
15.0
  2
DATUM8
 70
     0
  0
ATTRIB
  5
4D
  8
0
 62
     4
 10
257.53501
 20
47.0
 30
0.0
 40
2.5
  1

 41
0.7
 51
15.0
  2
NAME8
 70
     0
  0
SEQEND
  5
AB
  8
05
  0
LINE
  5
AC
  8
05
 10
348.21512
 20
145.21012
 30
0.0
 11
344.472513
 21
139.782432
 31
0.0
  0
LINE
  5
AD
  8
025
 10
338.02078
 20
143.55289
 30
0.0
 11
338.513196
 21
143.230339
 31
0.0
  0
LINE
  5
AF
  8
025
 10
340.682431
 20
141.610056
 30
0.0
 11
340.242062
 21
144.3762
 31
0.0
  0
LINE
  5
B0
  8
025
 10
340.242062
 20
144.3762
 30
0.0
 11
340.682431
 21
141.610056
 31
0.0
  0
LINE
  5
B1
  8
025
 10
338.513196
 20
143.230339
 30
0.0
 11
338.02078
 21
143.55289
 31
0.0
  0
LINE
  5
B2
  8
025
 10
340.860287
 20
145.110406
 30
0.0
 11
341.376581
 21
141.86734
 31
0.0
  0
LINE
  5
B3
  8
025
 10
340.713929
 20
145.056159
 30
0.0
 11
341.182972
 21
142.109897
 31
0.0
  0
LINE
  5
B4
  8
025
 10
341.376581
 20
141.86734
 30
0.0
 11
340.860287
 21
145.110406
 31
0.0
  0
LINE
  5
B5
  8
025
 10
337.356999
 20
143.104837
 30
0.0
 11
337.250703
 21
143.772527
 31
0.0
  0
LINE
  5
B6
  8
025
 10
337.250703
 20
143.772527
 30
0.0
 11
337.356999
 21
143.104837
 31
0.0
  0
LINE
  5
B7
  8
05
 10
327.936581
 20
140.371981
 30
0.0
 11
327.086215
 21
145.713501
 31
0.0
  0
POLYLINE
  5
B8
  8
05
 66
     1
 10
0.0
 20
0.0
 30
0.0
  0
VERTEX
  5
488
  8
05
 10
331.224611
 20
140.528852
 30
0.0
  0
VERTEX
  5
489
  8
05
 10
330.853173
 20
141.971365
 30
0.0
  0
VERTEX
  5
48A
  8
05
 10
330.223103
 20
143.279108
 30
0.0
  0
VERTEX
  5
48B
  8
05
 10
329.727928
 20
143.984235
 30
0.0
  0
SEQEND
  5
48C
  8
05
  0
LINE
  5
B9
  8
05
 10
331.224611
 20
140.528852
 30
0.0
 11
327.086215
 21
145.713501
 31
0.0
  0
LINE
  5
BA
  8
05
 10
313.721792
 20
140.525294
 30
0.0
 11
313.220683
 21
143.672975
 31
0.0
  0
LINE
  5
BB
  8
05
 10
313.685177
 20
143.09105
 30
0.0
 11
313.220683
 21
143.672975
 31
0.0
  0
LINE
  5
BC
  8
05
 10
313.699048
 20
143.102122
 30
0.0
 11
314.977476
 21
144.956152
 31
0.0
  0
LINE
  5
BD
  8
05
 10
297.487981
 20
139.912876
 30
0.0
 11
292.279367
 21
146.438312
 31
0.0
  0
LINE
  5
BE
  8
05
 10
318.187899
 20
143.201166
 30
0.0
 11
316.370721
 21
144.008713
 31
0.0
  0
POLYLINE
  5
BF
  8
05
 66
     1
 10
0.0
 20
0.0
 30
0.0
  0
VERTEX
  5
48D
  8
05
 10
315.861926
 20
143.87655
 30
0.0
  0
VERTEX
  5
48E
  8
05
 10
316.470592
 20
144.034655
 30
0.0
  0
VERTEX
  5
48F
  8
05
 10
317.06422
 20
144.056104
 30
0.0
  0
VERTEX
  5
490
  8
05
 10
317.608304
 20
143.939627
 30
0.0
  0
VERTEX
  5
491
  8
05
 10
318.071209
 20
143.691977
 30
0.0
  0
VERTEX
  5
492
  8
05
 10
318.368503
 20
143.404082
 30
0.0
  0
SEQEND
  5
493
  8
05
  0
POLYLINE
  5
C0
  8
05
 66
     1
 10
0.0
 20
0.0
 30
0.0
  0
VERTEX
  5
494
  8
05
 10
316.076418
 20
140.095264
 30
0.0
  0
VERTEX
  5
495
  8
05
 10
316.664965
 20
140.380942
 30
0.0
  0
VERTEX
  5
496
  8
05
 10
317.198944
 20
140.777516
 30
0.0
  0
VERTEX
  5
497
  8
05
 10
317.647342
 20
141.261914
 30
0.0
  0
VERTEX
  5
498
  8
05
 10
317.984126
 20
141.805977
 30
0.0
  0
VERTEX
  5
499
  8
05
 10
318.189748
 20
142.378091
 30
0.0
  0
VERTEX
  5
49A
  8
05
 10
318.252278
 20
142.94502
 30
0.0
  0
VERTEX
  5
49B
  8
05
 10
318.168092
 20
143.473833
 30
0.0
  0
VERTEX
  5
49C
  8
05
 10
318.057231
 20
143.699455
 30
0.0
  0
SEQEND
  5
49D
  8
05
  0
LINE
  5
C1
  8
05
 10
255.069303
 20
144.896111
 30
0.0
 11
247.729558
 21
142.175661
 31
0.0
  0
LINE
  5
C2
  8
05
 10
292.164441
 20
140.581606
 30
0.0
 11
291.370139
 21
145.570961
 31
0.0
  0
POLYLINE
  5
C3
  8
05
 66
     1
 10
0.0
 20
0.0
 30
0.0
  0
VERTEX
  5
49E
  8
05
 10
248.163389
 20
140.069106
 30
0.0
  0
VERTEX
  5
49F
  8
05
 10
247.884079
 20
141.541895
 30
0.0
  0
VERTEX
  5
4A0
  8
05
 10
247.499614
 20
143.118773
 30
0.0
  0
VERTEX
  5
4A1
  8
05
 10
247.019463
 20
144.760913
 30
0.0
  0
VERTEX
  5
4A2
  8
05
 10
246.455447
 20
146.427881
 30
0.0
  0
VERTEX
  5
4A3
  8
05
 10
245.821454
 20
148.078629
 30
0.0
  0
VERTEX
  5
4A4
  8
05
 10
245.133096
 20
149.672511
 30
0.0
  0
VERTEX
  5
4A5
  8
05
 10
244.407323
 20
151.17028
 30
0.0
  0
VERTEX
  5
4A6
  8
05
 10
243.662005
 20
152.535057
 30
0.0
  0
VERTEX
  5
4A7
  8
05
 10
242.915494
 20
153.733235
 30
0.0
  0
VERTEX
  5
4A8
  8
05
 10
242.186173
 20
154.735312
 30
0.0
  0
VERTEX
  5
4A9
  8
05
 10
241.491998
 20
155.516614
 30
0.0
  0
VERTEX
  5
4AA
  8
05
 10
240.850064
 20
156.057901
 30
0.0
  0
VERTEX
  5
4AB
  8
05
 10
240.276177
 20
156.345847
 30
0.0
  0
VERTEX
  5
4AC
  8
05
 10
240.058341
 20
156.358035
 30
0.0
  0
SEQEND
  5
4AD
  8
05
  0
LINE
  5
C4
  8
05
 10
260.278982
 20
131.475947
 30
0.0
 11
252.838273
 21
178.214251
 31
0.0
  0
LINE
  5
C5
  8
035
 10
271.895532
 20
116.922546
 30
0.0
 11
265.369467
 21
157.915581
 31
0.0
  0
POLYLINE
  5
C6
  8
025
 66
     1
 10
0.0
 20
0.0
 30
0.0
  0
VERTEX
  5
4AE
  8
025
 10
224.596066
 20
131.333965
 30
0.0
  0
VERTEX
  5
4AF
  8
025
 10
224.316755
 20
132.806753
 30
0.0
  0
VERTEX
  5
4B0
  8
025
 10
223.932291
 20
134.383631
 30
0.0
  0
VERTEX
  5
4B1
  8
025
 10
223.452139
 20
136.025771
 30
0.0
  0
VERTEX
  5
4B2
  8
025
 10
222.888123
 20
137.692739
 30
0.0
  0
VERTEX
  5
4B3
  8
025
 10
222.254131
 20
139.343487
 30
0.0
  0
VERTEX
  5
4B4
  8
025
 10
221.565773
 20
140.937369
 30
0.0
  0
VERTEX
  5
4B5
  8
025
 10
220.84
 20
142.435139
 30
0.0
  0
VERTEX
  5
4B6
  8
025
 10
220.094681
 20
143.799915
 30
0.0
  0
VERTEX
  5
4B7
  8
025
 10
219.348171
 20
144.998094
 30
0.0
  0
VERTEX
  5
4B8
  8
025
 10
218.618849
 20
146.000171
 30
0.0
  0
VERTEX
  5
4B9
  8
025
 10
217.924675
 20
146.781472
 30
0.0
  0
VERTEX
  5
4BA
  8
025
 10
217.282741
 20
147.32276
 30
0.0
  0
VERTEX
  5
4BB
  8
025
 10
216.708854
 20
147.610705
 30
0.0
  0
VERTEX
  5
4BC
  8
025
 10
216.217144
 20
147.638218
 30
0.0
  0
VERTEX
  5
4BD
  8
025
 10
216.125978
 20
147.610902
 30
0.0
  0
SEQEND
  5
4BE
  8
025
  0
POLYLINE
  5
C7
  8
05
 66
     1
 10
0.0
 20
0.0
 30
0.0
  0
VERTEX
  5
4BF
  8
05
 10
212.598946
 20
143.783724
 30
0.0
  0
VERTEX
  5
4C0
  8
05
 10
212.426762
 20
143.513912
 30
0.0
  0
VERTEX
  5
4C1
  8
05
 10
212.256305
 20
142.935617
 30
0.0
  0
VERTEX
  5
4C2
  8
05
 10
212.18772
 20
142.155342
 30
0.0
  0
VERTEX
  5
4C3
  8
05
 10
212.222879
 20
141.194372
 30
0.0
  0
VERTEX
  5
4C4
  8
05
 10
212.360823
 20
140.07892
 30
0.0
  0
SEQEND
  5
4C5
  8
05
  0
POLYLINE
  5
C8
  8
025
 66
     1
 10
0.0
 20
0.0
 30
0.0
  0
VERTEX
  5
4C6
  8
025
 10
219.621167
 20
130.983043
 30
0.0
  0
VERTEX
  5
4C7
  8
025
 10
219.384202
 20
132.222552
 30
0.0
  0
VERTEX
  5
4C8
  8
025
 10
219.054679
 20
133.552306
 30
0.0
  0
VERTEX
  5
4C9
  8
025
 10
218.641587
 20
134.936032
 30
0.0
  0
VERTEX
  5
4CA
  8
025
 10
218.156194
 20
136.335988
 30
0.0
  0
VERTEX
  5
4CB
  8
025
 10
217.611739
 20
137.713985
 30
0.0
  0
VERTEX
  5
4CC
  8
025
 10
217.023075
 20
139.032435
 30
0.0
  0
VERTEX
  5
4CD
  8
025
 10
216.406259
 20
140.255375
 30
0.0
  0
VERTEX
  5
4CE
  8
025
 10
215.778115
 20
141.349446
 30
0.0
  0
VERTEX
  5
4CF
  8
025
 10
215.155778
 20
142.284804
 30
0.0
  0
VERTEX
  5
4D0
  8
025
 10
214.556223
 20
143.035935
 30
0.0
  0
VERTEX
  5
4D1
  8
025
 10
213.995806
 20
143.582351
 30
0.0
  0
VERTEX
  5
4D2
  8
025
 10
213.489812
 20
143.909147
 30
0.0
  0
VERTEX
  5
4D3
  8
025
 10
213.052043
 20
144.007408
 30
0.0
  0
VERTEX
  5
4D4
  8
025
 10
212.694442
 20
143.874454
 30
0.0
  0
VERTEX
  5
4D5
  8
025
 10
212.598946
 20
143.783724
 30
0.0
  0
SEQEND
  5
4D6
  8
025
  0
POLYLINE
  5
C9
  8
025
 66
     1
 10
0.0
 20
0.0
 30
0.0
  0
VERTEX
  5
4D7
  8
025
 10
237.94086
 20
136.280164
 30
0.0
  0
VERTEX
  5
4D8
  8
025
 10
237.66155
 20
137.752952
 30
0.0
  0
VERTEX
  5
4D9
  8
025
 10
237.277085
 20
139.32983
 30
0.0
  0
VERTEX
  5
4DA
  8
025
 10
236.796933
 20
140.97197
 30
0.0
  0
VERTEX
  5
4DB
  8
025
 10
236.232917
 20
142.638938
 30
0.0
  0
VERTEX
  5
4DC
  8
025
 10
235.598925
 20
144.289686
 30
0.0
  0
VERTEX
  5
4DD
  8
025
 10
234.910567
 20
145.883568
 30
0.0
  0
VERTEX
  5
4DE
  8
025
 10
234.184794
 20
147.381337
 30
0.0
  0
VERTEX
  5
4DF
  8
025
 10
233.439476
 20
148.746114
 30
0.0
  0
VERTEX
  5
4E0
  8
025
 10
232.692965
 20
149.944292
 30
0.0
  0
VERTEX
  5
4E1
  8
025
 10
231.963643
 20
150.94637
 30
0.0
  0
VERTEX
  5
4E2
  8
025
 10
231.269469
 20
151.727671
 30
0.0
  0
VERTEX
  5
4E3
  8
025
 10
230.627535
 20
152.268959
 30
0.0
  0
VERTEX
  5
4E4
  8
025
 10
230.053648
 20
152.556904
 30
0.0
  0
VERTEX
  5
4E5
  8
025
 10
229.561938
 20
152.584417
 30
0.0
  0
VERTEX
  5
4E6
  8
025
 10
229.470772
 20
152.557101
 30
0.0
  0
SEQEND
  5
4E7
  8
025
  0
POLYLINE
  5
CA
  8
025
 66
     1
 10
0.0
 20
0.0
 30
0.0
  0
VERTEX
  5
4E8
  8
025
 10
234.895851
 20
135.151542
 30
0.0
  0
VERTEX
  5
4E9
  8
025
 10
234.616541
 20
136.624331
 30
0.0
  0
VERTEX
  5
4EA
  8
025
 10
234.232076
 20
138.201209
 30
0.0
  0
VERTEX
  5
4EB
  8
025
 10
233.751925
 20
139.843349
 30
0.0
  0
VERTEX
  5
4EC
  8
025
 10
233.187909
 20
141.510316
 30
0.0
  0
VERTEX
  5
4ED
  8
025
 10
232.553916
 20
143.161065
 30
0.0
  0
VERTEX
  5
4EE
  8
025
 10
231.865558
 20
144.754947
 30
0.0
  0
VERTEX
  5
4EF
  8
025
 10
231.139785
 20
146.252716
 30
0.0
  0
VERTEX
  5
4F0
  8
025
 10
230.394467
 20
147.617493
 30
0.0
  0
VERTEX
  5
4F1
  8
025
 10
229.647956
 20
148.815671
 30
0.0
  0
VERTEX
  5
4F2
  8
025
 10
228.918635
 20
149.817748
 30
0.0
  0
VERTEX
  5
4F3
  8
025
 10
228.22446
 20
150.59905
 30
0.0
  0
VERTEX
  5
4F4
  8
025
 10
227.582526
 20
151.140337
 30
0.0
  0
VERTEX
  5
4F5
  8
025
 10
227.28746
 20
151.315912
 30
0.0
  0
SEQEND
  5
4F6
  8
025
  0
POLYLINE
  5
CB
  8
05
 66
     1
 10
0.0
 20
0.0
 30
0.0
  0
VERTEX
  5
4F7
  8
05
 10
235.294148
 20
135.817793
 30
0.0
  0
VERTEX
  5
4F8
  8
05
 10
235.034449
 20
137.187173
 30
0.0
  0
VERTEX
  5
4F9
  8
05
 10
234.676979
 20
138.653334
 30
0.0
  0
VERTEX
  5
4FA
  8
05
 10
234.23054
 20
140.180175
 30
0.0
  0
VERTEX
  5
4FB
  8
05
 10
233.706125
 20
141.7301
 30
0.0
  0
VERTEX
  5
4FC
  8
05
 10
233.116647
 20
143.264945
 30
0.0
  0
VERTEX
  5
4FD
  8
05
 10
232.476621
 20
144.746916
 30
0.0
  0
VERTEX
  5
4FE
  8
05
 10
231.801806
 20
146.139523
 30
0.0
  0
VERTEX
  5
4FF
  8
05
 10
231.108819
 20
147.408475
 30
0.0
  0
VERTEX
  5
500
  8
05
 10
230.414722
 20
148.522526
 30
0.0
  0
VERTEX
  5
501
  8
05
 10
229.736608
 20
149.454244
 30
0.0
  0
VERTEX
  5
502
  8
05
 10
229.091174
 20
150.180688
 30
0.0
  0
VERTEX
  5
503
  8
05
 10
228.494312
 20
150.683971
 30
0.0
  0
VERTEX
  5
504
  8
05
 10
228.219963
 20
150.847218
 30
0.0
  0
SEQEND
  5
505
  8
05
  0
POLYLINE
  5
CC
  8
025
 66
     1
 10
0.0
 20
0.0
 30
0.0
  0
VERTEX
  5
506
  8
025
 10
236.903653
 20
136.41435
 30
0.0
  0
VERTEX
  5
507
  8
025
 10
236.643954
 20
137.78373
 30
0.0
  0
VERTEX
  5
508
  8
025
 10
236.286483
 20
139.249891
 30
0.0
  0
VERTEX
  5
509
  8
025
 10
235.840044
 20
140.776732
 30
0.0
  0
VERTEX
  5
50A
  8
025
 10
235.315629
 20
142.326657
 30
0.0
  0
VERTEX
  5
50B
  8
025
 10
234.726151
 20
143.861502
 30
0.0
  0
VERTEX
  5
50C
  8
025
 10
234.086125
 20
145.343473
 30
0.0
  0
VERTEX
  5
50D
  8
025
 10
233.41131
 20
146.73608
 30
0.0
  0
VERTEX
  5
50E
  8
025
 10
232.718323
 20
148.005032
 30
0.0
  0
VERTEX
  5
50F
  8
025
 10
232.024227
 20
149.119083
 30
0.0
  0
VERTEX
  5
510
  8
025
 10
231.346113
 20
150.050801
 30
0.0
  0
VERTEX
  5
511
  8
025
 10
230.700679
 20
150.777245
 30
0.0
  0
VERTEX
  5
512
  8
025
 10
230.103817
 20
151.280527
 30
0.0
  0
VERTEX
  5
513
  8
025
 10
229.570224
 20
151.548255
 30
0.0
  0
VERTEX
  5
514
  8
025
 10
229.113038
 20
151.573836
 30
0.0
  0
VERTEX
  5
515
  8
025
 10
229.028273
 20
151.548439
 30
0.0
  0
SEQEND
  5
516
  8
025
  0
LINE
  5
CD
  8
025
 10
334.62595
 20
141.789546
 30
0.0
 11
334.966515
 21
142.420838
 31
0.0
  0
LINE
  5
CE
  8
025
 10
334.868912
 20
140.263397
 30
0.0
 11
334.654157
 21
140.688862
 31
0.0
  0
LINE
  5
CF
  8
025
 10
334.654157
 20
140.688862
 30
0.0
 11
334.868912
 21
140.263397
 31
0.0
  0
LINE
  5
D0
  8
025
 10
334.966515
 20
142.420838
 30
0.0
 11
334.62595
 21
141.789546
 31
0.0
  0
LINE
  5
D1
  8
05
 10
332.074977
 20
135.187331
 30
0.0
 11
344.472513
 21
139.782432
 31
0.0
  0
LINE
  5
D2
  8
05
 10
271.895532
 20
116.922546
 30
0.0
 11
260.278982
 21
131.475947
 31
0.0
  0
LINE
  5
D3
  8
05
 10
247.533846
 20
135.192334
 30
0.0
 11
237.311317
 21
131.403391
 31
0.0
  0
LINE
  5
D4
  8
05
 10
223.563135
 20
126.418315
 30
0.0
 11
218.79702
 21
127.060983
 31
0.0
  0
POLYLINE
  5
D5
  8
05
 66
     1
 10
0.0
 20
0.0
 30
0.0
  0
VERTEX
  5
517
  8
05
 10
218.797133
 20
127.061075
 30
0.0
  0
VERTEX
  5
518
  8
05
 10
218.492178
 20
127.152816
 30
0.0
  0
VERTEX
  5
519
  8
05
 10
217.986184
 20
127.479612
 30
0.0
  0
VERTEX
  5
51A
  8
05
 10
217.425766
 20
128.026028
 30
0.0
  0
VERTEX
  5
51B
  8
05
 10
216.826212
 20
128.777159
 30
0.0
  0
VERTEX
  5
51C
  8
05
 10
216.203875
 20
129.712517
 30
0.0
  0
VERTEX
  5
51D
  8
05
 10
215.575731
 20
130.806588
 30
0.0
  0
VERTEX
  5
51E
  8
05
 10
214.958914
 20
132.029528
 30
0.0
  0
VERTEX
  5
51F
  8
05
 10
214.37025
 20
133.347978
 30
0.0
  0
VERTEX
  5
520
  8
05
 10
213.825796
 20
134.725975
 30
0.0
  0
VERTEX
  5
521
  8
05
 10
213.340403
 20
136.125931
 30
0.0
  0
VERTEX
  5
522
  8
05
 10
212.927311
 20
137.509658
 30
0.0
  0
VERTEX
  5
523
  8
05
 10
212.597788
 20
138.839411
 30
0.0
  0
VERTEX
  5
524
  8
05
 10
212.360823
 20
140.07892
 30
0.0
  0
SEQEND
  5
525
  8
05
  0
POLYLINE
  5
D6
  8
05
 66
     1
 10
0.0
 20
0.0
 30
0.0
  0
VERTEX
  5
526
  8
05
 10
219.621167
 20
130.983043
 30
0.0
  0
VERTEX
  5
527
  8
05
 10
219.75911
 20
129.867591
 30
0.0
  0
VERTEX
  5
528
  8
05
 10
219.794269
 20
128.906621
 30
0.0
  0
VERTEX
  5
529
  8
05
 10
219.725685
 20
128.126346
 30
0.0
  0
VERTEX
  5
52A
  8
05
 10
219.555228
 20
127.548051
 30
0.0
  0
VERTEX
  5
52B
  8
05
 10
219.287547
 20
127.187509
 30
0.0
  0
VERTEX
  5
52C
  8
05
 10
218.929946
 20
127.054555
 30
0.0
  0
VERTEX
  5
52D
  8
05
 10
218.797133
 20
127.061075
 30
0.0
  0
SEQEND
  5
52E
  8
05
  0
POLYLINE
  5
D7
  8
05
 66
     1
 10
0.0
 20
0.0
 30
0.0
  0
VERTEX
  5
52F
  8
05
 10
234.895851
 20
135.151542
 30
0.0
  0
VERTEX
  5
530
  8
05
 10
235.06313
 20
133.819109
 30
0.0
  0
VERTEX
  5
531
  8
05
 10
235.114259
 20
132.65984
 30
0.0
  0
VERTEX
  5
532
  8
05
 10
235.047978
 20
131.702279
 30
0.0
  0
VERTEX
  5
533
  8
05
 10
234.846478
 20
130.92176
 30
0.0
  0
SEQEND
  5
534
  8
05
  0
POLYLINE
  5
D8
  8
05
 66
     1
 10
0.0
 20
0.0
 30
0.0
  0
VERTEX
  5
535
  8
05
 10
235.294148
 20
135.817793
 30
0.0
  0
VERTEX
  5
536
  8
05
 10
235.449682
 20
134.578914
 30
0.0
  0
VERTEX
  5
537
  8
05
 10
235.497221
 20
133.50104
 30
0.0
  0
VERTEX
  5
538
  8
05
 10
235.435593
 20
132.610712
 30
0.0
  0
VERTEX
  5
539
  8
05
 10
235.248241
 20
131.884995
 30
0.0
  0
SEQEND
  5
53A
  8
05
  0
POLYLINE
  5
D9
  8
025
 66
     1
 10
0.0
 20
0.0
 30
0.0
  0
VERTEX
  5
53B
  8
025
 10
236.903653
 20
136.41435
 30
0.0
  0
VERTEX
  5
53C
  8
025
 10
237.059187
 20
135.175471
 30
0.0
  0
VERTEX
  5
53D
  8
025
 10
237.106725
 20
134.097597
 30
0.0
  0
VERTEX
  5
53E
  8
025
 10
237.045098
 20
133.207269
 30
0.0
  0
VERTEX
  5
53F
  8
025
 10
236.875822
 20
132.526411
 30
0.0
  0
VERTEX
  5
540
  8
025
 10
236.603067
 20
132.071787
 30
0.0
  0
VERTEX
  5
541
  8
025
 10
236.318312
 20
131.879989
 30
0.0
  0
SEQEND
  5
542
  8
025
  0
POLYLINE
  5
DA
  8
025
 66
     1
 10
0.0
 20
0.0
 30
0.0
  0
VERTEX
  5
543
  8
025
 10
237.94086
 20
136.280164
 30
0.0
  0
VERTEX
  5
544
  8
025
 10
238.108139
 20
134.94773
 30
0.0
  0
VERTEX
  5
545
  8
025
 10
238.159268
 20
133.788461
 30
0.0
  0
VERTEX
  5
546
  8
025
 10
238.092986
 20
132.8309
 30
0.0
  0
VERTEX
  5
547
  8
025
 10
237.910928
 20
132.098627
 30
0.0
  0
VERTEX
  5
548
  8
025
 10
237.617575
 20
131.609672
 30
0.0
  0
VERTEX
  5
549
  8
025
 10
237.311317
 20
131.403391
 30
0.0
  0
SEQEND
  5
54A
  8
025
  0
LINE
  5
DB
  8
05
 10
234.266308
 20
130.27477
 30
0.0
 11
223.966523
 21
126.457192
 31
0.0
  0
POLYLINE
  5
DC
  8
05
 66
     1
 10
0.0
 20
0.0
 30
0.0
  0
VERTEX
  5
54B
  8
05
 10
223.966523
 20
126.457192
 30
0.0
  0
VERTEX
  5
54C
  8
05
 10
223.875357
 20
126.429876
 30
0.0
  0
VERTEX
  5
54D
  8
05
 10
223.563135
 20
126.418315
 30
0.0
  0
SEQEND
  5
54E
  8
05
  0
POLYLINE
  5
DD
  8
05
 66
     1
 10
0.0
 20
0.0
 30
0.0
  0
VERTEX
  5
54F
  8
05
 10
224.596066
 20
131.333965
 30
0.0
  0
VERTEX
  5
550
  8
05
 10
224.763345
 20
130.001531
 30
0.0
  0
VERTEX
  5
551
  8
05
 10
224.814473
 20
128.842262
 30
0.0
  0
VERTEX
  5
552
  8
05
 10
224.748192
 20
127.884702
 30
0.0
  0
VERTEX
  5
553
  8
05
 10
224.566134
 20
127.152428
 30
0.0
  0
VERTEX
  5
554
  8
05
 10
224.272781
 20
126.663473
 30
0.0
  0
VERTEX
  5
555
  8
05
 10
223.966523
 20
126.457192
 30
0.0
  0
SEQEND
  5
556
  8
05
  0
POLYLINE
  5
DE
  8
05
 66
     1
 10
0.0
 20
0.0
 30
0.0
  0
VERTEX
  5
557
  8
05
 10
237.311317
 20
131.403391
 30
0.0
  0
VERTEX
  5
558
  8
05
 10
237.220151
 20
131.376075
 30
0.0
  0
VERTEX
  5
559
  8
05
 10
236.728441
 20
131.403588
 30
0.0
  0
VERTEX
  5
55A
  8
05
 10
236.44962
 20
131.515959
 30
0.0
  0
SEQEND
  5
55B
  8
05
  0
LINE
  5
DF
  8
05
 10
236.44962
 20
131.515959
 30
0.0
 11
235.977027
 21
131.753493
 31
0.0
  0
LINE
  5
E0
  8
05
 10
235.248241
 20
131.884995
 30
0.0
 11
234.846478
 21
130.92176
 31
0.0
  0
LINE
  5
E1
  8
05
 10
236.318312
 20
131.879989
 30
0.0
 11
235.050092
 21
131.409928
 31
0.0
  0
POLYLINE
  5
E2
  8
05
 66
     1
 10
0.0
 20
0.0
 30
0.0
  0
VERTEX
  5
55C
  8
05
 10
234.846478
 20
130.92176
 30
0.0
  0
VERTEX
  5
55D
  8
05
 10
234.572566
 20
130.481051
 30
0.0
  0
VERTEX
  5
55E
  8
05
 10
234.266308
 20
130.27477
 30
0.0
  0
SEQEND
  5
55F
  8
05
  0
POLYLINE
  5
E3
  8
05
 66
     1
 10
0.0
 20
0.0
 30
0.0
  0
VERTEX
  5
560
  8
05
 10
248.163389
 20
140.069106
 30
0.0
  0
VERTEX
  5
561
  8
05
 10
248.330668
 20
138.736673
 30
0.0
  0
VERTEX
  5
562
  8
05
 10
248.381797
 20
137.577404
 30
0.0
  0
VERTEX
  5
563
  8
05
 10
248.315516
 20
136.619843
 30
0.0
  0
VERTEX
  5
564
  8
05
 10
248.133457
 20
135.88757
 30
0.0
  0
VERTEX
  5
565
  8
05
 10
247.840104
 20
135.398615
 30
0.0
  0
VERTEX
  5
566
  8
05
 10
247.533653
 20
135.192337
 30
0.0
  0
SEQEND
  5
567
  8
05
  0
LINE
  5
E4
  8
025
 10
278.749256
 20
120.169941
 30
0.0
 11
278.718886
 21
120.36071
 31
0.0
  0
LINE
  5
E5
  8
025
 10
279.264983
 20
120.574398
 30
0.0
 11
279.479739
 21
120.148934
 31
0.0
  0
LINE
  5
E6
  8
025
 10
279.458592
 20
120.331841
 30
0.0
 11
279.673348
 21
119.906377
 31
0.0
  0
LINE
  5
E7
  8
025
 10
279.458592
 20
120.331841
 30
0.0
 11
279.673348
 21
119.906377
 31
0.0
  0
LINE
  5
E8
  8
025
 10
278.749256
 20
120.169941
 30
0.0
 11
278.718886
 21
120.36071
 31
0.0
  0
LINE
  5
E9
  8
05
 10
289.250485
 20
119.314591
 30
0.0
 11
288.400118
 21
124.656111
 31
0.0
  0
LINE
  5
EA
  8
05
 10
289.250485
 20
119.314591
 30
0.0
 11
276.852949
 21
114.71949
 31
0.0
  0
LINE
  5
EB
  8
05
 10
271.895532
 20
116.922546
 30
0.0
 11
276.852949
 21
114.71949
 31
0.0
  0
LINE
  5
EC
  8
025
 10
278.994382
 20
119.553708
 30
0.0
 11
278.749256
 21
120.169941
 31
0.0
  0
LINE
  5
ED
  8
025
 10
279.996564
 20
119.723138
 30
0.0
 11
280.443425
 21
119.68674
 31
0.0
  0
LINE
  5
EE
  8
025
 10
279.673348
 20
119.906377
 30
0.0
 11
279.996564
 21
119.723138
 31
0.0
  0
LINE
  5
EF
  8
025
 10
279.673348
 20
119.906377
 30
0.0
 11
279.479739
 21
120.148934
 31
0.0
  0
LINE
  5
F0
  8
025
 10
279.139174
 20
119.517641
 30
0.0
 11
279.035183
 21
119.603263
 31
0.0
  0
LINE
  5
F1
  8
025
 10
279.035183
 20
119.603263
 30
0.0
 11
278.945199
 21
119.677351
 31
0.0
  0
LINE
  5
F2
  8
025
 10
279.948844
 20
119.099375
 30
0.0
 11
279.332783
 21
119.275085
 31
0.0
  0
LINE
  5
F3
  8
025
 10
280.51935
 20
119.209818
 30
0.0
 11
279.948844
 21
119.099375
 31
0.0
  0
LINE
  5
F4
  8
025
 10
279.332783
 20
119.275085
 30
0.0
 11
278.994382
 21
119.553708
 31
0.0
  0
LINE
  5
F5
  8
025
 10
280.443425
 20
119.68674
 30
0.0
 11
280.51935
 21
119.209818
 31
0.0
  0
LINE
  5
F6
  8
025
 10
279.332783
 20
119.275085
 30
0.0
 11
279.139174
 21
119.517641
 31
0.0
  0
LINE
  5
F7
  8
025
 10
279.948844
 20
119.099375
 30
0.0
 11
279.755235
 21
119.341932
 31
0.0
  0
LINE
  5
F8
  8
025
 10
280.51935
 20
119.209818
 30
0.0
 11
280.325741
 21
119.452375
 31
0.0
  0
LINE
  5
F9
  8
025
 10
280.286394
 20
119.69953
 30
0.0
 11
280.325741
 21
119.452375
 31
0.0
  0
LINE
  5
FA
  8
025
 10
280.325741
 20
119.452375
 30
0.0
 11
279.755235
 21
119.341932
 31
0.0
  0
LINE
  5
FB
  8
025
 10
279.755235
 20
119.341932
 30
0.0
 11
279.139174
 21
119.517641
 31
0.0
  0
LINE
  5
FC
  8
025
 10
279.673348
 20
119.906377
 30
0.0
 11
279.996564
 21
119.723138
 31
0.0
  0
LINE
  5
FD
  8
025
 10
279.996564
 20
119.723138
 30
0.0
 11
280.443425
 21
119.68674
 31
0.0
  0
LINE
  5
FE
  8
025
 10
280.443425
 20
119.68674
 30
0.0
 11
280.51935
 21
119.209818
 31
0.0
  0
LINE
  5
FF
  8
025
 10
280.51935
 20
119.209818
 30
0.0
 11
279.948844
 21
119.099375
 31
0.0
  0
LINE
  5
100
  8
025
 10
279.948844
 20
119.099375
 30
0.0
 11
279.332783
 21
119.275085
 31
0.0
  0
LINE
  5
101
  8
025
 10
279.332783
 20
119.275085
 30
0.0
 11
278.994382
 21
119.553708
 31
0.0
  0
LINE
  5
102
  8
025
 10
278.994382
 20
119.553708
 30
0.0
 11
278.749256
 21
120.169941
 31
0.0
  0
LINE
  5
103
  8
025
 10
277.822964
 20
125.988383
 30
0.0
 11
278.517114
 21
126.245668
 31
0.0
  0
LINE
  5
104
  8
025
 10
279.019643
 20
123.311817
 30
0.0
 11
278.292007
 21
123.042121
 31
0.0
  0
LINE
  5
105
  8
025
 10
278.370756
 20
126.191421
 30
0.0
 11
278.763874
 21
123.72208
 31
0.0
  0
LINE
  5
106
  8
025
 10
281.948842
 20
124.083197
 30
0.0
 11
278.339258
 21
122.745317
 31
0.0
  0
LINE
  5
107
  8
025
 10
278.339258
 20
122.745317
 30
0.0
 11
281.948842
 21
124.083197
 31
0.0
  0
LINE
  5
108
  8
025
 10
278.517114
 20
126.245668
 30
0.0
 11
277.822964
 21
125.988383
 31
0.0
  0
LINE
  5
109
  8
025
 10
278.339258
 20
122.745317
 30
0.0
 11
277.822964
 21
125.988383
 31
0.0
  0
LINE
  5
10A
  8
025
 10
277.822964
 20
125.988383
 30
0.0
 11
278.339258
 21
122.745317
 31
0.0
  0
LINE
  5
10B
  8
025
 10
280.380483
 20
125.623155
 30
0.0
 11
280.443388
 21
126.151533
 31
0.0
  0
LINE
  5
10C
  8
025
 10
280.881025
 20
126.122996
 30
0.0
 11
280.972136
 21
125.55069
 31
0.0
  0
LINE
  5
10D
  8
025
 10
281.074634
 20
125.880439
 30
0.0
 11
280.881025
 21
126.122996
 31
0.0
  0
LINE
  5
10E
  8
025
 10
280.443388
 20
126.151533
 30
0.0
 11
280.380483
 21
125.623155
 31
0.0
  0
LINE
  5
10F
  8
025
 10
283.864259
 20
125.904277
 30
0.0
 11
283.942349
 21
126.337271
 31
0.0
  0
LINE
  5
110
  8
025
 10
284.573596
 20
126.066177
 30
0.0
 11
284.379986
 21
126.308734
 31
0.0
  0
LINE
  5
111
  8
025
 10
278.517114
 20
126.245668
 30
0.0
 11
278.957483
 21
123.479523
 31
0.0
  0
LINE
  5
112
  8
025
 10
284.379986
 20
126.308734
 30
0.0
 11
284.039421
 21
125.677442
 31
0.0
  0
LINE
  5
113
  8
025
 10
281.152724
 20
126.313433
 30
0.0
 11
281.074634
 21
125.880439
 31
0.0
  0
LINE
  5
114
  8
025
 10
284.636499
 20
126.594555
 30
0.0
 11
284.573596
 21
126.066177
 31
0.0
  0
LINE
  5
115
  8
025
 10
278.957483
 20
123.479523
 30
0.0
 11
278.517114
 21
126.245668
 31
0.0
  0
LINE
  5
116
  8
025
 10
284.573596
 20
126.066177
 30
0.0
 11
284.636499
 21
126.594555
 31
0.0
  0
LINE
  5
117
  8
025
 10
283.942349
 20
126.337271
 30
0.0
 11
283.864259
 21
125.904277
 31
0.0
  0
LINE
  5
118
  8
025
 10
281.074634
 20
125.880439
 30
0.0
 11
281.152724
 21
126.313433
 31
0.0
  0
LINE
  5
119
  8
025
 10
282.363169
 20
123.327652
 30
0.0
 11
282.903305
 21
123.628864
 31
0.0
  0
LINE
  5
11A
  8
025
 10
282.484524
 20
123.167022
 30
0.0
 11
282.260671
 21
122.997903
 31
0.0
  0
LINE
  5
11B
  8
025
 10
282.97923
 20
123.151942
 30
0.0
 11
282.45428
 21
122.755346
 31
0.0
  0
LINE
  5
11C
  8
025
 10
282.97923
 20
123.151942
 30
0.0
 11
282.45428
 21
122.755346
 31
0.0
  0
LINE
  5
11D
  8
025
 10
282.363169
 20
123.327652
 30
0.0
 11
282.903305
 21
123.628864
 31
0.0
  0
LINE
  5
11E
  8
025
 10
281.977049
 20
122.982513
 30
0.0
 11
282.363169
 21
123.327652
 31
0.0
  0
LINE
  5
11F
  8
025
 10
281.775314
 20
122.402677
 30
0.0
 11
281.977049
 21
122.982513
 31
0.0
  0
LINE
  5
120
  8
025
 10
281.948842
 20
124.083197
 30
0.0
 11
281.755233
 21
124.325753
 31
0.0
  0
LINE
  5
121
  8
025
 10
282.260671
 20
122.997903
 30
0.0
 11
282.179455
 21
122.861764
 31
0.0
  0
LINE
  5
122
  8
025
 10
282.179455
 20
122.861764
 30
0.0
 11
282.028565
 21
122.608836
 31
0.0
  0
LINE
  5
123
  8
025
 10
282.028565
 20
122.608836
 30
0.0
 11
281.980847
 21
121.985074
 31
0.0
  0
LINE
  5
124
  8
025
 10
281.980847
 20
121.985074
 30
0.0
 11
282.041587
 21
121.603536
 31
0.0
  0
LINE
  5
125
  8
025
 10
282.174456
 20
121.742517
 30
0.0
 11
281.980847
 21
121.985074
 31
0.0
  0
LINE
  5
126
  8
025
 10
282.222174
 20
122.366279
 30
0.0
 11
282.028565
 21
122.608836
 31
0.0
  0
LINE
  5
127
  8
025
 10
282.45428
 20
122.755346
 30
0.0
 11
282.260671
 21
122.997903
 31
0.0
  0
LINE
  5
128
  8
025
 10
281.842546
 20
124.750887
 30
0.0
 11
281.948842
 21
124.083197
 31
0.0
  0
LINE
  5
129
  8
025
 10
282.222174
 20
122.366279
 30
0.0
 11
282.174456
 21
121.742517
 31
0.0
  0
LINE
  5
12A
  8
025
 10
282.45428
 20
122.755346
 30
0.0
 11
282.222174
 21
122.366279
 31
0.0
  0
LINE
  5
12B
  8
025
 10
281.948842
 20
124.083197
 30
0.0
 11
281.842546
 21
124.750887
 31
0.0
  0
LINE
  5
12C
  8
025
 10
282.45428
 20
122.755346
 30
0.0
 11
282.222174
 21
122.366279
 31
0.0
  0
LINE
  5
12D
  8
025
 10
282.222174
 20
122.366279
 30
0.0
 11
282.174456
 21
121.742517
 31
0.0
  0
LINE
  5
12E
  8
025
 10
281.775314
 20
122.402677
 30
0.0
 11
281.977049
 21
122.982513
 31
0.0
  0
LINE
  5
12F
  8
025
 10
281.977049
 20
122.982513
 30
0.0
 11
282.363169
 21
123.327652
 31
0.0
  0
LINE
  5
130
  8
025
 10
280.851222
 20
122.666242
 30
0.0
 11
281.298083
 21
122.629844
 31
0.0
  0
LINE
  5
131
  8
025
 10
280.280716
 20
122.555798
 30
0.0
 11
280.851222
 21
122.666242
 31
0.0
  0
LINE
  5
132
  8
025
 10
280.003056
 20
122.452885
 30
0.0
 11
280.280716
 21
122.555798
 31
0.0
  0
LINE
  5
133
  8
025
 10
279.462921
 20
122.151673
 30
0.0
 11
280.003056
 21
122.452885
 31
0.0
  0
LINE
  5
134
  8
025
 10
278.96834
 20
121.564308
 30
0.0
 11
279.462921
 21
122.151673
 31
0.0
  0
LINE
  5
135
  8
025
 10
281.619134
 20
121.536689
 30
0.0
 11
281.250364
 21
122.006081
 31
0.0
  0
LINE
  5
136
  8
025
 10
280.471594
 20
125.050848
 30
0.0
 11
280.380483
 21
125.623155
 31
0.0
  0
LINE
  5
137
  8
025
 10
280.68635
 20
124.625384
 30
0.0
 11
280.471594
 21
125.050848
 31
0.0
  0
LINE
  5
138
  8
025
 10
278.957483
 20
123.479523
 30
0.0
 11
281.178766
 21
124.302833
 31
0.0
  0
LINE
  5
139
  8
025
 10
281.365316
 20
124.978053
 30
0.0
 11
281.171707
 21
125.22061
 31
0.0
  0
LINE
  5
13A
  8
025
 10
281.178766
 20
124.302833
 30
0.0
 11
280.985156
 21
124.54539
 31
0.0
  0
LINE
  5
13B
  8
025
 10
278.957483
 20
123.479523
 30
0.0
 11
278.763874
 21
123.72208
 31
0.0
  0
LINE
  5
13C
  8
025
 10
281.250364
 20
122.006081
 30
0.0
 11
281.056754
 21
122.248638
 31
0.0
  0
LINE
  5
13D
  8
025
 10
280.972136
 20
125.55069
 30
0.0
 11
281.171707
 21
125.22061
 31
0.0
  0
LINE
  5
13E
  8
025
 10
281.165745
 20
125.308133
 30
0.0
 11
280.972136
 21
125.55069
 31
0.0
  0
LINE
  5
13F
  8
025
 10
281.178766
 20
124.302833
 30
0.0
 11
280.68635
 21
124.625384
 31
0.0
  0
LINE
  5
140
  8
025
 10
281.240925
 20
124.135127
 30
0.0
 11
279.019643
 21
123.311817
 31
0.0
  0
LINE
  5
141
  8
025
 10
280.985156
 20
124.54539
 30
0.0
 11
280.739399
 21
124.70637
 31
0.0
  0
LINE
  5
142
  8
025
 10
280.739399
 20
124.70637
 30
0.0
 11
280.599076
 21
124.798287
 31
0.0
  0
LINE
  5
143
  8
025
 10
281.056754
 20
122.248638
 30
0.0
 11
280.748723
 21
122.336493
 31
0.0
  0
LINE
  5
144
  8
025
 10
280.748723
 20
122.336493
 30
0.0
 11
280.163032
 21
122.321433
 31
0.0
  0
LINE
  5
145
  8
025
 10
280.163032
 20
122.321433
 30
0.0
 11
279.885373
 21
122.21852
 31
0.0
  0
LINE
  5
146
  8
025
 10
279.885373
 20
122.21852
 30
0.0
 11
279.617331
 21
121.978927
 31
0.0
  0
LINE
  5
147
  8
025
 10
279.617331
 20
121.978927
 30
0.0
 11
279.499252
 21
121.873381
 31
0.0
  0
LINE
  5
148
  8
025
 10
279.692861
 20
121.630824
 30
0.0
 11
279.499252
 21
121.873381
 31
0.0
  0
LINE
  5
149
  8
025
 10
280.078982
 20
121.975963
 30
0.0
 11
279.885373
 21
122.21852
 31
0.0
  0
LINE
  5
14A
  8
025
 10
280.356642
 20
122.078877
 30
0.0
 11
280.163032
 21
122.321433
 31
0.0
  0
LINE
  5
14B
  8
025
 10
280.942332
 20
122.093936
 30
0.0
 11
280.748723
 21
122.336493
 31
0.0
  0
LINE
  5
14C
  8
025
 10
281.165745
 20
125.308133
 30
0.0
 11
281.365316
 21
124.978053
 31
0.0
  0
LINE
  5
14D
  8
025
 10
281.074634
 20
125.880439
 30
0.0
 11
281.165745
 21
125.308133
 31
0.0
  0
LINE
  5
14E
  8
025
 10
280.078982
 20
121.975963
 30
0.0
 11
279.692861
 21
121.630824
 31
0.0
  0
LINE
  5
14F
  8
025
 10
280.356642
 20
122.078877
 30
0.0
 11
280.078982
 21
121.975963
 31
0.0
  0
LINE
  5
150
  8
025
 10
280.942332
 20
122.093936
 30
0.0
 11
280.356642
 21
122.078877
 31
0.0
  0
LINE
  5
151
  8
025
 10
281.250364
 20
122.006081
 30
0.0
 11
280.942332
 21
122.093936
 31
0.0
  0
LINE
  5
152
  8
025
 10
281.178766
 20
124.302833
 30
0.0
 11
278.957483
 21
123.479523
 31
0.0
  0
LINE
  5
153
  8
025
 10
280.68635
 20
124.625384
 30
0.0
 11
281.178766
 21
124.302833
 31
0.0
  0
LINE
  5
154
  8
025
 10
280.471594
 20
125.050848
 30
0.0
 11
280.68635
 21
124.625384
 31
0.0
  0
LINE
  5
155
  8
025
 10
280.380483
 20
125.623155
 30
0.0
 11
280.471594
 21
125.050848
 31
0.0
  0
LINE
  5
156
  8
025
 10
281.165745
 20
125.308133
 30
0.0
 11
281.074634
 21
125.880439
 31
0.0
  0
LINE
  5
157
  8
025
 10
281.365316
 20
124.978053
 30
0.0
 11
281.165745
 21
125.308133
 31
0.0
  0
LINE
  5
158
  8
025
 10
281.619134
 20
121.536689
 30
0.0
 11
281.250364
 21
122.006081
 31
0.0
  0
LINE
  5
159
  8
025
 10
281.250364
 20
122.006081
 30
0.0
 11
280.942332
 21
122.093936
 31
0.0
  0
LINE
  5
15A
  8
025
 10
280.942332
 20
122.093936
 30
0.0
 11
280.356642
 21
122.078877
 31
0.0
  0
LINE
  5
15B
  8
025
 10
280.356642
 20
122.078877
 30
0.0
 11
280.078982
 21
121.975963
 31
0.0
  0
LINE
  5
15C
  8
025
 10
280.078982
 20
121.975963
 30
0.0
 11
279.692861
 21
121.630824
 31
0.0
  0
LINE
  5
15D
  8
025
 10
278.96834
 20
121.564308
 30
0.0
 11
279.462921
 21
122.151673
 31
0.0
  0
LINE
  5
15E
  8
025
 10
279.462921
 20
122.151673
 30
0.0
 11
280.003056
 21
122.452885
 31
0.0
  0
LINE
  5
15F
  8
025
 10
280.003056
 20
122.452885
 30
0.0
 11
280.280716
 21
122.555798
 31
0.0
  0
LINE
  5
160
  8
025
 10
280.280716
 20
122.555798
 30
0.0
 11
280.851222
 21
122.666242
 31
0.0
  0
LINE
  5
161
  8
025
 10
280.851222
 20
122.666242
 30
0.0
 11
281.298083
 21
122.629844
 31
0.0
  0
LINE
  5
162
  8
025
 10
281.298083
 20
122.629844
 30
0.0
 11
281.775314
 21
122.402677
 31
0.0
  0
LINE
  5
163
  8
025
 10
281.365316
 20
124.978053
 30
0.0
 11
281.842546
 21
124.750887
 31
0.0
  0
LINE
  5
164
  8
025
 10
281.674844
 20
124.830715
 30
0.0
 11
281.755233
 21
124.325753
 31
0.0
  0
LINE
  5
165
  8
025
 10
281.755233
 20
124.325753
 30
0.0
 11
281.240925
 21
124.135127
 31
0.0
  0
LINE
  5
166
  8
025
 10
281.842546
 20
124.750887
 30
0.0
 11
281.365316
 21
124.978053
 31
0.0
  0
LINE
  5
167
  8
025
 10
281.298083
 20
122.629844
 30
0.0
 11
281.775314
 21
122.402677
 31
0.0
  0
LINE
  5
168
  8
025
 10
278.718886
 20
120.36071
 30
0.0
 11
278.75142
 21
121.079857
 31
0.0
  0
LINE
  5
169
  8
025
 10
279.267147
 20
121.484314
 30
0.0
 11
279.204242
 21
120.955935
 31
0.0
  0
LINE
  5
16A
  8
025
 10
279.204242
 20
120.955935
 30
0.0
 11
279.264983
 21
120.574398
 31
0.0
  0
LINE
  5
16B
  8
025
 10
279.458592
 20
120.331841
 30
0.0
 11
279.264983
 21
120.574398
 31
0.0
  0
LINE
  5
16C
  8
025
 10
279.397851
 20
120.713379
 30
0.0
 11
279.204242
 21
120.955935
 31
0.0
  0
LINE
  5
16D
  8
025
 10
279.460756
 20
121.241757
 30
0.0
 11
279.267147
 21
121.484314
 31
0.0
  0
LINE
  5
16E
  8
025
 10
279.397851
 20
120.713379
 30
0.0
 11
279.458592
 21
120.331841
 31
0.0
  0
LINE
  5
16F
  8
025
 10
279.460756
 20
121.241757
 30
0.0
 11
279.397851
 21
120.713379
 31
0.0
  0
LINE
  5
170
  8
025
 10
279.460756
 20
121.241757
 30
0.0
 11
279.397851
 21
120.713379
 31
0.0
  0
LINE
  5
171
  8
025
 10
279.397851
 20
120.713379
 30
0.0
 11
279.458592
 21
120.331841
 31
0.0
  0
LINE
  5
172
  8
025
 10
278.718886
 20
120.36071
 30
0.0
 11
278.75142
 21
121.079857
 31
0.0
  0
LINE
  5
173
  8
025
 10
282.235196
 20
121.36098
 30
0.0
 11
281.679875
 21
121.155152
 31
0.0
  0
LINE
  5
174
  8
025
 10
282.235196
 20
121.36098
 30
0.0
 11
281.679875
 21
121.155152
 31
0.0
  0
LINE
  5
175
  8
025
 10
278.75142
 20
121.079857
 30
0.0
 11
278.96834
 21
121.564308
 31
0.0
  0
LINE
  5
176
  8
025
 10
281.679875
 20
121.155152
 30
0.0
 11
281.619134
 21
121.536689
 31
0.0
  0
LINE
  5
177
  8
025
 10
282.041587
 20
121.603536
 30
0.0
 11
281.648376
 21
121.457794
 31
0.0
  0
LINE
  5
178
  8
025
 10
279.499252
 20
121.873381
 30
0.0
 11
279.267147
 21
121.484314
 31
0.0
  0
LINE
  5
179
  8
025
 10
282.235196
 20
121.36098
 30
0.0
 11
282.041587
 21
121.603536
 31
0.0
  0
LINE
  5
17A
  8
025
 10
279.692861
 20
121.630824
 30
0.0
 11
279.460756
 21
121.241757
 31
0.0
  0
LINE
  5
17B
  8
025
 10
282.174456
 20
121.742517
 30
0.0
 11
282.235196
 21
121.36098
 31
0.0
  0
LINE
  5
17C
  8
025
 10
282.174456
 20
121.742517
 30
0.0
 11
282.235196
 21
121.36098
 31
0.0
  0
LINE
  5
17D
  8
025
 10
281.679875
 20
121.155152
 30
0.0
 11
281.619134
 21
121.536689
 31
0.0
  0
LINE
  5
17E
  8
025
 10
279.692861
 20
121.630824
 30
0.0
 11
279.460756
 21
121.241757
 31
0.0
  0
LINE
  5
17F
  8
025
 10
278.75142
 20
121.079857
 30
0.0
 11
278.96834
 21
121.564308
 31
0.0
  0
LINE
  5
180
  8
025
 10
285.12622
 20
122.544819
 30
0.0
 11
285.048132
 21
122.111825
 31
0.0
  0
LINE
  5
181
  8
025
 10
285.241741
 20
121.869269
 30
0.0
 11
285.048132
 21
122.111825
 31
0.0
  0
LINE
  5
182
  8
025
 10
285.31983
 20
122.302263
 30
0.0
 11
285.12622
 21
122.544819
 31
0.0
  0
LINE
  5
183
  8
025
 10
285.31983
 20
122.302263
 30
0.0
 11
285.241741
 21
121.869269
 31
0.0
  0
LINE
  5
184
  8
025
 10
285.198349
 20
123.065337
 30
0.0
 11
285.31983
 21
122.302263
 31
0.0
  0
LINE
  5
185
  8
025
 10
285.198349
 20
123.065337
 30
0.0
 11
285.31983
 21
122.302263
 31
0.0
  0
LINE
  5
186
  8
025
 10
285.31983
 20
122.302263
 30
0.0
 11
285.241741
 21
121.869269
 31
0.0
  0
LINE
  5
187
  8
025
 10
284.337162
 20
123.85728
 30
0.0
 11
284.660378
 21
123.674041
 31
0.0
  0
LINE
  5
188
  8
025
 10
283.890301
 20
123.893678
 30
0.0
 11
284.337162
 21
123.85728
 31
0.0
  0
LINE
  5
189
  8
025
 10
283.458625
 20
123.834691
 30
0.0
 11
283.890301
 21
123.893678
 31
0.0
  0
LINE
  5
18A
  8
025
 10
282.903305
 20
123.628864
 30
0.0
 11
283.458625
 21
123.834691
 31
0.0
  0
LINE
  5
18B
  8
025
 10
284.519384
 20
122.712668
 30
0.0
 11
284.304628
 21
123.138133
 31
0.0
  0
LINE
  5
18C
  8
025
 10
284.610494
 20
122.140363
 30
0.0
 11
284.519384
 21
122.712668
 31
0.0
  0
LINE
  5
18D
  8
025
 10
284.54759
 20
121.611984
 30
0.0
 11
284.610494
 21
122.140363
 31
0.0
  0
LINE
  5
18E
  8
025
 10
284.660378
 20
123.674041
 30
0.0
 11
284.998779
 21
123.395417
 31
0.0
  0
LINE
  5
18F
  8
025
 10
283.632154
 20
125.51521
 30
0.0
 11
283.864259
 21
125.904277
 31
0.0
  0
LINE
  5
190
  8
025
 10
283.107203
 20
125.118614
 30
0.0
 11
283.632154
 21
125.51521
 31
0.0
  0
LINE
  5
191
  8
025
 10
283.198314
 20
124.546309
 30
0.0
 11
283.107203
 21
125.118614
 31
0.0
  0
LINE
  5
192
  8
025
 10
284.304628
 20
123.138133
 30
0.0
 11
284.170856
 21
123.305724
 31
0.0
  0
LINE
  5
193
  8
025
 10
284.170856
 20
123.305724
 30
0.0
 11
284.111019
 21
123.380689
 31
0.0
  0
LINE
  5
194
  8
025
 10
284.135427
 20
123.277445
 30
0.0
 11
283.827397
 21
123.365299
 31
0.0
  0
LINE
  5
195
  8
025
 10
284.304628
 20
123.138133
 30
0.0
 11
284.135427
 21
123.277445
 31
0.0
  0
LINE
  5
196
  8
025
 10
283.723265
 20
124.942905
 30
0.0
 11
283.529655
 21
125.185461
 31
0.0
  0
LINE
  5
197
  8
025
 10
284.23303
 20
125.434885
 30
0.0
 11
284.039421
 21
125.677442
 31
0.0
  0
LINE
  5
198
  8
025
 10
283.534551
 20
123.35777
 30
0.0
 11
282.97923
 21
123.151942
 31
0.0
  0
LINE
  5
199
  8
025
 10
284.111019
 20
123.380689
 30
0.0
 11
283.941818
 21
123.520001
 31
0.0
  0
LINE
  5
19A
  8
025
 10
283.941818
 20
123.520001
 30
0.0
 11
283.633788
 21
123.607856
 31
0.0
  0
LINE
  5
19B
  8
025
 10
283.633788
 20
123.607856
 30
0.0
 11
283.340942
 21
123.600326
 31
0.0
  0
LINE
  5
19C
  8
025
 10
283.340942
 20
123.600326
 30
0.0
 11
282.965465
 21
123.461157
 31
0.0
  0
LINE
  5
19D
  8
025
 10
282.965465
 20
123.461157
 30
0.0
 11
282.785621
 21
123.394499
 31
0.0
  0
LINE
  5
19E
  8
025
 10
282.785621
 20
123.394499
 30
0.0
 11
282.484524
 21
123.167022
 31
0.0
  0
LINE
  5
19F
  8
025
 10
283.827397
 20
123.365299
 30
0.0
 11
283.534551
 21
123.35777
 31
0.0
  0
LINE
  5
1A0
  8
025
 10
284.905275
 20
123.472404
 30
0.0
 11
284.964392
 21
123.374627
 31
0.0
  0
LINE
  5
1A1
  8
025
 10
284.964392
 20
123.374627
 30
0.0
 11
285.00474
 21
123.307893
 31
0.0
  0
LINE
  5
1A2
  8
025
 10
284.039421
 20
125.677442
 30
0.0
 11
283.747494
 21
125.3957
 31
0.0
  0
LINE
  5
1A3
  8
025
 10
283.747494
 20
125.3957
 30
0.0
 11
283.529655
 21
125.185461
 31
0.0
  0
LINE
  5
1A4
  8
025
 10
283.529655
 20
125.185461
 30
0.0
 11
283.228558
 21
124.957985
 31
0.0
  0
LINE
  5
1A5
  8
025
 10
283.228558
 20
124.957985
 30
0.0
 11
283.143059
 21
124.893391
 31
0.0
  0
LINE
  5
1A6
  8
025
 10
282.97923
 20
123.151942
 30
0.0
 11
282.785621
 21
123.394499
 31
0.0
  0
LINE
  5
1A7
  8
025
 10
283.534551
 20
123.35777
 30
0.0
 11
283.340942
 21
123.600326
 31
0.0
  0
LINE
  5
1A8
  8
025
 10
283.827397
 20
123.365299
 30
0.0
 11
283.633788
 21
123.607856
 31
0.0
  0
LINE
  5
1A9
  8
025
 10
284.135427
 20
123.277445
 30
0.0
 11
283.941818
 21
123.520001
 31
0.0
  0
LINE
  5
1AA
  8
025
 10
283.723265
 20
124.942905
 30
0.0
 11
283.198314
 21
124.546309
 31
0.0
  0
LINE
  5
1AB
  8
025
 10
284.23303
 20
125.434885
 30
0.0
 11
283.723265
 21
124.942905
 31
0.0
  0
LINE
  5
1AC
  8
025
 10
284.573596
 20
126.066177
 30
0.0
 11
284.23303
 21
125.434885
 31
0.0
  0
LINE
  5
1AD
  8
025
 10
284.23303
 20
125.434885
 30
0.0
 11
284.573596
 21
126.066177
 31
0.0
  0
LINE
  5
1AE
  8
025
 10
283.723265
 20
124.942905
 30
0.0
 11
284.23303
 21
125.434885
 31
0.0
  0
LINE
  5
1AF
  8
025
 10
283.198314
 20
124.546309
 30
0.0
 11
283.723265
 21
124.942905
 31
0.0
  0
LINE
  5
1B0
  8
025
 10
283.107203
 20
125.118614
 30
0.0
 11
283.198314
 21
124.546309
 31
0.0
  0
LINE
  5
1B1
  8
025
 10
283.632154
 20
125.51521
 30
0.0
 11
283.107203
 21
125.118614
 31
0.0
  0
LINE
  5
1B2
  8
025
 10
283.864259
 20
125.904277
 30
0.0
 11
283.632154
 21
125.51521
 31
0.0
  0
LINE
  5
1B3
  8
025
 10
284.337162
 20
123.85728
 30
0.0
 11
284.660378
 21
123.674041
 31
0.0
  0
LINE
  5
1B4
  8
025
 10
284.660378
 20
123.674041
 30
0.0
 11
284.998779
 21
123.395417
 31
0.0
  0
LINE
  5
1B5
  8
025
 10
284.54759
 20
121.611984
 30
0.0
 11
284.610494
 21
122.140363
 31
0.0
  0
LINE
  5
1B6
  8
025
 10
284.610494
 20
122.140363
 30
0.0
 11
284.519384
 21
122.712668
 31
0.0
  0
LINE
  5
1B7
  8
025
 10
284.519384
 20
122.712668
 30
0.0
 11
284.304628
 21
123.138133
 31
0.0
  0
LINE
  5
1B8
  8
025
 10
284.304628
 20
123.138133
 30
0.0
 11
284.135427
 21
123.277445
 31
0.0
  0
LINE
  5
1B9
  8
025
 10
284.135427
 20
123.277445
 30
0.0
 11
283.827397
 21
123.365299
 31
0.0
  0
LINE
  5
1BA
  8
025
 10
283.827397
 20
123.365299
 30
0.0
 11
283.534551
 21
123.35777
 31
0.0
  0
LINE
  5
1BB
  8
025
 10
283.534551
 20
123.35777
 30
0.0
 11
282.97923
 21
123.151942
 31
0.0
  0
LINE
  5
1BC
  8
025
 10
282.903305
 20
123.628864
 30
0.0
 11
283.458625
 21
123.834691
 31
0.0
  0
LINE
  5
1BD
  8
025
 10
283.458625
 20
123.834691
 30
0.0
 11
283.890301
 21
123.893678
 31
0.0
  0
LINE
  5
1BE
  8
025
 10
283.890301
 20
123.893678
 30
0.0
 11
284.337162
 21
123.85728
 31
0.0
  0
LINE
  5
1BF
  8
025
 10
285.048132
 20
122.111825
 30
0.0
 11
284.831211
 21
121.627374
 31
0.0
  0
LINE
  5
1C0
  8
025
 10
285.00474
 20
123.307893
 30
0.0
 11
285.12622
 21
122.544819
 31
0.0
  0
LINE
  5
1C1
  8
025
 10
285.198349
 20
123.065337
 30
0.0
 11
285.00474
 21
123.307893
 31
0.0
  0
LINE
  5
1C2
  8
025
 10
284.998779
 20
123.395417
 30
0.0
 11
285.198349
 21
123.065337
 31
0.0
  0
LINE
  5
1C3
  8
025
 10
284.998779
 20
123.395417
 30
0.0
 11
285.198349
 21
123.065337
 31
0.0
  0
LINE
  5
1C4
  8
025
 10
284.19184
 20
121.076076
 30
0.0
 11
284.439129
 21
121.369759
 31
0.0
  0
LINE
  5
1C5
  8
025
 10
283.929364
 20
120.877778
 30
0.0
 11
284.19184
 21
121.076076
 31
0.0
  0
LINE
  5
1C6
  8
025
 10
284.00529
 20
120.400857
 30
0.0
 11
283.929364
 21
120.877778
 31
0.0
  0
LINE
  5
1C7
  8
025
 10
284.749995
 20
121.491235
 30
0.0
 11
284.599107
 21
121.238308
 31
0.0
  0
LINE
  5
1C8
  8
025
 10
284.599107
 20
121.238308
 30
0.0
 11
284.292113
 21
120.963897
 31
0.0
  0
LINE
  5
1C9
  8
025
 10
284.292113
 20
120.963897
 30
0.0
 11
284.212986
 21
120.893168
 31
0.0
  0
LINE
  5
1CA
  8
025
 10
284.212986
 20
120.893168
 30
0.0
 11
284.001644
 21
120.761639
 31
0.0
  0
LINE
  5
1CB
  8
025
 10
284.001644
 20
120.761639
 30
0.0
 11
283.952703
 21
120.731179
 31
0.0
  0
LINE
  5
1CC
  8
025
 10
284.406595
 20
120.650611
 30
0.0
 11
284.00529
 21
120.400857
 31
0.0
  0
LINE
  5
1CD
  8
025
 10
284.792716
 20
120.995751
 30
0.0
 11
284.406595
 21
120.650611
 31
0.0
  0
LINE
  5
1CE
  8
025
 10
284.406595
 20
120.650611
 30
0.0
 11
284.212986
 21
120.893168
 31
0.0
  0
LINE
  5
1CF
  8
025
 10
284.792716
 20
120.995751
 30
0.0
 11
284.599107
 21
121.238308
 31
0.0
  0
LINE
  5
1D0
  8
025
 10
284.792716
 20
120.995751
 30
0.0
 11
284.406595
 21
120.650611
 31
0.0
  0
LINE
  5
1D1
  8
025
 10
284.406595
 20
120.650611
 30
0.0
 11
284.00529
 21
120.400857
 31
0.0
  0
LINE
  5
1D2
  8
025
 10
284.00529
 20
120.400857
 30
0.0
 11
283.929364
 21
120.877778
 31
0.0
  0
LINE
  5
1D3
  8
025
 10
283.929364
 20
120.877778
 30
0.0
 11
284.19184
 21
121.076076
 31
0.0
  0
LINE
  5
1D4
  8
025
 10
284.19184
 20
121.076076
 30
0.0
 11
284.439129
 21
121.369759
 31
0.0
  0
LINE
  5
1D5
  8
025
 10
285.02482
 20
121.384817
 30
0.0
 11
284.792716
 21
120.995751
 31
0.0
  0
LINE
  5
1D6
  8
025
 10
285.02482
 20
121.384817
 30
0.0
 11
284.792716
 21
120.995751
 31
0.0
  0
LINE
  5
1D7
  8
025
 10
284.439129
 20
121.369759
 30
0.0
 11
284.54759
 21
121.611984
 31
0.0
  0
LINE
  5
1D8
  8
025
 10
284.831211
 20
121.627374
 30
0.0
 11
284.749995
 21
121.491235
 31
0.0
  0
LINE
  5
1D9
  8
025
 10
285.02482
 20
121.384817
 30
0.0
 11
284.831211
 21
121.627374
 31
0.0
  0
LINE
  5
1DA
  8
025
 10
285.241741
 20
121.869269
 30
0.0
 11
285.02482
 21
121.384817
 31
0.0
  0
LINE
  5
1DB
  8
025
 10
285.241741
 20
121.869269
 30
0.0
 11
285.02482
 21
121.384817
 31
0.0
  0
LINE
  5
1DC
  8
025
 10
284.439129
 20
121.369759
 30
0.0
 11
284.54759
 21
121.611984
 31
0.0
  0
LINE
  5
1DD
  8
025
 10
281.957499
 20
127.722859
 30
0.0
 11
282.512819
 21
127.928686
 31
0.0
  0
LINE
  5
1DE
  8
025
 10
282.687982
 20
127.701851
 30
0.0
 11
282.256306
 21
127.642865
 31
0.0
  0
LINE
  5
1DF
  8
025
 10
282.881591
 20
127.459294
 30
0.0
 11
282.449916
 21
127.400308
 31
0.0
  0
LINE
  5
1E0
  8
025
 10
282.512819
 20
127.928686
 30
0.0
 11
281.957499
 21
127.722859
 31
0.0
  0
LINE
  5
1E1
  8
025
 10
282.449916
 20
127.400308
 30
0.0
 11
282.881591
 21
127.459294
 31
0.0
  0
LINE
  5
1E2
  8
025
 10
282.172255
 20
127.297394
 30
0.0
 11
281.978646
 21
127.539951
 31
0.0
  0
LINE
  5
1E3
  8
025
 10
282.449916
 20
127.400308
 30
0.0
 11
282.256306
 21
127.642865
 31
0.0
  0
LINE
  5
1E4
  8
025
 10
282.256306
 20
127.642865
 30
0.0
 11
282.019658
 21
127.555152
 31
0.0
  0
LINE
  5
1E5
  8
025
 10
282.019658
 20
127.555152
 30
0.0
 11
281.978646
 21
127.539951
 31
0.0
  0
LINE
  5
1E6
  8
025
 10
282.172255
 20
127.297394
 30
0.0
 11
281.77095
 21
127.047639
 31
0.0
  0
LINE
  5
1E7
  8
025
 10
282.449916
 20
127.400308
 30
0.0
 11
282.172255
 21
127.297394
 31
0.0
  0
LINE
  5
1E8
  8
025
 10
282.172255
 20
127.297394
 30
0.0
 11
282.449916
 21
127.400308
 31
0.0
  0
LINE
  5
1E9
  8
025
 10
281.77095
 20
127.047639
 30
0.0
 11
282.172255
 21
127.297394
 31
0.0
  0
LINE
  5
1EA
  8
025
 10
280.783953
 20
126.782825
 30
0.0
 11
281.293719
 21
127.274806
 31
0.0
  0
LINE
  5
1EB
  8
025
 10
281.57734
 20
127.290196
 30
0.0
 11
281.412038
 21
127.142438
 31
0.0
  0
LINE
  5
1EC
  8
025
 10
281.412038
 20
127.142438
 30
0.0
 11
281.19122
 21
126.945057
 31
0.0
  0
LINE
  5
1ED
  8
025
 10
281.19122
 20
126.945057
 30
0.0
 11
280.959115
 21
126.55599
 31
0.0
  0
LINE
  5
1EE
  8
025
 10
281.152724
 20
126.313433
 30
0.0
 11
280.959115
 21
126.55599
 31
0.0
  0
LINE
  5
1EF
  8
025
 10
281.38483
 20
126.7025
 30
0.0
 11
281.19122
 21
126.945057
 31
0.0
  0
LINE
  5
1F0
  8
025
 10
281.38483
 20
126.7025
 30
0.0
 11
281.152724
 21
126.313433
 31
0.0
  0
LINE
  5
1F1
  8
025
 10
281.293719
 20
127.274806
 30
0.0
 11
280.783953
 21
126.782825
 31
0.0
  0
LINE
  5
1F2
  8
025
 10
281.152724
 20
126.313433
 30
0.0
 11
281.38483
 21
126.7025
 31
0.0
  0
LINE
  5
1F3
  8
025
 10
281.293719
 20
127.274806
 30
0.0
 11
281.957499
 21
127.722859
 31
0.0
  0
LINE
  5
1F4
  8
025
 10
281.978646
 20
127.539951
 30
0.0
 11
281.57734
 21
127.290196
 31
0.0
  0
LINE
  5
1F5
  8
025
 10
281.77095
 20
127.047639
 30
0.0
 11
281.57734
 21
127.290196
 31
0.0
  0
LINE
  5
1F6
  8
025
 10
281.77095
 20
127.047639
 30
0.0
 11
281.38483
 21
126.7025
 31
0.0
  0
LINE
  5
1F7
  8
025
 10
281.957499
 20
127.722859
 30
0.0
 11
281.293719
 21
127.274806
 31
0.0
  0
LINE
  5
1F8
  8
025
 10
281.38483
 20
126.7025
 30
0.0
 11
281.77095
 21
127.047639
 31
0.0
  0
LINE
  5
1F9
  8
025
 10
280.443388
 20
126.151533
 30
0.0
 11
280.783953
 21
126.782825
 31
0.0
  0
LINE
  5
1FA
  8
025
 10
280.959115
 20
126.55599
 30
0.0
 11
280.881025
 21
126.122996
 31
0.0
  0
LINE
  5
1FB
  8
025
 10
280.783953
 20
126.782825
 30
0.0
 11
280.443388
 21
126.151533
 31
0.0
  0
LINE
  5
1FC
  8
025
 10
283.851239
 20
126.909577
 30
0.0
 11
283.651668
 21
127.239657
 31
0.0
  0
LINE
  5
1FD
  8
025
 10
283.942349
 20
126.337271
 30
0.0
 11
283.851239
 21
126.909577
 31
0.0
  0
LINE
  5
1FE
  8
025
 10
283.838217
 20
127.914877
 30
0.0
 11
284.330634
 21
127.592326
 31
0.0
  0
LINE
  5
1FF
  8
025
 10
283.237341
 20
127.995202
 30
0.0
 11
283.838217
 21
127.914877
 31
0.0
  0
LINE
  5
200
  8
025
 10
282.512819
 20
127.928686
 30
0.0
 11
283.237341
 21
127.995202
 31
0.0
  0
LINE
  5
201
  8
025
 10
283.651668
 20
127.239657
 30
0.0
 11
283.458059
 21
127.482214
 31
0.0
  0
LINE
  5
202
  8
025
 10
282.881591
 20
127.459294
 30
0.0
 11
282.687982
 21
127.701851
 31
0.0
  0
LINE
  5
203
  8
025
 10
283.328451
 20
127.422896
 30
0.0
 11
283.134842
 21
127.665453
 31
0.0
  0
LINE
  5
204
  8
025
 10
284.636499
 20
126.594555
 30
0.0
 11
284.44289
 21
126.837112
 31
0.0
  0
LINE
  5
205
  8
025
 10
284.545389
 20
127.166861
 30
0.0
 11
284.351779
 21
127.409418
 31
0.0
  0
LINE
  5
206
  8
025
 10
284.224298
 20
127.66198
 30
0.0
 11
284.273908
 21
127.563694
 31
0.0
  0
LINE
  5
207
  8
025
 10
284.273908
 20
127.563694
 30
0.0
 11
284.351779
 21
127.409418
 31
0.0
  0
LINE
  5
208
  8
025
 10
284.351779
 20
127.409418
 30
0.0
 11
284.44289
 21
126.837112
 31
0.0
  0
LINE
  5
209
  8
025
 10
284.44289
 20
126.837112
 30
0.0
 11
284.379986
 21
126.308734
 31
0.0
  0
LINE
  5
20A
  8
025
 10
283.458059
 20
127.482214
 30
0.0
 11
283.134842
 21
127.665453
 31
0.0
  0
LINE
  5
20B
  8
025
 10
283.134842
 20
127.665453
 30
0.0
 11
282.687982
 21
127.701851
 31
0.0
  0
LINE
  5
20C
  8
025
 10
283.328451
 20
127.422896
 30
0.0
 11
282.881591
 21
127.459294
 31
0.0
  0
LINE
  5
20D
  8
025
 10
283.651668
 20
127.239657
 30
0.0
 11
283.328451
 21
127.422896
 31
0.0
  0
LINE
  5
20E
  8
025
 10
284.545389
 20
127.166861
 30
0.0
 11
284.636499
 21
126.594555
 31
0.0
  0
LINE
  5
20F
  8
025
 10
284.330634
 20
127.592326
 30
0.0
 11
284.545389
 21
127.166861
 31
0.0
  0
LINE
  5
210
  8
025
 10
283.237341
 20
127.995202
 30
0.0
 11
282.512819
 21
127.928686
 31
0.0
  0
LINE
  5
211
  8
025
 10
283.838217
 20
127.914877
 30
0.0
 11
283.237341
 21
127.995202
 31
0.0
  0
LINE
  5
212
  8
025
 10
284.330634
 20
127.592326
 30
0.0
 11
283.838217
 21
127.914877
 31
0.0
  0
LINE
  5
213
  8
025
 10
284.545389
 20
127.166861
 30
0.0
 11
284.330634
 21
127.592326
 31
0.0
  0
LINE
  5
214
  8
025
 10
284.636499
 20
126.594555
 30
0.0
 11
284.545389
 21
127.166861
 31
0.0
  0
LINE
  5
215
  8
025
 10
283.851239
 20
126.909577
 30
0.0
 11
283.942349
 21
126.337271
 31
0.0
  0
LINE
  5
216
  8
025
 10
283.651668
 20
127.239657
 30
0.0
 11
283.851239
 21
126.909577
 31
0.0
  0
LINE
  5
217
  8
025
 10
283.328451
 20
127.422896
 30
0.0
 11
283.651668
 21
127.239657
 31
0.0
  0
LINE
  5
218
  8
025
 10
282.881591
 20
127.459294
 30
0.0
 11
283.328451
 21
127.422896
 31
0.0
  0
LINE
  5
219
  8
05
 10
295.001988
 20
132.284104
 30
0.0
 11
295.486011
 21
131.677712
 31
0.0
  0
POLYLINE
  5
21A
  8
05
 66
     1
 10
0.0
 20
0.0
 30
0.0
  0
VERTEX
  5
568
  8
05
 10
295.486011
 20
131.677712
 30
0.0
  0
VERTEX
  5
569
  8
05
 10
294.877344
 20
131.519607
 30
0.0
  0
VERTEX
  5
56A
  8
05
 10
294.283716
 20
131.498158
 30
0.0
  0
VERTEX
  5
56B
  8
05
 10
293.739633
 20
131.614635
 30
0.0
  0
VERTEX
  5
56C
  8
05
 10
293.276727
 20
131.862284
 30
0.0
  0
VERTEX
  5
56D
  8
05
 10
292.979434
 20
132.15018
 30
0.0
  0
SEQEND
  5
56E
  8
05
  0
POLYLINE
  5
21B
  8
05
 66
     1
 10
0.0
 20
0.0
 30
0.0
  0
VERTEX
  5
56F
  8
05
 10
297.756637
 20
138.225331
 30
0.0
  0
VERTEX
  5
570
  8
05
 10
296.074103
 20
137.477342
 30
0.0
  0
VERTEX
  5
571
  8
05
 10
294.470389
 20
136.512904
 30
0.0
  0
VERTEX
  5
572
  8
05
 10
292.984984
 20
135.355764
 30
0.0
  0
VERTEX
  5
573
  8
05
 10
291.654464
 20
134.034414
 30
0.0
  0
VERTEX
  5
574
  8
05
 10
290.511591
 20
132.58139
 30
0.0
  0
VERTEX
  5
575
  8
05
 10
289.584505
 20
131.032472
 30
0.0
  0
VERTEX
  5
576
  8
05
 10
288.896035
 20
129.425797
 30
0.0
  0
VERTEX
  5
577
  8
05
 10
288.463134
 20
127.800929
 30
0.0
  0
VERTEX
  5
578
  8
05
 10
288.29646
 20
126.197876
 30
0.0
  0
VERTEX
  5
579
  8
05
 10
288.400118
 20
124.656111
 30
0.0
  0
SEQEND
  5
57A
  8
05
  0
LINE
  5
21C
  8
05
 10
295.98712
 20
128.53003
 30
0.0
 11
288.330464
 21
125.692119
 31
0.0
  0
LINE
  5
21D
  8
05
 10
295.98712
 20
128.53003
 30
0.0
 11
295.486011
 21
131.677712
 31
0.0
  0
LINE
  5
21E
  8
05
 10
294.99633
 20
132.319642
 30
0.0
 11
293.094768
 21
134.70195
 31
0.0
  0
POLYLINE
  5
21F
  8
05
 66
     1
 10
0.0
 20
0.0
 30
0.0
  0
VERTEX
  5
57B
  8
05
 10
293.070376
 20
132.320114
 30
0.0
  0
VERTEX
  5
57C
  8
05
 10
293.255362
 20
132.221116
 30
0.0
  0
VERTEX
  5
57D
  8
05
 10
293.79943
 20
132.104572
 30
0.0
  0
VERTEX
  5
57E
  8
05
 10
294.393136
 20
132.125971
 30
0.0
  0
VERTEX
  5
57F
  8
05
 10
295.001988
 20
132.284104
 30
0.0
  0
SEQEND
  5
580
  8
05
  0
LINE
  5
220
  8
05
 10
294.99633
 20
132.319642
 30
0.0
 11
292.628853
 21
133.371739
 31
0.0
  0
POLYLINE
  5
221
  8
05
 66
     1
 10
0.0
 20
0.0
 30
0.0
  0
VERTEX
  5
581
  8
05
 10
292.979434
 20
132.15018
 30
0.0
  0
VERTEX
  5
582
  8
05
 10
292.921918
 20
132.226723
 30
0.0
  0
VERTEX
  5
583
  8
05
 10
292.695837
 20
132.686771
 30
0.0
  0
VERTEX
  5
584
  8
05
 10
292.611634
 20
133.215688
 30
0.0
  0
VERTEX
  5
585
  8
05
 10
292.674203
 20
133.782723
 30
0.0
  0
VERTEX
  5
586
  8
05
 10
292.879903
 20
134.354912
 30
0.0
  0
VERTEX
  5
587
  8
05
 10
293.216765
 20
134.898993
 30
0.0
  0
VERTEX
  5
588
  8
05
 10
293.665197
 20
135.383342
 30
0.0
  0
VERTEX
  5
589
  8
05
 10
294.199122
 20
135.779816
 30
0.0
  0
VERTEX
  5
58A
  8
05
 10
294.787495
 20
136.06539
 30
0.0
  0
SEQEND
  5
58B
  8
05
  0
LINE
  5
222
  8
035
 10
297.487981
 20
139.912876
 30
0.0
 11
292.164441
 21
140.581606
 31
0.0
  0
LINE
  5
223
  8
05
 10
292.80667
 20
132.461239
 30
0.0
 11
293.070376
 21
132.320114
 31
0.0
  0
LINE
  5
224
  8
05
 10
294.787495
 20
136.06539
 30
0.0
 11
294.694769
 21
136.647842
 31
0.0
  0
LINE
  5
225
  8
05
 10
295.001988
 20
132.284104
 30
0.0
 11
294.99633
 21
132.319642
 31
0.0
  0
LINE
  5
226
  8
05
 10
297.487981
 20
139.912876
 30
0.0
 11
297.756637
 21
138.225331
 31
0.0
  0
LINE
  5
227
  8
05
 10
317.06155
 20
136.341191
 30
0.0
 11
327.936581
 21
140.371981
 31
0.0
  0
POLYLINE
  5
228
  8
05
 66
     1
 10
0.0
 20
0.0
 30
0.0
  0
VERTEX
  5
58C
  8
05
 10
318.368503
 20
143.404082
 30
0.0
  0
VERTEX
  5
58D
  8
05
 10
318.426019
 20
143.327539
 30
0.0
  0
VERTEX
  5
58E
  8
05
 10
318.652099
 20
142.867491
 30
0.0
  0
VERTEX
  5
58F
  8
05
 10
318.736302
 20
142.338574
 30
0.0
  0
VERTEX
  5
590
  8
05
 10
318.673733
 20
141.771538
 30
0.0
  0
VERTEX
  5
591
  8
05
 10
318.468034
 20
141.19935
 30
0.0
  0
VERTEX
  5
592
  8
05
 10
318.131171
 20
140.655269
 30
0.0
  0
VERTEX
  5
593
  8
05
 10
317.682739
 20
140.17092
 30
0.0
  0
VERTEX
  5
594
  8
05
 10
317.148815
 20
139.774445
 30
0.0
  0
VERTEX
  5
595
  8
05
 10
316.560441
 20
139.488872
 30
0.0
  0
SEQEND
  5
596
  8
05
  0
LINE
  5
229
  8
05
 10
317.06155
 20
136.341191
 30
0.0
 11
316.560441
 21
139.488872
 31
0.0
  0
LINE
  5
22A
  8
05
 10
313.721792
 20
140.525294
 30
0.0
 11
317.06155
 21
136.341191
 31
0.0
  0
LINE
  5
22B
  8
05
 10
313.699048
 20
143.102122
 30
0.0
 11
316.070761
 21
140.130803
 31
0.0
  0
LINE
  5
22C
  8
05
 10
313.704706
 20
143.066584
 30
0.0
 11
313.699048
 21
143.102122
 31
0.0
  0
LINE
  5
22D
  8
05
 10
313.704706
 20
143.066584
 30
0.0
 11
313.685177
 21
143.09105
 31
0.0
  0
LINE
  5
22E
  8
05
 10
316.076418
 20
140.095264
 30
0.0
 11
316.070761
 21
140.130803
 31
0.0
  0
LINE
  5
22F
  8
05
 10
316.076418
 20
140.095264
 30
0.0
 11
316.560441
 21
139.488872
 31
0.0
  0
LINE
  5
230
  8
05
 10
316.070761
 20
140.130803
 30
0.0
 11
318.187899
 21
143.201166
 31
0.0
  0
LINE
  5
231
  8
05
 10
332.074977
 20
135.187331
 30
0.0
 11
331.224611
 21
140.528852
 31
0.0
  0
LINE
  5
232
  8
05
 10
332.074977
 20
135.187331
 30
0.0
 11
327.936581
 21
140.371981
 31
0.0
  0
LINE
  5
233
  8
025
 10
334.563046
 20
141.261168
 30
0.0
 11
334.62595
 21
141.789546
 31
0.0
  0
LINE
  5
234
  8
025
 10
334.654157
 20
140.688862
 30
0.0
 11
334.563046
 21
141.261168
 31
0.0
  0
LINE
  5
235
  8
025
 10
334.563046
 20
141.261168
 30
0.0
 11
334.654157
 21
140.688862
 31
0.0
  0
LINE
  5
236
  8
025
 10
334.62595
 20
141.789546
 30
0.0
 11
334.563046
 21
141.261168
 31
0.0
  0
LINE
  5
237
  8
025
 10
338.819062
 20
142.232569
 30
0.0
 11
338.756157
 21
141.70419
 31
0.0
  0
LINE
  5
238
  8
025
 10
338.727952
 20
142.804874
 30
0.0
 11
338.819062
 21
142.232569
 31
0.0
  0
LINE
  5
239
  8
025
 10
338.819062
 20
142.232569
 30
0.0
 11
338.625453
 21
142.475125
 31
0.0
  0
LINE
  5
23A
  8
025
 10
338.819062
 20
142.232569
 30
0.0
 11
338.727952
 21
142.804874
 31
0.0
  0
LINE
  5
23B
  8
025
 10
338.756157
 20
141.70419
 30
0.0
 11
338.819062
 21
142.232569
 31
0.0
  0
LINE
  5
23C
  8
025
 10
337.83423
 20
142.87767
 30
0.0
 11
337.64062
 21
143.120227
 31
0.0
  0
LINE
  5
23D
  8
025
 10
338.0338
 20
142.54759
 30
0.0
 11
337.83423
 21
142.87767
 31
0.0
  0
LINE
  5
23E
  8
025
 10
338.124911
 20
141.975284
 30
0.0
 11
338.0338
 21
142.54759
 31
0.0
  0
LINE
  5
23F
  8
025
 10
338.046821
 20
141.54229
 30
0.0
 11
338.124911
 21
141.975284
 31
0.0
  0
LINE
  5
240
  8
025
 10
337.814716
 20
141.153223
 30
0.0
 11
338.046821
 21
141.54229
 31
0.0
  0
LINE
  5
241
  8
025
 10
338.40686
 20
143.299992
 30
0.0
 11
338.456471
 21
143.201707
 31
0.0
  0
LINE
  5
242
  8
025
 10
338.456471
 20
143.201707
 30
0.0
 11
338.534342
 21
143.047431
 31
0.0
  0
LINE
  5
243
  8
025
 10
338.534342
 20
143.047431
 30
0.0
 11
338.625453
 21
142.475125
 31
0.0
  0
LINE
  5
244
  8
025
 10
338.625453
 20
142.475125
 30
0.0
 11
338.562548
 21
141.946747
 31
0.0
  0
LINE
  5
245
  8
025
 10
338.562548
 20
141.946747
 30
0.0
 11
338.221984
 21
141.315455
 31
0.0
  0
LINE
  5
246
  8
025
 10
338.221984
 20
141.315455
 30
0.0
 11
337.930056
 21
141.033713
 31
0.0
  0
LINE
  5
247
  8
025
 10
337.930056
 20
141.033713
 30
0.0
 11
337.712217
 21
140.823474
 31
0.0
  0
LINE
  5
248
  8
025
 10
338.415593
 20
141.072898
 30
0.0
 11
337.905826
 21
140.580917
 31
0.0
  0
LINE
  5
249
  8
025
 10
338.756157
 20
141.70419
 30
0.0
 11
338.415593
 21
141.072898
 31
0.0
  0
LINE
  5
24A
  8
025
 10
338.513196
 20
143.230339
 30
0.0
 11
338.727952
 21
142.804874
 31
0.0
  0
LINE
  5
24B
  8
025
 10
337.905826
 20
140.580917
 30
0.0
 11
337.712217
 21
140.823474
 31
0.0
  0
LINE
  5
24C
  8
025
 10
338.415593
 20
141.072898
 30
0.0
 11
338.221984
 21
141.315455
 31
0.0
  0
LINE
  5
24D
  8
025
 10
338.756157
 20
141.70419
 30
0.0
 11
338.562548
 21
141.946747
 31
0.0
  0
LINE
  5
24E
  8
025
 10
338.727952
 20
142.804874
 30
0.0
 11
338.534342
 21
143.047431
 31
0.0
  0
LINE
  5
24F
  8
025
 10
338.727952
 20
142.804874
 30
0.0
 11
338.513196
 21
143.230339
 31
0.0
  0
LINE
  5
250
  8
025
 10
338.415593
 20
141.072898
 30
0.0
 11
338.756157
 21
141.70419
 31
0.0
  0
LINE
  5
251
  8
025
 10
337.905826
 20
140.580917
 30
0.0
 11
338.415593
 21
141.072898
 31
0.0
  0
LINE
  5
252
  8
025
 10
338.046821
 20
141.54229
 30
0.0
 11
337.814716
 21
141.153223
 31
0.0
  0
LINE
  5
253
  8
025
 10
338.124911
 20
141.975284
 30
0.0
 11
338.046821
 21
141.54229
 31
0.0
  0
LINE
  5
254
  8
025
 10
338.0338
 20
142.54759
 30
0.0
 11
338.124911
 21
141.975284
 31
0.0
  0
LINE
  5
255
  8
025
 10
337.83423
 20
142.87767
 30
0.0
 11
338.0338
 21
142.54759
 31
0.0
  0
LINE
  5
256
  8
025
 10
335.547878
 20
140.616066
 30
0.0
 11
335.354269
 21
140.858622
 31
0.0
  0
LINE
  5
257
  8
025
 10
337.027291
 20
140.558329
 30
0.0
 11
337.428596
 21
140.808084
 31
0.0
  0
LINE
  5
258
  8
025
 10
336.74963
 20
140.455415
 30
0.0
 11
337.027291
 21
140.558329
 31
0.0
  0
LINE
  5
259
  8
025
 10
336.317954
 20
140.396429
 30
0.0
 11
336.74963
 21
140.455415
 31
0.0
  0
LINE
  5
25A
  8
025
 10
335.871094
 20
140.432827
 30
0.0
 11
336.317954
 21
140.396429
 31
0.0
  0
LINE
  5
25B
  8
025
 10
335.547878
 20
140.616066
 30
0.0
 11
335.871094
 21
140.432827
 31
0.0
  0
LINE
  5
25C
  8
025
 10
335.476281
 20
142.912819
 30
0.0
 11
336.001231
 21
143.309415
 31
0.0
  0
LINE
  5
25D
  8
025
 10
334.966515
 20
142.420838
 30
0.0
 11
335.476281
 21
142.912819
 31
0.0
  0
LINE
  5
25E
  8
025
 10
337.510236
 20
140.687136
 30
0.0
 11
337.118728
 21
140.422867
 31
0.0
  0
LINE
  5
25F
  8
025
 10
337.118728
 20
140.422867
 30
0.0
 11
337.048437
 21
140.375421
 31
0.0
  0
LINE
  5
260
  8
025
 10
337.048437
 20
140.375421
 30
0.0
 11
336.81179
 21
140.287709
 31
0.0
  0
LINE
  5
261
  8
025
 10
336.81179
 20
140.287709
 30
0.0
 11
336.493117
 21
140.169594
 31
0.0
  0
LINE
  5
262
  8
025
 10
336.493117
 20
140.169594
 30
0.0
 11
335.768595
 21
140.103078
 31
0.0
  0
LINE
  5
263
  8
025
 10
335.768595
 20
140.103078
 30
0.0
 11
335.167719
 21
140.183403
 31
0.0
  0
LINE
  5
264
  8
025
 10
335.167719
 20
140.183403
 30
0.0
 11
334.921961
 21
140.344384
 31
0.0
  0
LINE
  5
265
  8
025
 10
334.921961
 20
140.344384
 30
0.0
 11
334.781638
 21
140.4363
 31
0.0
  0
LINE
  5
266
  8
025
 10
335.348307
 20
140.946146
 30
0.0
 11
335.547878
 21
140.616066
 31
0.0
  0
LINE
  5
267
  8
025
 10
335.257196
 20
141.518452
 30
0.0
 11
335.348307
 21
140.946146
 31
0.0
  0
LINE
  5
268
  8
025
 10
335.335286
 20
141.951446
 30
0.0
 11
335.257196
 21
141.518452
 31
0.0
  0
LINE
  5
269
  8
025
 10
335.567391
 20
142.340513
 30
0.0
 11
335.335286
 21
141.951446
 31
0.0
  0
LINE
  5
26A
  8
025
 10
336.092342
 20
142.737109
 30
0.0
 11
335.567391
 21
142.340513
 31
0.0
  0
LINE
  5
26B
  8
025
 10
336.001231
 20
143.309415
 30
0.0
 11
336.092342
 21
142.737109
 31
0.0
  0
LINE
  5
26C
  8
025
 10
335.862877
 20
143.204889
 30
0.0
 11
335.898733
 21
142.979666
 31
0.0
  0
LINE
  5
26D
  8
025
 10
335.898733
 20
142.979666
 30
0.0
 11
335.597635
 21
142.752189
 31
0.0
  0
LINE
  5
26E
  8
025
 10
335.597635
 20
142.752189
 30
0.0
 11
335.373782
 21
142.58307
 31
0.0
  0
LINE
  5
26F
  8
025
 10
335.373782
 20
142.58307
 30
0.0
 11
335.141677
 21
142.194003
 31
0.0
  0
LINE
  5
270
  8
025
 10
335.141677
 20
142.194003
 30
0.0
 11
335.063587
 21
141.761008
 31
0.0
  0
LINE
  5
271
  8
025
 10
335.063587
 20
141.761008
 30
0.0
 11
335.154698
 21
141.188703
 31
0.0
  0
LINE
  5
272
  8
025
 10
335.154698
 20
141.188703
 30
0.0
 11
335.354269
 21
140.858622
 31
0.0
  0
LINE
  5
273
  8
025
 10
337.415364
 20
143.227451
 30
0.0
 11
337.331093
 21
143.267565
 31
0.0
  0
LINE
  5
274
  8
025
 10
335.348307
 20
140.946146
 30
0.0
 11
335.154698
 21
141.188703
 31
0.0
  0
LINE
  5
275
  8
025
 10
335.257196
 20
141.518452
 30
0.0
 11
335.063587
 21
141.761008
 31
0.0
  0
LINE
  5
276
  8
025
 10
335.335286
 20
141.951446
 30
0.0
 11
335.141677
 21
142.194003
 31
0.0
  0
LINE
  5
277
  8
025
 10
335.567391
 20
142.340513
 30
0.0
 11
335.373782
 21
142.58307
 31
0.0
  0
LINE
  5
278
  8
025
 10
336.092342
 20
142.737109
 30
0.0
 11
335.898733
 21
142.979666
 31
0.0
  0
LINE
  5
279
  8
025
 10
337.242047
 20
140.132865
 30
0.0
 11
337.048437
 21
140.375421
 31
0.0
  0
LINE
  5
27A
  8
025
 10
335.476281
 20
142.912819
 30
0.0
 11
334.966515
 21
142.420838
 31
0.0
  0
LINE
  5
27B
  8
025
 10
336.001231
 20
143.309415
 30
0.0
 11
335.476281
 21
142.912819
 31
0.0
  0
LINE
  5
27C
  8
025
 10
336.092342
 20
142.737109
 30
0.0
 11
336.001231
 21
143.309415
 31
0.0
  0
LINE
  5
27D
  8
025
 10
335.567391
 20
142.340513
 30
0.0
 11
336.092342
 21
142.737109
 31
0.0
  0
LINE
  5
27E
  8
025
 10
335.335286
 20
141.951446
 30
0.0
 11
335.567391
 21
142.340513
 31
0.0
  0
LINE
  5
27F
  8
025
 10
335.257196
 20
141.518452
 30
0.0
 11
335.335286
 21
141.951446
 31
0.0
  0
LINE
  5
280
  8
025
 10
335.348307
 20
140.946146
 30
0.0
 11
335.257196
 21
141.518452
 31
0.0
  0
LINE
  5
281
  8
025
 10
335.547878
 20
140.616066
 30
0.0
 11
335.348307
 21
140.946146
 31
0.0
  0
LINE
  5
282
  8
025
 10
335.871094
 20
140.432827
 30
0.0
 11
335.547878
 21
140.616066
 31
0.0
  0
LINE
  5
283
  8
025
 10
336.317954
 20
140.396429
 30
0.0
 11
335.871094
 21
140.432827
 31
0.0
  0
LINE
  5
284
  8
025
 10
336.74963
 20
140.455415
 30
0.0
 11
336.317954
 21
140.396429
 31
0.0
  0
LINE
  5
285
  8
025
 10
337.027291
 20
140.558329
 30
0.0
 11
336.74963
 21
140.455415
 31
0.0
  0
LINE
  5
286
  8
025
 10
337.428596
 20
140.808084
 30
0.0
 11
337.027291
 21
140.558329
 31
0.0
  0
LINE
  5
287
  8
025
 10
337.428596
 20
140.808084
 30
0.0
 11
337.814716
 21
141.153223
 31
0.0
  0
LINE
  5
288
  8
025
 10
337.83423
 20
142.87767
 30
0.0
 11
337.356999
 21
143.104837
 31
0.0
  0
LINE
  5
289
  8
025
 10
337.712217
 20
140.823474
 30
0.0
 11
337.510236
 21
140.687136
 31
0.0
  0
LINE
  5
28A
  8
025
 10
337.905826
 20
140.580917
 30
0.0
 11
337.242047
 21
140.132865
 31
0.0
  0
LINE
  5
28B
  8
025
 10
337.64062
 20
143.120227
 30
0.0
 11
337.415364
 21
143.227451
 31
0.0
  0
LINE
  5
28C
  8
025
 10
337.242047
 20
140.132865
 30
0.0
 11
337.905826
 21
140.580917
 31
0.0
  0
LINE
  5
28D
  8
025
 10
337.814716
 20
141.153223
 30
0.0
 11
337.428596
 21
140.808084
 31
0.0
  0
LINE
  5
28E
  8
025
 10
337.356999
 20
143.104837
 30
0.0
 11
337.83423
 21
142.87767
 31
0.0
  0
LINE
  5
28F
  8
025
 10
335.962205
 20
139.860521
 30
0.0
 11
335.361329
 21
139.940846
 31
0.0
  0
LINE
  5
290
  8
025
 10
336.686726
 20
139.927037
 30
0.0
 11
335.962205
 21
139.860521
 31
0.0
  0
LINE
  5
291
  8
025
 10
335.962205
 20
139.860521
 30
0.0
 11
336.686726
 21
139.927037
 31
0.0
  0
LINE
  5
292
  8
025
 10
335.361329
 20
139.940846
 30
0.0
 11
335.962205
 21
139.860521
 31
0.0
  0
LINE
  5
293
  8
025
 10
335.361329
 20
139.940846
 30
0.0
 11
334.868912
 21
140.263397
 31
0.0
  0
LINE
  5
294
  8
025
 10
337.242047
 20
140.132865
 30
0.0
 11
336.686726
 21
139.927037
 31
0.0
  0
LINE
  5
295
  8
025
 10
335.361329
 20
139.940846
 30
0.0
 11
335.167719
 21
140.183403
 31
0.0
  0
LINE
  5
296
  8
025
 10
335.962205
 20
139.860521
 30
0.0
 11
335.768595
 21
140.103078
 31
0.0
  0
LINE
  5
297
  8
025
 10
336.686726
 20
139.927037
 30
0.0
 11
336.493117
 21
140.169594
 31
0.0
  0
LINE
  5
298
  8
025
 10
336.686726
 20
139.927037
 30
0.0
 11
337.242047
 21
140.132865
 31
0.0
  0
LINE
  5
299
  8
025
 10
334.868912
 20
140.263397
 30
0.0
 11
335.361329
 21
139.940846
 31
0.0
  0
LINE
  5
29A
  8
025
 10
341.376581
 20
141.86734
 30
0.0
 11
341.182972
 21
142.109897
 31
0.0
  0
LINE
  5
29B
  8
025
 10
341.376581
 20
141.86734
 30
0.0
 11
340.682431
 21
141.610056
 31
0.0
  0
LINE
  5
29C
  8
025
 10
341.182972
 20
142.109897
 30
0.0
 11
340.63518
 21
141.90686
 31
0.0
  0
LINE
  5
29D
  8
025
 10
340.682431
 20
141.610056
 30
0.0
 11
341.376581
 21
141.86734
 31
0.0
  0
POLYLINE
  5
29E
  8
05
 66
     1
 10
0.0
 20
0.0
 30
0.0
  0
VERTEX
  5
597
  8
05
 10
333.92539
 20
197.547959
 30
0.0
  0
VERTEX
  5
598
  8
05
 10
334.102065
 20
197.578524
 30
0.0
  0
VERTEX
  5
599
  8
05
 10
334.511738
 20
197.533741
 30
0.0
  0
VERTEX
  5
59A
  8
05
 10
335.112025
 20
197.363016
 30
0.0
  0
VERTEX
  5
59B
  8
05
 10
335.904886
 20
197.047126
 30
0.0
  0
SEQEND
  5
59C
  8
05
  0
LINE
  5
29F
  8
05
 10
333.338286
 20
195.253008
 30
0.0
 11
340.774412
 21
191.948424
 31
0.0
  0
POLYLINE
  5
2A0
  8
05
 66
     1
 10
0.0
 20
0.0
 30
0.0
  0
VERTEX
  5
59D
  8
05
 10
338.325
 20
194.015167
 30
0.0
  0
VERTEX
  5
59E
  8
05
 10
337.443502
 20
194.443232
 30
0.0
  0
VERTEX
  5
59F
  8
05
 10
336.607804
 20
194.910218
 30
0.0
  0
VERTEX
  5
5A0
  8
05
 10
335.859387
 20
195.379637
 30
0.0
  0
VERTEX
  5
5A1
  8
05
 10
335.216477
 20
195.829709
 30
0.0
  0
VERTEX
  5
5A2
  8
05
 10
334.694917
 20
196.240361
 30
0.0
  0
VERTEX
  5
5A3
  8
05
 10
334.298434
 20
196.599352
 30
0.0
  0
VERTEX
  5
5A4
  8
05
 10
334.01754
 20
196.906827
 30
0.0
  0
VERTEX
  5
5A5
  8
05
 10
333.845731
 20
197.165646
 30
0.0
  0
VERTEX
  5
5A6
  8
05
 10
333.788798
 20
197.373752
 30
0.0
  0
VERTEX
  5
5A7
  8
05
 10
333.866657
 20
197.518376
 30
0.0
  0
VERTEX
  5
5A8
  8
05
 10
333.92539
 20
197.547959
 30
0.0
  0
SEQEND
  5
5A9
  8
05
  0
LINE
  5
2A1
  8
05
 10
329.157862
 20
206.501826
 30
0.0
 11
337.245262
 21
196.369801
 31
0.0
  0
LINE
  5
2A2
  8
025
 10
334.894918
 20
144.71759
 30
0.0
 11
334.701308
 21
144.960147
 31
0.0
  0
LINE
  5
2A3
  8
025
 10
334.406829
 20
146.859972
 30
0.0
 11
334.79295
 21
147.205111
 31
0.0
  0
LINE
  5
2A4
  8
025
 10
334.680162
 20
145.143055
 30
0.0
 11
334.894918
 21
144.71759
 31
0.0
  0
LINE
  5
2A5
  8
025
 10
335.007705
 20
146.779647
 30
0.0
 11
334.760416
 21
146.485965
 31
0.0
  0
LINE
  5
2A6
  8
025
 10
334.814096
 20
147.022203
 30
0.0
 11
334.566807
 21
146.728521
 31
0.0
  0
LINE
  5
2A7
  8
025
 10
334.680162
 20
145.143055
 30
0.0
 11
334.894918
 21
144.71759
 31
0.0
  0
LINE
  5
2A8
  8
025
 10
334.406829
 20
146.859972
 30
0.0
 11
334.79295
 21
147.205111
 31
0.0
  0
LINE
  5
2A9
  8
025
 10
335.007705
 20
146.779647
 30
0.0
 11
334.760416
 21
146.485965
 31
0.0
  0
LINE
  5
2AA
  8
025
 10
335.115635
 20
144.204603
 30
0.0
 11
334.668774
 21
144.241
 31
0.0
  0
LINE
  5
2AB
  8
025
 10
334.862383
 20
143.998443
 30
0.0
 11
334.668774
 21
144.241
 31
0.0
  0
LINE
  5
2AC
  8
025
 10
334.862383
 20
143.998443
 30
0.0
 11
334.539168
 21
144.181683
 31
0.0
  0
LINE
  5
2AD
  8
025
 10
334.862383
 20
143.998443
 30
0.0
 11
334.539168
 21
144.181683
 31
0.0
  0
LINE
  5
2AE
  8
035
 10
265.788198
 20
184.674408
 30
0.0
 11
282.260274
 21
190.779723
 31
0.0
  0
LINE
  5
2AF
  8
035
 10
270.068735
 20
171.802381
 30
0.0
 11
272.31709
 21
172.635726
 31
0.0
  0
LINE
  5
2B0
  8
05
 10
258.452185
 20
186.355783
 30
0.0
 11
279.549745
 21
194.175516
 31
0.0
  0
LINE
  5
2B1
  8
05
 10
264.26046
 20
179.079082
 30
0.0
 11
285.35802
 21
186.898815
 31
0.0
  0
LINE
  5
2B2
  8
035
 10
282.840345
 20
187.136042
 30
0.0
 11
257.588523
 21
177.776547
 31
0.0
  0
LINE
  5
2B3
  8
05
 10
250.272302
 20
166.54268
 30
0.0
 11
232.548434
 21
159.973394
 31
0.0
  0
LINE
  5
2B4
  8
05
 10
252.357554
 20
160.916694
 30
0.0
 11
234.633685
 21
154.347407
 31
0.0
  0
LINE
  5
2B5
  8
05
 10
226.425763
 20
151.42848
 30
0.0
 11
216.125978
 21
147.610902
 31
0.0
  0
LINE
  5
2B6
  8
05
 10
215.794698
 20
147.377477
 30
0.0
 11
212.598799
 21
143.783718
 31
0.0
  0
LINE
  5
2B7
  8
05
 10
216.125978
 20
147.610902
 30
0.0
 11
215.794698
 21
147.377477
 31
0.0
  0
POLYLINE
  5
2B8
  8
05
 66
     1
 10
0.0
 20
0.0
 30
0.0
  0
VERTEX
  5
5AA
  8
05
 10
233.563889
 20
154.250123
 30
0.0
  0
VERTEX
  5
5AB
  8
05
 10
233.687002
 20
154.310805
 30
0.0
  0
VERTEX
  5
5AC
  8
05
 10
233.771481
 20
154.467863
 30
0.0
  0
VERTEX
  5
5AD
  8
05
 10
233.813456
 20
154.71521
 30
0.0
  0
VERTEX
  5
5AE
  8
05
 10
233.811314
 20
155.043341
 30
0.0
  0
VERTEX
  5
5AF
  8
05
 10
233.765139
 20
155.439645
 30
0.0
  0
SEQEND
  5
5B0
  8
05
  0
POLYLINE
  5
2B9
  8
05
 66
     1
 10
0.0
 20
0.0
 30
0.0
  0
VERTEX
  5
5B1
  8
05
 10
234.633685
 20
154.347407
 30
0.0
  0
VERTEX
  5
5B2
  8
05
 10
234.741057
 20
154.433578
 30
0.0
  0
VERTEX
  5
5B3
  8
05
 10
234.81972
 20
154.616155
 30
0.0
  0
VERTEX
  5
5B4
  8
05
 10
234.856542
 20
154.885372
 30
0.0
  0
VERTEX
  5
5B5
  8
05
 10
234.85027
 20
155.232063
 30
0.0
  0
VERTEX
  5
5B6
  8
05
 10
234.801117
 20
155.644421
 30
0.0
  0
SEQEND
  5
5B7
  8
05
  0
POLYLINE
  5
2BA
  8
05
 66
     1
 10
0.0
 20
0.0
 30
0.0
  0
VERTEX
  5
5B8
  8
05
 10
230.972624
 20
157.525735
 30
0.0
  0
VERTEX
  5
5B9
  8
05
 10
231.044277
 20
157.166073
 30
0.0
  0
VERTEX
  5
5BA
  8
05
 10
231.14876
 20
156.777075
 30
0.0
  0
VERTEX
  5
5BB
  8
05
 10
231.281508
 20
156.375744
 30
0.0
  0
VERTEX
  5
5BC
  8
05
 10
231.436717
 20
155.979619
 30
0.0
  0
VERTEX
  5
5BD
  8
05
 10
231.607606
 20
155.606013
 30
0.0
  0
VERTEX
  5
5BE
  8
05
 10
231.786705
 20
155.271255
 30
0.0
  0
VERTEX
  5
5BF
  8
05
 10
231.966186
 20
154.989974
 30
0.0
  0
VERTEX
  5
5C0
  8
05
 10
232.138206
 20
154.774464
 30
0.0
  0
VERTEX
  5
5C1
  8
05
 10
232.251461
 20
154.666881
 30
0.0
  0
SEQEND
  5
5C2
  8
05
  0
POLYLINE
  5
2BB
  8
05
 66
     1
 10
0.0
 20
0.0
 30
0.0
  0
VERTEX
  5
5C3
  8
05
 10
232.251461
 20
154.666881
 30
0.0
  0
VERTEX
  5
5C4
  8
05
 10
232.295247
 20
154.634145
 30
0.0
  0
VERTEX
  5
5C5
  8
05
 10
232.430445
 20
154.575147
 30
0.0
  0
VERTEX
  5
5C6
  8
05
 10
232.537891
 20
154.600051
 30
0.0
  0
VERTEX
  5
5C7
  8
05
 10
232.612889
 20
154.707768
 30
0.0
  0
VERTEX
  5
5C8
  8
05
 10
232.652162
 20
154.893589
 30
0.0
  0
VERTEX
  5
5C9
  8
05
 10
232.653993
 20
155.149394
 30
0.0
  0
VERTEX
  5
5CA
  8
05
 10
232.618302
 20
155.464003
 30
0.0
  0
SEQEND
  5
5CB
  8
05
  0
LINE
  5
2BC
  8
05
 10
234.177717
 20
154.301713
 30
0.0
 11
229.470772
 21
152.557101
 31
0.0
  0
LINE
  5
2BD
  8
05
 10
228.219963
 20
150.847218
 30
0.0
 11
227.28746
 21
151.315912
 31
0.0
  0
POLYLINE
  5
2BE
  8
05
 66
     1
 10
0.0
 20
0.0
 30
0.0
  0
VERTEX
  5
5CC
  8
05
 10
227.28746
 20
151.315912
 30
0.0
  0
VERTEX
  5
5CD
  8
05
 10
227.008639
 20
151.428283
 30
0.0
  0
VERTEX
  5
5CE
  8
05
 10
226.51693
 20
151.455795
 30
0.0
  0
VERTEX
  5
5CF
  8
05
 10
226.425763
 20
151.42848
 30
0.0
  0
SEQEND
  5
5D0
  8
05
  0
LINE
  5
2BF
  8
05
 10
229.028273
 20
151.548439
 30
0.0
 11
227.760053
 21
151.078378
 31
0.0
  0
LINE
  5
2C0
  8
05
 10
228.890603
 20
151.910111
 30
0.0
 11
228.686989
 21
151.421943
 31
0.0
  0
POLYLINE
  5
2C1
  8
05
 66
     1
 10
0.0
 20
0.0
 30
0.0
  0
VERTEX
  5
5D1
  8
05
 10
229.470772
 20
152.557101
 30
0.0
  0
VERTEX
  5
5D2
  8
05
 10
229.164514
 20
152.35082
 30
0.0
  0
VERTEX
  5
5D3
  8
05
 10
228.890603
 20
151.910111
 30
0.0
  0
SEQEND
  5
5D4
  8
05
  0
LINE
  5
2C2
  8
05
 10
234.579666
 20
154.335495
 30
0.0
 11
233.563889
 21
154.250123
 31
0.0
  0
POLYLINE
  5
2C3
  8
05
 66
     1
 10
0.0
 20
0.0
 30
0.0
  0
VERTEX
  5
5D5
  8
05
 10
232.251475
 20
154.666825
 30
0.0
  0
VERTEX
  5
5D6
  8
05
 10
232.376694
 20
154.573378
 30
0.0
  0
VERTEX
  5
5D7
  8
05
 10
232.560119
 20
154.461488
 30
0.0
  0
VERTEX
  5
5D8
  8
05
 10
232.797268
 20
154.354827
 30
0.0
  0
VERTEX
  5
5D9
  8
05
 10
233.112565
 20
154.270118
 30
0.0
  0
VERTEX
  5
5DA
  8
05
 10
233.397184
 20
154.244032
 30
0.0
  0
VERTEX
  5
5DB
  8
05
 10
233.563869
 20
154.250121
 30
0.0
  0
SEQEND
  5
5DC
  8
05
  0
LINE
  5
2C4
  8
05
 10
234.579666
 20
154.335495
 30
0.0
 11
234.633685
 21
154.347407
 31
0.0
  0
POLYLINE
  5
2C5
  8
025
 66
     1
 10
0.0
 20
0.0
 30
0.0
  0
VERTEX
  5
5DD
  8
025
 10
232.548434
 20
159.973394
 30
0.0
  0
VERTEX
  5
5DE
  8
025
 10
232.711862
 20
159.970743
 30
0.0
  0
VERTEX
  5
5DF
  8
025
 10
232.894776
 20
159.868844
 30
0.0
  0
VERTEX
  5
5E0
  8
025
 10
233.101401
 20
159.674712
 30
0.0
  0
VERTEX
  5
5E1
  8
025
 10
233.324701
 20
159.394958
 30
0.0
  0
VERTEX
  5
5E2
  8
025
 10
233.557072
 20
159.039109
 30
0.0
  0
VERTEX
  5
5E3
  8
025
 10
233.7906
 20
158.619283
 30
0.0
  0
VERTEX
  5
5E4
  8
025
 10
234.017333
 20
158.149776
 30
0.0
  0
VERTEX
  5
5E5
  8
025
 10
234.229549
 20
157.646578
 30
0.0
  0
VERTEX
  5
5E6
  8
025
 10
234.420023
 20
157.126823
 30
0.0
  0
VERTEX
  5
5E7
  8
025
 10
234.582267
 20
156.608211
 30
0.0
  0
VERTEX
  5
5E8
  8
025
 10
234.710757
 20
156.108404
 30
0.0
  0
VERTEX
  5
5E9
  8
025
 10
234.801117
 20
155.644421
 30
0.0
  0
SEQEND
  5
5EA
  8
025
  0
LINE
  5
2C6
  8
05
 10
232.499701
 20
159.947221
 30
0.0
 11
231.673664
 21
159.349932
 31
0.0
  0
LINE
  5
2C7
  8
05
 10
232.499701
 20
159.947221
 30
0.0
 11
232.548434
 21
159.973394
 31
0.0
  0
POLYLINE
  5
2C8
  8
05
 66
     1
 10
0.0
 20
0.0
 30
0.0
  0
VERTEX
  5
5EB
  8
05
 10
230.972624
 20
157.525735
 30
0.0
  0
VERTEX
  5
5EC
  8
05
 10
230.936934
 20
157.840344
 30
0.0
  0
VERTEX
  5
5ED
  8
05
 10
230.938765
 20
158.096149
 30
0.0
  0
VERTEX
  5
5EE
  8
05
 10
230.950176
 20
158.179876
 30
0.0
  0
SEQEND
  5
5EF
  8
05
  0
POLYLINE
  5
2C9
  8
05
 66
     1
 10
0.0
 20
0.0
 30
0.0
  0
VERTEX
  5
5F0
  8
05
 10
230.950176
 20
158.179876
 30
0.0
  0
VERTEX
  5
5F1
  8
05
 10
230.978038
 20
158.28197
 30
0.0
  0
VERTEX
  5
5F2
  8
05
 10
231.053036
 20
158.389687
 30
0.0
  0
VERTEX
  5
5F3
  8
05
 10
231.160482
 20
158.414591
 30
0.0
  0
VERTEX
  5
5F4
  8
05
 10
231.29568
 20
158.355594
 30
0.0
  0
VERTEX
  5
5F5
  8
05
 10
231.45272
 20
158.215274
 30
0.0
  0
VERTEX
  5
5F6
  8
05
 10
231.624741
 20
157.999764
 30
0.0
  0
VERTEX
  5
5F7
  8
05
 10
231.804222
 20
157.718484
 30
0.0
  0
VERTEX
  5
5F8
  8
05
 10
231.983321
 20
157.383725
 30
0.0
  0
VERTEX
  5
5F9
  8
05
 10
232.154209
 20
157.010119
 30
0.0
  0
VERTEX
  5
5FA
  8
05
 10
232.309419
 20
156.613994
 30
0.0
  0
VERTEX
  5
5FB
  8
05
 10
232.442166
 20
156.212663
 30
0.0
  0
VERTEX
  5
5FC
  8
05
 10
232.54665
 20
155.823666
 30
0.0
  0
VERTEX
  5
5FD
  8
05
 10
232.618302
 20
155.464003
 30
0.0
  0
SEQEND
  5
5FE
  8
05
  0
POLYLINE
  5
2CA
  8
05
 66
     1
 10
0.0
 20
0.0
 30
0.0
  0
VERTEX
  5
5FF
  8
05
 10
231.673516
 20
159.349825
 30
0.0
  0
VERTEX
  5
600
  8
05
 10
231.40579
 20
159.111266
 30
0.0
  0
VERTEX
  5
601
  8
05
 10
231.158553
 20
158.767409
 30
0.0
  0
VERTEX
  5
602
  8
05
 10
231.008806
 20
158.417149
 30
0.0
  0
VERTEX
  5
603
  8
05
 10
230.950141
 20
158.179946
 30
0.0
  0
SEQEND
  5
604
  8
05
  0
POLYLINE
  5
2CB
  8
025
 66
     1
 10
0.0
 20
0.0
 30
0.0
  0
VERTEX
  5
605
  8
025
 10
231.673664
 20
159.349932
 30
0.0
  0
VERTEX
  5
606
  8
025
 10
231.767666
 20
159.384594
 30
0.0
  0
VERTEX
  5
607
  8
025
 10
231.925903
 20
159.346669
 30
0.0
  0
VERTEX
  5
608
  8
025
 10
232.112562
 20
159.211543
 30
0.0
  0
VERTEX
  5
609
  8
025
 10
232.320469
 20
158.98441
 30
0.0
  0
VERTEX
  5
60A
  8
025
 10
232.541633
 20
158.673996
 30
0.0
  0
VERTEX
  5
60B
  8
025
 10
232.767556
 20
158.292232
 30
0.0
  0
VERTEX
  5
60C
  8
025
 10
232.989557
 20
157.853789
 30
0.0
  0
VERTEX
  5
60D
  8
025
 10
233.199102
 20
157.375515
 30
0.0
  0
VERTEX
  5
60E
  8
025
 10
233.38814
 20
156.87579
 30
0.0
  0
VERTEX
  5
60F
  8
025
 10
233.549406
 20
156.373819
 30
0.0
  0
VERTEX
  5
610
  8
025
 10
233.676703
 20
155.888892
 30
0.0
  0
VERTEX
  5
611
  8
025
 10
233.765139
 20
155.439645
 30
0.0
  0
SEQEND
  5
612
  8
025
  0
LINE
  5
2CC
  8
035
 10
268.264128
 20
169.185264
 30
0.0
 11
264.454824
 21
163.66085
 31
0.0
  0
POLYLINE
  5
2CD
  8
05
 66
     1
 10
0.0
 20
0.0
 30
0.0
  0
VERTEX
  5
613
  8
05
 10
262.925517
 20
164.833797
 30
0.0
  0
VERTEX
  5
614
  8
05
 10
262.81968
 20
164.823123
 30
0.0
  0
VERTEX
  5
615
  8
05
 10
262.620077
 20
164.908766
 30
0.0
  0
VERTEX
  5
616
  8
05
 10
262.387758
 20
165.115708
 30
0.0
  0
VERTEX
  5
617
  8
05
 10
262.132995
 20
165.434878
 30
0.0
  0
VERTEX
  5
618
  8
05
 10
261.867222
 20
165.851956
 30
0.0
  0
VERTEX
  5
619
  8
05
 10
261.602226
 20
166.348369
 30
0.0
  0
VERTEX
  5
61A
  8
05
 10
261.349714
 20
166.902117
 30
0.0
  0
VERTEX
  5
61B
  8
05
 10
261.120831
 20
167.488707
 30
0.0
  0
VERTEX
  5
61C
  8
05
 10
260.925673
 20
168.082226
 30
0.0
  0
SEQEND
  5
61D
  8
05
  0
POLYLINE
  5
2CE
  8
05
 66
     1
 10
0.0
 20
0.0
 30
0.0
  0
VERTEX
  5
61E
  8
05
 10
264.077093
 20
171.658933
 30
0.0
  0
VERTEX
  5
61F
  8
05
 10
264.238376
 20
171.711302
 30
0.0
  0
VERTEX
  5
620
  8
05
 10
264.686349
 20
171.762884
 30
0.0
  0
VERTEX
  5
621
  8
05
 10
265.041083
 20
171.666136
 30
0.0
  0
VERTEX
  5
622
  8
05
 10
265.308509
 20
171.443263
 30
0.0
  0
VERTEX
  5
623
  8
05
 10
265.493526
 20
171.101477
 30
0.0
  0
VERTEX
  5
624
  8
05
 10
265.591919
 20
170.632939
 30
0.0
  0
VERTEX
  5
625
  8
05
 10
265.587466
 20
170.027221
 30
0.0
  0
VERTEX
  5
626
  8
05
 10
265.459688
 20
169.291005
 30
0.0
  0
VERTEX
  5
627
  8
05
 10
265.192015
 20
168.443821
 30
0.0
  0
VERTEX
  5
628
  8
05
 10
264.767939
 20
167.507689
 30
0.0
  0
VERTEX
  5
629
  8
05
 10
264.180418
 20
166.533751
 30
0.0
  0
SEQEND
  5
62A
  8
05
  0
POLYLINE
  5
2CF
  8
05
 66
     1
 10
0.0
 20
0.0
 30
0.0
  0
VERTEX
  5
62B
  8
05
 10
255.940674
 20
147.980804
 30
0.0
  0
VERTEX
  5
62C
  8
05
 10
255.814228
 20
148.615503
 30
0.0
  0
VERTEX
  5
62D
  8
05
 10
255.629845
 20
149.301968
 30
0.0
  0
VERTEX
  5
62E
  8
05
 10
255.395586
 20
150.0102
 30
0.0
  0
VERTEX
  5
62F
  8
05
 10
255.121686
 20
150.709244
 30
0.0
  0
VERTEX
  5
630
  8
05
 10
254.820118
 20
151.368548
 30
0.0
  0
VERTEX
  5
631
  8
05
 10
254.504062
 20
151.959299
 30
0.0
  0
VERTEX
  5
632
  8
05
 10
254.187329
 20
152.455677
 30
0.0
  0
VERTEX
  5
633
  8
05
 10
253.883764
 20
152.835988
 30
0.0
  0
VERTEX
  5
634
  8
05
 10
253.606634
 20
153.083611
 30
0.0
  0
VERTEX
  5
635
  8
05
 10
253.512609
 20
153.13946
 30
0.0
  0
SEQEND
  5
636
  8
05
  0
POLYLINE
  5
2D0
  8
025
 66
     1
 10
0.0
 20
0.0
 30
0.0
  0
VERTEX
  5
637
  8
025
 10
255.337194
 20
146.971333
 30
0.0
  0
VERTEX
  5
638
  8
025
 10
255.181493
 20
147.762282
 30
0.0
  0
VERTEX
  5
639
  8
025
 10
254.957374
 20
148.616048
 30
0.0
  0
VERTEX
  5
63A
  8
025
 10
254.673447
 20
149.499822
 30
0.0
  0
VERTEX
  5
63B
  8
025
 10
254.340625
 20
150.37964
 30
0.0
  0
VERTEX
  5
63C
  8
025
 10
253.971698
 20
151.221693
 30
0.0
  0
VERTEX
  5
63D
  8
025
 10
253.580843
 20
151.99362
 30
0.0
  0
VERTEX
  5
63E
  8
025
 10
253.183081
 20
152.665756
 30
0.0
  0
VERTEX
  5
63F
  8
025
 10
252.793697
 20
153.212272
 30
0.0
  0
VERTEX
  5
640
  8
025
 10
252.427655
 20
153.612165
 30
0.0
  0
VERTEX
  5
641
  8
025
 10
252.09958
 20
153.849788
 30
0.0
  0
SEQEND
  5
642
  8
025
  0
LINE
  5
2D1
  8
05
 10
251.732901
 20
153.897689
 30
0.0
 11
244.401777
 21
151.180436
 31
0.0
  0
POLYLINE
  5
2D2
  8
05
 66
     1
 10
0.0
 20
0.0
 30
0.0
  0
VERTEX
  5
643
  8
05
 10
252.09958
 20
153.849788
 30
0.0
  0
VERTEX
  5
644
  8
05
 10
251.820428
 20
153.916839
 30
0.0
  0
VERTEX
  5
645
  8
05
 10
251.732901
 20
153.897689
 30
0.0
  0
SEQEND
  5
646
  8
05
  0
LINE
  5
2D3
  8
05
 10
253.512464
 20
153.139645
 30
0.0
 11
252.09958
 21
153.849788
 31
0.0
  0
POLYLINE
  5
2D4
  8
05
 66
     1
 10
0.0
 20
0.0
 30
0.0
  0
VERTEX
  5
647
  8
05
 10
252.654526
 20
166.223206
 30
0.0
  0
VERTEX
  5
648
  8
05
 10
252.767781
 20
166.115623
 30
0.0
  0
VERTEX
  5
649
  8
05
 10
252.939802
 20
165.900113
 30
0.0
  0
VERTEX
  5
64A
  8
05
 10
253.119283
 20
165.618833
 30
0.0
  0
VERTEX
  5
64B
  8
05
 10
253.298382
 20
165.284074
 30
0.0
  0
VERTEX
  5
64C
  8
05
 10
253.46927
 20
164.910468
 30
0.0
  0
VERTEX
  5
64D
  8
05
 10
253.62448
 20
164.514343
 30
0.0
  0
VERTEX
  5
64E
  8
05
 10
253.757227
 20
164.113012
 30
0.0
  0
VERTEX
  5
64F
  8
05
 10
253.861711
 20
163.724015
 30
0.0
  0
VERTEX
  5
650
  8
05
 10
253.933363
 20
163.364352
 30
0.0
  0
SEQEND
  5
651
  8
05
  0
LINE
  5
2D5
  8
05
 10
252.357554
 20
160.916694
 30
0.0
 11
252.406287
 21
160.942866
 31
0.0
  0
LINE
  5
2D6
  8
05
 10
253.232324
 20
161.540155
 30
0.0
 11
252.406287
 21
160.942866
 31
0.0
  0
POLYLINE
  5
2D7
  8
05
 66
     1
 10
0.0
 20
0.0
 30
0.0
  0
VERTEX
  5
652
  8
05
 10
253.232471
 20
161.540262
 30
0.0
  0
VERTEX
  5
653
  8
05
 10
253.500198
 20
161.778821
 30
0.0
  0
VERTEX
  5
654
  8
05
 10
253.747435
 20
162.122678
 30
0.0
  0
VERTEX
  5
655
  8
05
 10
253.897182
 20
162.472938
 30
0.0
  0
VERTEX
  5
656
  8
05
 10
253.955847
 20
162.710141
 30
0.0
  0
SEQEND
  5
657
  8
05
  0
LINE
  5
2D8
  8
05
 10
253.232324
 20
161.540155
 30
0.0
 11
253.232471
 21
161.540262
 31
0.0
  0
POLYLINE
  5
2D9
  8
05
 66
     1
 10
0.0
 20
0.0
 30
0.0
  0
VERTEX
  5
658
  8
05
 10
252.406287
 20
160.942866
 30
0.0
  0
VERTEX
  5
659
  8
05
 10
252.464925
 20
161.002865
 30
0.0
  0
VERTEX
  5
65A
  8
05
 10
252.543588
 20
161.185441
 30
0.0
  0
VERTEX
  5
65B
  8
05
 10
252.58041
 20
161.454659
 30
0.0
  0
VERTEX
  5
65C
  8
05
 10
252.574138
 20
161.80135
 30
0.0
  0
VERTEX
  5
65D
  8
05
 10
252.524985
 20
162.213708
 30
0.0
  0
SEQEND
  5
65E
  8
05
  0
POLYLINE
  5
2DA
  8
05
 66
     1
 10
0.0
 20
0.0
 30
0.0
  0
VERTEX
  5
65F
  8
05
 10
253.232471
 20
161.540262
 30
0.0
  0
VERTEX
  5
660
  8
05
 10
253.262058
 20
161.566227
 30
0.0
  0
VERTEX
  5
661
  8
05
 10
253.346537
 20
161.723286
 30
0.0
  0
VERTEX
  5
662
  8
05
 10
253.388512
 20
161.970633
 30
0.0
  0
VERTEX
  5
663
  8
05
 10
253.38637
 20
162.298763
 30
0.0
  0
VERTEX
  5
664
  8
05
 10
253.340195
 20
162.695067
 30
0.0
  0
SEQEND
  5
665
  8
05
  0
POLYLINE
  5
2DB
  8
05
 66
     1
 10
0.0
 20
0.0
 30
0.0
  0
VERTEX
  5
666
  8
05
 10
253.955812
 20
162.710211
 30
0.0
  0
VERTEX
  5
667
  8
05
 10
253.967223
 20
162.793938
 30
0.0
  0
VERTEX
  5
668
  8
05
 10
253.969054
 20
163.049743
 30
0.0
  0
VERTEX
  5
669
  8
05
 10
253.933363
 20
163.364352
 30
0.0
  0
SEQEND
  5
66A
  8
05
  0
LINE
  5
2DC
  8
05
 10
251.342098
 20
166.639965
 30
0.0
 11
250.326321
 21
166.554592
 31
0.0
  0
LINE
  5
2DD
  8
05
 10
250.272302
 20
166.54268
 30
0.0
 11
250.326321
 21
166.554592
 31
0.0
  0
LINE
  5
2DE
  8
05
 10
251.342098
 20
166.639965
 30
0.0
 11
251.342118
 21
166.639966
 31
0.0
  0
POLYLINE
  5
2DF
  8
05
 66
     1
 10
0.0
 20
0.0
 30
0.0
  0
VERTEX
  5
66B
  8
05
 10
252.654512
 20
166.223262
 30
0.0
  0
VERTEX
  5
66C
  8
05
 10
252.529293
 20
166.316709
 30
0.0
  0
VERTEX
  5
66D
  8
05
 10
252.345868
 20
166.428599
 30
0.0
  0
VERTEX
  5
66E
  8
05
 10
252.10872
 20
166.53526
 30
0.0
  0
VERTEX
  5
66F
  8
05
 10
251.793423
 20
166.61997
 30
0.0
  0
VERTEX
  5
670
  8
05
 10
251.508803
 20
166.646055
 30
0.0
  0
VERTEX
  5
671
  8
05
 10
251.342118
 20
166.639966
 30
0.0
  0
SEQEND
  5
672
  8
05
  0
POLYLINE
  5
2E0
  8
05
 66
     1
 10
0.0
 20
0.0
 30
0.0
  0
VERTEX
  5
673
  8
05
 10
251.342118
 20
166.639966
 30
0.0
  0
VERTEX
  5
674
  8
05
 10
251.500959
 20
166.602092
 30
0.0
  0
VERTEX
  5
675
  8
05
 10
251.687618
 20
166.466966
 30
0.0
  0
VERTEX
  5
676
  8
05
 10
251.895525
 20
166.239832
 30
0.0
  0
VERTEX
  5
677
  8
05
 10
252.116689
 20
165.929419
 30
0.0
  0
VERTEX
  5
678
  8
05
 10
252.342612
 20
165.547655
 30
0.0
  0
VERTEX
  5
679
  8
05
 10
252.564613
 20
165.109211
 30
0.0
  0
VERTEX
  5
67A
  8
05
 10
252.774158
 20
164.630938
 30
0.0
  0
VERTEX
  5
67B
  8
05
 10
252.963196
 20
164.131213
 30
0.0
  0
VERTEX
  5
67C
  8
05
 10
253.124462
 20
163.629242
 30
0.0
  0
VERTEX
  5
67D
  8
05
 10
253.251759
 20
163.144315
 30
0.0
  0
VERTEX
  5
67E
  8
05
 10
253.340195
 20
162.695067
 30
0.0
  0
SEQEND
  5
67F
  8
05
  0
POLYLINE
  5
2E1
  8
025
 66
     1
 10
0.0
 20
0.0
 30
0.0
  0
VERTEX
  5
680
  8
025
 10
250.326321
 20
166.554592
 30
0.0
  0
VERTEX
  5
681
  8
025
 10
250.43573
 20
166.54003
 30
0.0
  0
VERTEX
  5
682
  8
025
 10
250.618644
 20
166.438131
 30
0.0
  0
VERTEX
  5
683
  8
025
 10
250.825269
 20
166.243999
 30
0.0
  0
VERTEX
  5
684
  8
025
 10
251.048569
 20
165.964245
 30
0.0
  0
VERTEX
  5
685
  8
025
 10
251.28094
 20
165.608396
 30
0.0
  0
VERTEX
  5
686
  8
025
 10
251.514468
 20
165.18857
 30
0.0
  0
VERTEX
  5
687
  8
025
 10
251.741201
 20
164.719063
 30
0.0
  0
VERTEX
  5
688
  8
025
 10
251.953417
 20
164.215864
 30
0.0
  0
VERTEX
  5
689
  8
025
 10
252.143891
 20
163.696109
 30
0.0
  0
VERTEX
  5
68A
  8
025
 10
252.306135
 20
163.177498
 30
0.0
  0
VERTEX
  5
68B
  8
025
 10
252.434625
 20
162.67769
 30
0.0
  0
VERTEX
  5
68C
  8
025
 10
252.524985
 20
162.213708
 30
0.0
  0
SEQEND
  5
68D
  8
025
  0
POLYLINE
  5
2E2
  8
05
 66
     1
 10
0.0
 20
0.0
 30
0.0
  0
VERTEX
  5
68E
  8
05
 10
260.833206
 20
157.202212
 30
0.0
  0
VERTEX
  5
68F
  8
05
 10
261.319935
 20
156.519067
 30
0.0
  0
VERTEX
  5
690
  8
05
 10
261.817138
 20
155.678897
 30
0.0
  0
VERTEX
  5
691
  8
05
 10
262.305707
 20
154.713989
 30
0.0
  0
VERTEX
  5
692
  8
05
 10
262.766866
 20
153.661423
 30
0.0
  0
VERTEX
  5
693
  8
05
 10
263.182893
 20
152.56165
 30
0.0
  0
VERTEX
  5
694
  8
05
 10
263.537801
 20
151.456932
 30
0.0
  0
VERTEX
  5
695
  8
05
 10
263.817951
 20
150.389725
 30
0.0
  0
VERTEX
  5
696
  8
05
 10
264.012576
 20
149.401039
 30
0.0
  0
VERTEX
  5
697
  8
05
 10
264.114198
 20
148.528869
 30
0.0
  0
VERTEX
  5
698
  8
05
 10
264.118911
 20
147.806733
 30
0.0
  0
VERTEX
  5
699
  8
05
 10
264.026533
 20
147.262382
 30
0.0
  0
VERTEX
  5
69A
  8
05
 10
263.986361
 20
147.151498
 30
0.0
  0
SEQEND
  5
69B
  8
05
  0
POLYLINE
  5
2E3
  8
05
 66
     1
 10
0.0
 20
0.0
 30
0.0
  0
VERTEX
  5
69C
  8
05
 10
260.787557
 20
157.111306
 30
0.0
  0
VERTEX
  5
69D
  8
05
 10
260.672063
 20
156.676865
 30
0.0
  0
VERTEX
  5
69E
  8
05
 10
260.657255
 20
156.049829
 30
0.0
  0
VERTEX
  5
69F
  8
05
 10
260.743873
 20
155.261643
 30
0.0
  0
VERTEX
  5
6A0
  8
05
 10
260.927575
 20
154.351829
 30
0.0
  0
VERTEX
  5
6A1
  8
05
 10
261.199149
 20
153.366009
 30
0.0
  0
VERTEX
  5
6A2
  8
05
 10
261.544978
 20
152.353616
 30
0.0
  0
VERTEX
  5
6A3
  8
05
 10
261.947719
 20
151.365415
 30
0.0
  0
VERTEX
  5
6A4
  8
05
 10
262.387179
 20
150.450959
 30
0.0
  0
VERTEX
  5
6A5
  8
05
 10
262.84132
 20
149.656103
 30
0.0
  0
VERTEX
  5
6A6
  8
05
 10
263.287369
 20
149.020705
 30
0.0
  0
SEQEND
  5
6A7
  8
05
  0
POLYLINE
  5
2E4
  8
025
 66
     1
 10
0.0
 20
0.0
 30
0.0
  0
VERTEX
  5
6A8
  8
025
 10
262.351717
 20
147.663783
 30
0.0
  0
VERTEX
  5
6A9
  8
025
 10
261.864988
 20
148.346928
 30
0.0
  0
VERTEX
  5
6AA
  8
025
 10
261.367785
 20
149.187098
 30
0.0
  0
VERTEX
  5
6AB
  8
025
 10
260.879216
 20
150.152006
 30
0.0
  0
VERTEX
  5
6AC
  8
025
 10
260.418057
 20
151.204572
 30
0.0
  0
VERTEX
  5
6AD
  8
025
 10
260.00203
 20
152.304345
 30
0.0
  0
VERTEX
  5
6AE
  8
025
 10
259.647122
 20
153.409063
 30
0.0
  0
VERTEX
  5
6AF
  8
025
 10
259.366972
 20
154.47627
 30
0.0
  0
VERTEX
  5
6B0
  8
025
 10
259.172347
 20
155.464956
 30
0.0
  0
VERTEX
  5
6B1
  8
025
 10
259.070725
 20
156.337126
 30
0.0
  0
VERTEX
  5
6B2
  8
025
 10
259.066012
 20
157.059261
 30
0.0
  0
VERTEX
  5
6B3
  8
025
 10
259.15839
 20
157.603613
 30
0.0
  0
VERTEX
  5
6B4
  8
025
 10
259.344307
 20
157.94926
 30
0.0
  0
VERTEX
  5
6B5
  8
025
 10
259.61662
 20
158.082921
 30
0.0
  0
VERTEX
  5
6B6
  8
025
 10
259.965555
 20
157.99911
 30
0.0
  0
SEQEND
  5
6B7
  8
025
  0
POLYLINE
  5
2E5
  8
05
 66
     1
 10
0.0
 20
0.0
 30
0.0
  0
VERTEX
  5
6B8
  8
05
 10
255.940674
 20
147.980804
 30
0.0
  0
VERTEX
  5
6B9
  8
05
 10
256.003657
 20
147.425612
 30
0.0
  0
VERTEX
  5
6BA
  8
05
 10
256.000426
 20
146.974191
 30
0.0
  0
VERTEX
  5
6BB
  8
05
 10
255.924951
 20
146.630972
 30
0.0
  0
SEQEND
  5
6BC
  8
05
  0
POLYLINE
  5
2E6
  8
05
 66
     1
 10
0.0
 20
0.0
 30
0.0
  0
VERTEX
  5
6BD
  8
05
 10
255.316183
 20
145.171426
 30
0.0
  0
VERTEX
  5
6BE
  8
05
 10
255.199625
 20
144.98389
 30
0.0
  0
VERTEX
  5
6BF
  8
05
 10
255.069303
 20
144.896111
 30
0.0
  0
SEQEND
  5
6C0
  8
05
  0
POLYLINE
  5
2E7
  8
05
 66
     1
 10
0.0
 20
0.0
 30
0.0
  0
VERTEX
  5
6C1
  8
05
 10
255.337194
 20
146.971333
 30
0.0
  0
VERTEX
  5
6C2
  8
05
 10
255.418491
 20
146.273598
 30
0.0
  0
VERTEX
  5
6C3
  8
05
 10
255.422261
 20
145.695889
 30
0.0
  0
VERTEX
  5
6C4
  8
05
 10
255.348359
 20
145.260408
 30
0.0
  0
VERTEX
  5
6C5
  8
05
 10
255.316183
 20
145.171426
 30
0.0
  0
SEQEND
  5
6C6
  8
05
  0
LINE
  5
2E8
  8
05
 10
255.924916
 20
146.630873
 30
0.0
 11
255.316183
 21
145.171426
 31
0.0
  0
POLYLINE
  5
2E9
  8
05
 66
     1
 10
0.0
 20
0.0
 30
0.0
  0
VERTEX
  5
6C7
  8
05
 10
264.115403
 20
148.344273
 30
0.0
  0
VERTEX
  5
6C8
  8
05
 10
264.067256
 20
148.346131
 30
0.0
  0
VERTEX
  5
6C9
  8
05
 10
263.702961
 20
148.576625
 30
0.0
  0
VERTEX
  5
6CA
  8
05
 10
263.287369
 20
149.020705
 30
0.0
  0
SEQEND
  5
6CB
  8
05
  0
POLYLINE
  5
2EA
  8
05
 66
     1
 10
0.0
 20
0.0
 30
0.0
  0
VERTEX
  5
6CC
  8
05
 10
263.986361
 20
147.151498
 30
0.0
  0
VERTEX
  5
6CD
  8
05
 10
263.840616
 20
146.916735
 30
0.0
  0
VERTEX
  5
6CE
  8
05
 10
263.568303
 20
146.783074
 30
0.0
  0
VERTEX
  5
6CF
  8
05
 10
263.22006
 20
146.866537
 30
0.0
  0
VERTEX
  5
6D0
  8
05
 10
262.80927
 20
147.163916
 30
0.0
  0
VERTEX
  5
6D1
  8
05
 10
262.351717
 20
147.663783
 30
0.0
  0
SEQEND
  5
6D2
  8
05
  0
POLYLINE
  5
2EB
  8
05
 66
     1
 10
0.0
 20
0.0
 30
0.0
  0
VERTEX
  5
6D3
  8
05
 10
259.965555
 20
157.99911
 30
0.0
  0
VERTEX
  5
6D4
  8
05
 10
260.375654
 20
157.702079
 30
0.0
  0
VERTEX
  5
6D5
  8
05
 10
260.833206
 20
157.202212
 30
0.0
  0
SEQEND
  5
6D6
  8
05
  0
LINE
  5
2EC
  8
05
 10
260.851873
 20
157.176011
 30
0.0
 11
260.787557
 21
157.111306
 31
0.0
  0
LINE
  5
2ED
  8
035
 10
264.926058
 20
160.700825
 30
0.0
 11
264.454824
 21
163.66085
 31
0.0
  0
POLYLINE
  5
2EE
  8
05
 66
     1
 10
0.0
 20
0.0
 30
0.0
  0
VERTEX
  5
6D7
  8
05
 10
263.143745
 20
165.30339
 30
0.0
  0
VERTEX
  5
6D8
  8
05
 10
263.087402
 20
165.024955
 30
0.0
  0
VERTEX
  5
6D9
  8
05
 10
262.977773
 20
164.862457
 30
0.0
  0
VERTEX
  5
6DA
  8
05
 10
262.925517
 20
164.833797
 30
0.0
  0
SEQEND
  5
6DB
  8
05
  0
POLYLINE
  5
2EF
  8
05
 66
     1
 10
0.0
 20
0.0
 30
0.0
  0
VERTEX
  5
6DC
  8
05
 10
264.180418
 20
166.533751
 30
0.0
  0
VERTEX
  5
6DD
  8
05
 10
263.667549
 20
165.861468
 30
0.0
  0
VERTEX
  5
6DE
  8
05
 10
263.143745
 20
165.30339
 30
0.0
  0
SEQEND
  5
6DF
  8
05
  0
LINE
  5
2F0
  8
05
 10
264.454824
 20
163.66085
 30
0.0
 11
263.143745
 21
165.30339
 31
0.0
  0
LINE
  5
2F1
  8
05
 10
258.452185
 20
186.355783
 30
0.0
 11
252.838273
 21
178.214251
 31
0.0
  0
LINE
  5
2F2
  8
035
 10
260.925673
 20
168.082226
 30
0.0
 11
252.838273
 21
178.214251
 31
0.0
  0
LINE
  5
2F3
  8
035
 10
261.162713
 20
182.959989
 30
0.0
 11
257.588523
 21
177.776547
 31
0.0
  0
LINE
  5
2F4
  8
05
 10
264.26046
 20
179.079082
 30
0.0
 11
260.68627
 21
173.89564
 31
0.0
  0
LINE
  5
2F5
  8
035
 10
270.068735
 20
171.802381
 30
0.0
 11
264.26046
 21
179.079082
 31
0.0
  0
POLYLINE
  5
2F6
  8
05
 66
     1
 10
0.0
 20
0.0
 30
0.0
  0
VERTEX
  5
6E0
  8
05
 10
261.760304
 20
169.56571
 30
0.0
  0
VERTEX
  5
6E1
  8
05
 10
262.436804
 20
170.425323
 30
0.0
  0
VERTEX
  5
6E2
  8
05
 10
263.096696
 20
171.062657
 30
0.0
  0
VERTEX
  5
6E3
  8
05
 10
263.703188
 20
171.484727
 30
0.0
  0
VERTEX
  5
6E4
  8
05
 10
264.077093
 20
171.658933
 30
0.0
  0
SEQEND
  5
6E5
  8
05
  0
POLYLINE
  5
2F7
  8
035
 66
     1
 10
0.0
 20
0.0
 30
0.0
  0
VERTEX
  5
6E6
  8
035
 10
260.925673
 20
168.082226
 30
0.0
  0
VERTEX
  5
6E7
  8
035
 10
261.300343
 20
168.827155
 30
0.0
  0
VERTEX
  5
6E8
  8
035
 10
261.760304
 20
169.56571
 30
0.0
  0
SEQEND
  5
6E9
  8
035
  0
LINE
  5
2F8
  8
035
 10
260.68627
 20
173.89564
 30
0.0
 11
257.588523
 21
177.776547
 31
0.0
  0
LINE
  5
2F9
  8
035
 10
270.068735
 20
171.802381
 30
0.0
 11
268.951708
 21
170.182422
 31
0.0
  0
LINE
  5
2FA
  8
035
 10
261.162713
 20
182.959989
 30
0.0
 11
263.768845
 21
183.925942
 31
0.0
  0
LINE
  5
2FB
  8
05
 10
261.162713
 20
182.959989
 30
0.0
 11
258.452185
 21
186.355783
 31
0.0
  0
LINE
  5
2FC
  8
035
 10
322.191561
 20
191.121515
 30
0.0
 11
314.859466
 21
188.403901
 31
0.0
  0
LINE
  5
2FD
  8
035
 10
306.432451
 20
194.709975
 30
0.0
 11
312.240726
 21
187.433275
 31
0.0
  0
LINE
  5
2FE
  8
05
 10
300.624176
 20
201.986676
 30
0.0
 11
302.623238
 21
189.429699
 31
0.0
  0
LINE
  5
2FF
  8
05
 10
282.260274
 20
190.779723
 30
0.0
 11
282.840345
 21
187.136042
 31
0.0
  0
LINE
  5
300
  8
05
 10
287.766267
 20
161.914723
 30
0.0
 11
293.165358
 21
167.065137
 31
0.0
  0
LINE
  5
301
  8
05
 10
295.059059
 20
155.169985
 30
0.0
 11
295.899377
 21
149.891587
 31
0.0
  0
LINE
  5
302
  8
05
 10
291.370139
 20
145.570961
 30
0.0
 11
295.899377
 21
149.891587
 31
0.0
  0
LINE
  5
303
  8
05
 10
295.059059
 20
155.169985
 30
0.0
 11
288.850115
 21
162.94865
 31
0.0
  0
LINE
  5
304
  8
035
 10
295.059059
 20
155.169985
 30
0.0
 11
288.713117
 21
155.967147
 31
0.0
  0
LINE
  5
305
  8
05
 10
288.713117
 20
155.967147
 30
0.0
 11
287.766267
 21
161.914723
 31
0.0
  0
LINE
  5
306
  8
035
 10
273.656626
 20
173.13222
 30
0.0
 11
286.810086
 21
178.007501
 31
0.0
  0
LINE
  5
307
  8
05
 10
291.166295
 20
179.622114
 30
0.0
 11
285.35802
 21
186.898815
 31
0.0
  0
LINE
  5
308
  8
05
 10
283.56127
 20
186.232856
 30
0.0
 11
282.840345
 21
187.136042
 31
0.0
  0
LINE
  5
309
  8
05
 10
291.166295
 20
179.622114
 30
0.0
 11
293.165358
 21
167.065137
 31
0.0
  0
LINE
  5
30A
  8
035
 10
288.844573
 20
178.761576
 30
0.0
 11
291.166295
 21
179.622114
 31
0.0
  0
LINE
  5
30B
  8
05
 10
305.357257
 20
172.256149
 30
0.0
 11
316.973807
 21
157.702747
 31
0.0
  0
LINE
  5
30C
  8
035
 10
304.516939
 20
177.534547
 30
0.0
 11
316.133489
 21
162.981146
 31
0.0
  0
LINE
  5
30D
  8
035
 10
316.133489
 20
162.981146
 30
0.0
 11
321.532581
 21
168.13156
 31
0.0
  0
LINE
  5
30E
  8
05
 10
322.297347
 20
157.034017
 30
0.0
 11
316.973807
 21
157.702747
 31
0.0
  0
LINE
  5
30F
  8
05
 10
318.562411
 20
147.724036
 30
0.0
 11
318.831068
 21
146.036491
 31
0.0
  0
LINE
  5
310
  8
05
 10
314.692672
 20
151.22114
 30
0.0
 11
318.831068
 21
146.036491
 31
0.0
  0
LINE
  5
311
  8
035
 10
318.562411
 20
147.724036
 30
0.0
 11
323.091649
 21
152.044662
 31
0.0
  0
LINE
  5
312
  8
05
 10
312.522167
 20
148.060653
 30
0.0
 11
311.352913
 21
155.405243
 31
0.0
  0
LINE
  5
313
  8
035
 10
306.945861
 20
162.277438
 30
0.0
 11
318.562411
 21
147.724036
 31
0.0
  0
LINE
  5
314
  8
05
 10
315.861926
 20
143.87655
 30
0.0
 11
314.692672
 21
151.22114
 31
0.0
  0
LINE
  5
315
  8
05
 10
313.011848
 20
147.418722
 30
0.0
 11
315.38356
 21
144.447403
 31
0.0
  0
POLYLINE
  5
316
  8
05
 66
     1
 10
0.0
 20
0.0
 30
0.0
  0
VERTEX
  5
6EA
  8
05
 10
313.220683
 20
143.672975
 30
0.0
  0
VERTEX
  5
6EB
  8
05
 10
313.809057
 20
143.958548
 30
0.0
  0
VERTEX
  5
6EC
  8
05
 10
314.342981
 20
144.355023
 30
0.0
  0
VERTEX
  5
6ED
  8
05
 10
314.791413
 20
144.839372
 30
0.0
  0
VERTEX
  5
6EE
  8
05
 10
314.91341
 20
145.036415
 30
0.0
  0
SEQEND
  5
6EF
  8
05
  0
LINE
  5
317
  8
05
 10
313.011848
 20
147.418722
 30
0.0
 11
313.00619
 21
147.454261
 31
0.0
  0
LINE
  5
318
  8
05
 10
313.00619
 20
147.454261
 30
0.0
 11
312.522167
 21
148.060653
 31
0.0
  0
LINE
  5
319
  8
05
 10
315.377903
 20
144.482941
 30
0.0
 11
315.397432
 21
144.458475
 31
0.0
  0
LINE
  5
31A
  8
05
 10
315.397432
 20
144.458475
 30
0.0
 11
315.418753
 21
144.431763
 31
0.0
  0
LINE
  5
31B
  8
05
 10
315.418753
 20
144.431763
 30
0.0
 11
315.861926
 21
143.87655
 31
0.0
  0
LINE
  5
31C
  8
05
 10
315.418753
 20
144.431763
 30
0.0
 11
315.38356
 21
144.447403
 31
0.0
  0
LINE
  5
31D
  8
05
 10
315.38356
 20
144.447403
 30
0.0
 11
315.377903
 21
144.482941
 31
0.0
  0
LINE
  5
31E
  8
05
 10
311.352913
 20
155.405243
 30
0.0
 11
307.214517
 21
160.589893
 31
0.0
  0
LINE
  5
31F
  8
05
 10
306.945861
 20
162.277438
 30
0.0
 11
307.214517
 21
160.589893
 31
0.0
  0
LINE
  5
320
  8
05
 10
306.945861
 20
162.277438
 30
0.0
 11
310.565871
 21
165.730713
 31
0.0
  0
LINE
  5
321
  8
05
 10
316.133489
 20
162.981146
 30
0.0
 11
316.973807
 21
157.702747
 31
0.0
  0
LINE
  5
322
  8
05
 10
323.091649
 20
152.044662
 30
0.0
 11
322.297347
 21
157.034017
 31
0.0
  0
LINE
  5
323
  8
05
 10
323.091649
 20
152.044662
 30
0.0
 11
318.753836
 21
157.479144
 31
0.0
  0
POLYLINE
  5
324
  8
05
 66
     1
 10
0.0
 20
0.0
 30
0.0
  0
VERTEX
  5
6F0
  8
05
 10
329.727928
 20
143.984235
 30
0.0
  0
VERTEX
  5
6F1
  8
05
 10
329.349913
 20
144.419878
 30
0.0
  0
VERTEX
  5
6F2
  8
05
 10
328.255106
 20
145.365588
 30
0.0
  0
VERTEX
  5
6F3
  8
05
 10
326.965638
 20
146.092949
 30
0.0
  0
VERTEX
  5
6F4
  8
05
 10
325.51326
 20
146.584052
 30
0.0
  0
VERTEX
  5
6F5
  8
05
 10
323.933736
 20
146.826805
 30
0.0
  0
VERTEX
  5
6F6
  8
05
 10
322.265958
 20
146.81523
 30
0.0
  0
VERTEX
  5
6F7
  8
05
 10
320.550993
 20
146.549612
 30
0.0
  0
VERTEX
  5
6F8
  8
05
 10
318.831068
 20
146.036491
 30
0.0
  0
SEQEND
  5
6F9
  8
05
  0
LINE
  5
325
  8
05
 10
327.086215
 20
145.713501
 30
0.0
 11
326.987502
 21
146.080616
 31
0.0
  0
LINE
  5
326
  8
025
 10
334.760416
 20
146.485965
 30
0.0
 11
334.566807
 21
146.728521
 31
0.0
  0
LINE
  5
327
  8
025
 10
334.589051
 20
145.715361
 30
0.0
 11
334.680162
 21
145.143055
 31
0.0
  0
LINE
  5
328
  8
025
 10
334.651956
 20
146.243739
 30
0.0
 11
334.589051
 21
145.715361
 31
0.0
  0
LINE
  5
329
  8
025
 10
334.760416
 20
146.485965
 30
0.0
 11
334.651956
 21
146.243739
 31
0.0
  0
LINE
  5
32A
  8
025
 10
334.566807
 20
146.728521
 30
0.0
 11
334.458346
 21
146.486296
 31
0.0
  0
LINE
  5
32B
  8
025
 10
334.458346
 20
146.486296
 30
0.0
 11
334.395442
 21
145.957917
 31
0.0
  0
LINE
  5
32C
  8
025
 10
334.395442
 20
145.957917
 30
0.0
 11
334.486552
 21
145.385611
 31
0.0
  0
LINE
  5
32D
  8
025
 10
334.486552
 20
145.385611
 30
0.0
 11
334.701308
 21
144.960147
 31
0.0
  0
LINE
  5
32E
  8
025
 10
334.680162
 20
145.143055
 30
0.0
 11
334.486552
 21
145.385611
 31
0.0
  0
LINE
  5
32F
  8
025
 10
334.589051
 20
145.715361
 30
0.0
 11
334.395442
 21
145.957917
 31
0.0
  0
LINE
  5
330
  8
025
 10
334.651956
 20
146.243739
 30
0.0
 11
334.458346
 21
146.486296
 31
0.0
  0
LINE
  5
331
  8
025
 10
334.651956
 20
146.243739
 30
0.0
 11
334.589051
 21
145.715361
 31
0.0
  0
LINE
  5
332
  8
025
 10
334.589051
 20
145.715361
 30
0.0
 11
334.680162
 21
145.143055
 31
0.0
  0
LINE
  5
333
  8
025
 10
334.760416
 20
146.485965
 30
0.0
 11
334.651956
 21
146.243739
 31
0.0
  0
LINE
  5
334
  8
025
 10
333.957805
 20
145.986455
 30
0.0
 11
334.174725
 21
146.470905
 31
0.0
  0
LINE
  5
335
  8
025
 10
333.879716
 20
145.553461
 30
0.0
 11
333.957805
 21
145.986455
 31
0.0
  0
LINE
  5
336
  8
025
 10
334.001197
 20
144.790387
 30
0.0
 11
333.879716
 21
145.553461
 31
0.0
  0
LINE
  5
337
  8
025
 10
334.001197
 20
144.790387
 30
0.0
 11
333.879716
 21
145.553461
 31
0.0
  0
LINE
  5
338
  8
025
 10
333.879716
 20
145.553461
 30
0.0
 11
333.957805
 21
145.986455
 31
0.0
  0
LINE
  5
339
  8
025
 10
333.957805
 20
145.986455
 30
0.0
 11
334.174725
 21
146.470905
 31
0.0
  0
LINE
  5
33A
  8
025
 10
334.174725
 20
146.470905
 30
0.0
 11
334.406829
 21
146.859972
 31
0.0
  0
LINE
  5
33B
  8
025
 10
334.174725
 20
146.470905
 30
0.0
 11
334.406829
 21
146.859972
 31
0.0
  0
LINE
  5
33C
  8
025
 10
334.539168
 20
144.181683
 30
0.0
 11
334.345559
 21
144.424239
 31
0.0
  0
LINE
  5
33D
  8
025
 10
334.668774
 20
144.241
 30
0.0
 11
334.345559
 21
144.424239
 31
0.0
  0
LINE
  5
33E
  8
025
 10
334.345559
 20
144.424239
 30
0.0
 11
334.241568
 21
144.50986
 31
0.0
  0
LINE
  5
33F
  8
025
 10
334.241568
 20
144.50986
 30
0.0
 11
334.100661
 21
144.625876
 31
0.0
  0
LINE
  5
340
  8
025
 10
334.539168
 20
144.181683
 30
0.0
 11
334.200766
 21
144.460306
 31
0.0
  0
LINE
  5
341
  8
025
 10
334.539168
 20
144.181683
 30
0.0
 11
334.200766
 21
144.460306
 31
0.0
  0
LINE
  5
342
  8
025
 10
334.200766
 20
144.460306
 30
0.0
 11
334.001197
 21
144.790387
 31
0.0
  0
LINE
  5
343
  8
025
 10
334.200766
 20
144.460306
 30
0.0
 11
334.001197
 21
144.790387
 31
0.0
  0
LINE
  5
344
  8
05
 10
320.585731
 20
174.079136
 30
0.0
 11
314.239789
 21
174.876297
 31
0.0
  0
LINE
  5
345
  8
05
 10
321.532581
 20
168.13156
 30
0.0
 11
316.361678
 21
174.609751
 31
0.0
  0
LINE
  5
346
  8
05
 10
304.516939
 20
177.534547
 30
0.0
 11
308.832182
 21
181.651034
 31
0.0
  0
LINE
  5
347
  8
05
 10
302.623238
 20
189.429699
 30
0.0
 11
314.239789
 21
174.876297
 31
0.0
  0
LINE
  5
348
  8
035
 10
312.240726
 20
187.433275
 30
0.0
 11
314.239789
 21
174.876297
 31
0.0
  0
LINE
  5
349
  8
05
 10
304.516939
 20
177.534547
 30
0.0
 11
305.357257
 21
172.256149
 31
0.0
  0
POLYLINE
  5
34A
  8
05
 66
     1
 10
0.0
 20
0.0
 30
0.0
  0
VERTEX
  5
6FA
  8
05
 10
312.080338
 20
183.816204
 30
0.0
  0
VERTEX
  5
6FB
  8
05
 10
311.924082
 20
184.578464
 30
0.0
  0
VERTEX
  5
6FC
  8
05
 10
311.689705
 20
185.405672
 30
0.0
  0
VERTEX
  5
6FD
  8
05
 10
311.390828
 20
186.249753
 30
0.0
  0
VERTEX
  5
6FE
  8
05
 10
311.044822
 20
187.061654
 30
0.0
  0
VERTEX
  5
6FF
  8
05
 10
310.671793
 20
187.794189
 30
0.0
  0
VERTEX
  5
700
  8
05
 10
310.293423
 20
188.404786
 30
0.0
  0
VERTEX
  5
701
  8
05
 10
309.931699
 20
188.857959
 30
0.0
  0
VERTEX
  5
702
  8
05
 10
309.607645
 20
189.127372
 30
0.0
  0
VERTEX
  5
703
  8
05
 10
309.571435
 20
189.146839
 30
0.0
  0
SEQEND
  5
704
  8
05
  0
POLYLINE
  5
34B
  8
05
 66
     1
 10
0.0
 20
0.0
 30
0.0
  0
VERTEX
  5
705
  8
05
 10
310.022312
 20
187.453845
 30
0.0
  0
VERTEX
  5
706
  8
05
 10
310.161798
 20
186.785008
 30
0.0
  0
VERTEX
  5
707
  8
05
 10
310.374243
 20
186.058439
 30
0.0
  0
VERTEX
  5
708
  8
05
 10
310.645167
 20
185.323653
 30
0.0
  0
VERTEX
  5
709
  8
05
 10
310.956108
 20
184.630725
 30
0.0
  0
VERTEX
  5
70A
  8
05
 10
311.285876
 20
184.026876
 30
0.0
  0
VERTEX
  5
70B
  8
05
 10
311.611997
 20
183.553259
 30
0.0
  0
VERTEX
  5
70C
  8
05
 10
311.912247
 20
183.242148
 30
0.0
  0
VERTEX
  5
70D
  8
05
 10
312.147676
 20
183.124022
 30
0.0
  0
SEQEND
  5
70E
  8
05
  0
POLYLINE
  5
34C
  8
05
 66
     1
 10
0.0
 20
0.0
 30
0.0
  0
VERTEX
  5
70F
  8
05
 10
309.079396
 20
187.575833
 30
0.0
  0
VERTEX
  5
710
  8
05
 10
309.235652
 20
186.813573
 30
0.0
  0
VERTEX
  5
711
  8
05
 10
309.470029
 20
185.986366
 30
0.0
  0
VERTEX
  5
712
  8
05
 10
309.768906
 20
185.142284
 30
0.0
  0
VERTEX
  5
713
  8
05
 10
310.114913
 20
184.330383
 30
0.0
  0
VERTEX
  5
714
  8
05
 10
310.487941
 20
183.597848
 30
0.0
  0
VERTEX
  5
715
  8
05
 10
310.866312
 20
182.987251
 30
0.0
  0
VERTEX
  5
716
  8
05
 10
311.228036
 20
182.534078
 30
0.0
  0
VERTEX
  5
717
  8
05
 10
311.55209
 20
182.264665
 30
0.0
  0
VERTEX
  5
718
  8
05
 10
311.819642
 20
182.19467
 30
0.0
  0
VERTEX
  5
719
  8
05
 10
312.015143
 20
182.328161
 30
0.0
  0
VERTEX
  5
71A
  8
05
 10
312.063874
 20
182.421287
 30
0.0
  0
SEQEND
  5
71B
  8
05
  0
POLYLINE
  5
34D
  8
05
 66
     1
 10
0.0
 20
0.0
 30
0.0
  0
VERTEX
  5
71C
  8
05
 10
310.091248
 20
188.658073
 30
0.0
  0
VERTEX
  5
71D
  8
05
 10
309.994615
 20
188.443046
 30
0.0
  0
VERTEX
  5
71E
  8
05
 10
309.965289
 20
188.019371
 30
0.0
  0
VERTEX
  5
71F
  8
05
 10
310.022312
 20
187.453845
 30
0.0
  0
SEQEND
  5
720
  8
05
  0
POLYLINE
  5
34E
  8
05
 66
     1
 10
0.0
 20
0.0
 30
0.0
  0
VERTEX
  5
721
  8
05
 10
309.571435
 20
189.146839
 30
0.0
  0
VERTEX
  5
722
  8
05
 10
309.340092
 20
189.197367
 30
0.0
  0
VERTEX
  5
723
  8
05
 10
309.144591
 20
189.063876
 30
0.0
  0
VERTEX
  5
724
  8
05
 10
309.032503
 20
188.734658
 30
0.0
  0
VERTEX
  5
725
  8
05
 10
309.010342
 20
188.228845
 30
0.0
  0
VERTEX
  5
726
  8
05
 10
309.079396
 20
187.575833
 30
0.0
  0
SEQEND
  5
727
  8
05
  0
POLYLINE
  5
34F
  8
05
 66
     1
 10
0.0
 20
0.0
 30
0.0
  0
VERTEX
  5
728
  8
05
 10
312.063874
 20
182.421287
 30
0.0
  0
VERTEX
  5
729
  8
05
 10
312.127232
 20
182.65738
 30
0.0
  0
VERTEX
  5
72A
  8
05
 10
312.149392
 20
183.163193
 30
0.0
  0
VERTEX
  5
72B
  8
05
 10
312.080338
 20
183.816204
 30
0.0
  0
SEQEND
  5
72C
  8
05
  0
LINE
  5
350
  8
035
 10
313.655893
 20
187.957801
 30
0.0
 11
312.240726
 21
187.433275
 31
0.0
  0
LINE
  5
351
  8
05
 10
321.532581
 20
168.13156
 30
0.0
 11
320.585731
 21
174.079136
 31
0.0
  0
LINE
  5
352
  8
05
 10
300.624176
 20
201.986676
 30
0.0
 11
303.334704
 21
198.590883
 31
0.0
  0
LINE
  5
353
  8
05
 10
321.721736
 20
209.806409
 30
0.0
 11
300.624176
 21
201.986676
 31
0.0
  0
LINE
  5
354
  8
05
 10
282.260274
 20
190.779723
 30
0.0
 11
279.549745
 21
194.175516
 31
0.0
  0
LINE
  5
355
  8
05
 10
327.530011
 20
202.529709
 30
0.0
 11
306.432451
 21
194.709975
 31
0.0
  0
LINE
  5
356
  8
035
 10
324.432264
 20
206.410616
 30
0.0
 11
306.49755
 21
199.76318
 31
0.0
  0
LINE
  5
357
  8
035
 10
303.914776
 20
194.947203
 30
0.0
 11
329.166598
 21
204.306698
 31
0.0
  0
LINE
  5
358
  8
035
 10
303.334704
 20
198.590883
 30
0.0
 11
303.914776
 21
194.947203
 31
0.0
  0
LINE
  5
359
  8
05
 10
306.432451
 20
194.709975
 30
0.0
 11
307.012522
 21
191.066295
 31
0.0
  0
LINE
  5
35A
  8
035
 10
303.914776
 20
194.947203
 30
0.0
 11
307.012522
 21
191.066295
 31
0.0
  0
LINE
  5
35B
  8
035
 10
305.243611
 20
199.298412
 30
0.0
 11
303.334704
 21
198.590883
 31
0.0
  0
LINE
  5
35C
  8
05
 10
327.530011
 20
202.529709
 30
0.0
 11
332.264345
 21
200.42579
 31
0.0
  0
LINE
  5
35D
  8
05
 10
327.530011
 20
202.529709
 30
0.0
 11
333.338286
 21
195.253008
 31
0.0
  0
LINE
  5
35E
  8
05
 10
329.166598
 20
204.306698
 30
0.0
 11
332.264345
 21
200.42579
 31
0.0
  0
LINE
  5
35F
  8
035
 10
333.338286
 20
195.253008
 30
0.0
 11
325.721645
 21
192.429928
 31
0.0
  0
LINE
  5
360
  8
05
 10
321.721736
 20
209.806409
 30
0.0
 11
329.157862
 21
206.501826
 31
0.0
  0
LINE
  5
361
  8
05
 10
324.432264
 20
206.410616
 30
0.0
 11
329.166598
 21
204.306698
 31
0.0
  0
LINE
  5
362
  8
05
 10
321.721736
 20
209.806409
 30
0.0
 11
324.432264
 21
206.410616
 31
0.0
  0
LINE
  5
363
  8
05
 10
389.804079
 20
188.034909
 30
0.0
 11
392.999978
 21
191.628668
 31
0.0
  0
POLYLINE
  5
364
  8
05
 66
     1
 10
0.0
 20
0.0
 30
0.0
  0
VERTEX
  5
72D
  8
05
 10
389.804079
 20
188.034909
 30
0.0
  0
VERTEX
  5
72E
  8
05
 10
390.07241
 20
188.496721
 30
0.0
  0
VERTEX
  5
72F
  8
05
 10
390.254469
 20
189.228994
 30
0.0
  0
VERTEX
  5
730
  8
05
 10
390.32075
 20
190.186554
 30
0.0
  0
VERTEX
  5
731
  8
05
 10
390.269621
 20
191.345824
 30
0.0
  0
VERTEX
  5
732
  8
05
 10
390.102342
 20
192.678257
 30
0.0
  0
SEQEND
  5
733
  8
05
  0
POLYLINE
  5
365
  8
025
 66
     1
 10
0.0
 20
0.0
 30
0.0
  0
VERTEX
  5
734
  8
025
 10
370.88997
 20
204.128955
 30
0.0
  0
VERTEX
  5
735
  8
025
 10
370.974735
 20
204.154352
 30
0.0
  0
VERTEX
  5
736
  8
025
 10
371.43192
 20
204.128771
 30
0.0
  0
VERTEX
  5
737
  8
025
 10
371.965513
 20
203.861043
 30
0.0
  0
VERTEX
  5
738
  8
025
 10
372.562375
 20
203.357761
 30
0.0
  0
VERTEX
  5
739
  8
025
 10
373.20781
 20
202.631317
 30
0.0
  0
VERTEX
  5
73A
  8
025
 10
373.885924
 20
201.699598
 30
0.0
  0
VERTEX
  5
73B
  8
025
 10
374.58002
 20
200.585547
 30
0.0
  0
VERTEX
  5
73C
  8
025
 10
375.273007
 20
199.316596
 30
0.0
  0
VERTEX
  5
73D
  8
025
 10
375.947822
 20
197.923989
 30
0.0
  0
VERTEX
  5
73E
  8
025
 10
376.587848
 20
196.442017
 30
0.0
  0
VERTEX
  5
73F
  8
025
 10
377.177326
 20
194.907173
 30
0.0
  0
VERTEX
  5
740
  8
025
 10
377.701741
 20
193.357248
 30
0.0
  0
VERTEX
  5
741
  8
025
 10
378.14818
 20
191.830407
 30
0.0
  0
VERTEX
  5
742
  8
025
 10
378.50565
 20
190.364246
 30
0.0
  0
VERTEX
  5
743
  8
025
 10
378.76535
 20
188.994866
 30
0.0
  0
SEQEND
  5
744
  8
025
  0
POLYLINE
  5
366
  8
025
 66
     1
 10
0.0
 20
0.0
 30
0.0
  0
VERTEX
  5
745
  8
025
 10
371.332469
 20
205.137617
 30
0.0
  0
VERTEX
  5
746
  8
025
 10
371.423635
 20
205.164933
 30
0.0
  0
VERTEX
  5
747
  8
025
 10
371.915344
 20
205.13742
 30
0.0
  0
VERTEX
  5
748
  8
025
 10
372.489232
 20
204.849474
 30
0.0
  0
VERTEX
  5
749
  8
025
 10
373.131166
 20
204.308187
 30
0.0
  0
VERTEX
  5
74A
  8
025
 10
373.82534
 20
203.526885
 30
0.0
  0
VERTEX
  5
74B
  8
025
 10
374.554662
 20
202.524808
 30
0.0
  0
VERTEX
  5
74C
  8
025
 10
375.301172
 20
201.32663
 30
0.0
  0
VERTEX
  5
74D
  8
025
 10
376.04649
 20
199.961853
 30
0.0
  0
VERTEX
  5
74E
  8
025
 10
376.772264
 20
198.464084
 30
0.0
  0
VERTEX
  5
74F
  8
025
 10
377.460622
 20
196.870202
 30
0.0
  0
VERTEX
  5
750
  8
025
 10
378.094614
 20
195.219454
 30
0.0
  0
VERTEX
  5
751
  8
025
 10
378.65863
 20
193.552486
 30
0.0
  0
VERTEX
  5
752
  8
025
 10
379.138782
 20
191.910346
 30
0.0
  0
VERTEX
  5
753
  8
025
 10
379.523246
 20
190.333468
 30
0.0
  0
VERTEX
  5
754
  8
025
 10
379.802557
 20
188.860679
 30
0.0
  0
SEQEND
  5
755
  8
025
  0
POLYLINE
  5
367
  8
025
 66
     1
 10
0.0
 20
0.0
 30
0.0
  0
VERTEX
  5
756
  8
025
 10
359.665971
 20
193.902681
 30
0.0
  0
VERTEX
  5
757
  8
025
 10
359.826243
 20
193.919906
 30
0.0
  0
VERTEX
  5
758
  8
025
 10
360.092815
 20
193.820376
 30
0.0
  0
VERTEX
  5
759
  8
025
 10
360.396289
 20
193.581903
 30
0.0
  0
VERTEX
  5
75A
  8
025
 10
360.72711
 20
193.214449
 30
0.0
  0
VERTEX
  5
75B
  8
025
 10
361.076789
 20
192.728352
 30
0.0
  0
VERTEX
  5
75C
  8
025
 10
361.436705
 20
192.134707
 30
0.0
  0
VERTEX
  5
75D
  8
025
 10
361.796395
 20
191.448726
 30
0.0
  0
VERTEX
  5
75E
  8
025
 10
362.134525
 20
190.712681
 30
0.0
  0
VERTEX
  5
75F
  8
025
 10
362.428956
 20
189.986406
 30
0.0
  0
VERTEX
  5
760
  8
025
 10
362.6719
 20
189.309638
 30
0.0
  0
VERTEX
  5
761
  8
025
 10
362.865952
 20
188.698536
 30
0.0
  0
VERTEX
  5
762
  8
025
 10
363.016262
 20
188.160405
 30
0.0
  0
VERTEX
  5
763
  8
025
 10
363.129141
 20
187.69639
 30
0.0
  0
VERTEX
  5
764
  8
025
 10
363.211206
 20
187.3034
 30
0.0
  0
VERTEX
  5
765
  8
025
 10
363.268793
 20
186.975783
 30
0.0
  0
SEQEND
  5
766
  8
025
  0
POLYLINE
  5
368
  8
025
 66
     1
 10
0.0
 20
0.0
 30
0.0
  0
VERTEX
  5
767
  8
025
 10
359.675652
 20
194.021468
 30
0.0
  0
VERTEX
  5
768
  8
025
 10
359.720339
 20
194.308094
 30
0.0
  0
VERTEX
  5
769
  8
025
 10
359.830021
 20
194.599324
 30
0.0
  0
VERTEX
  5
76A
  8
025
 10
360.005933
 20
194.789931
 30
0.0
  0
VERTEX
  5
76B
  8
025
 10
360.252647
 20
194.83955
 30
0.0
  0
VERTEX
  5
76C
  8
025
 10
360.559218
 20
194.725145
 30
0.0
  0
VERTEX
  5
76D
  8
025
 10
360.908252
 20
194.450907
 30
0.0
  0
VERTEX
  5
76E
  8
025
 10
361.288749
 20
194.028292
 30
0.0
  0
VERTEX
  5
76F
  8
025
 10
361.690943
 20
193.46919
 30
0.0
  0
VERTEX
  5
770
  8
025
 10
362.104909
 20
192.786377
 30
0.0
  0
VERTEX
  5
771
  8
025
 10
362.518602
 20
191.997371
 30
0.0
  0
VERTEX
  5
772
  8
025
 10
362.907468
 20
191.150837
 30
0.0
  0
VERTEX
  5
773
  8
025
 10
363.24605
 20
190.315608
 30
0.0
  0
VERTEX
  5
774
  8
025
 10
363.52541
 20
189.537346
 30
0.0
  0
VERTEX
  5
775
  8
025
 10
363.748545
 20
188.834614
 30
0.0
  0
VERTEX
  5
776
  8
025
 10
363.921378
 20
188.215803
 30
0.0
  0
VERTEX
  5
777
  8
025
 10
364.051168
 20
187.682226
 30
0.0
  0
VERTEX
  5
778
  8
025
 10
364.145527
 20
187.230325
 30
0.0
  0
VERTEX
  5
779
  8
025
 10
364.211709
 20
186.853796
 30
0.0
  0
SEQEND
  5
77A
  8
025
  0
LINE
  5
369
  8
05
 10
349.673861
 20
188.781513
 30
0.0
 11
350.282594
 21
190.240961
 31
0.0
  0
POLYLINE
  5
36A
  8
025
 66
     1
 10
0.0
 20
0.0
 30
0.0
  0
VERTEX
  5
77B
  8
025
 10
369.149157
 20
203.896428
 30
0.0
  0
VERTEX
  5
77C
  8
025
 10
369.444223
 20
203.720853
 30
0.0
  0
VERTEX
  5
77D
  8
025
 10
370.086157
 20
203.179566
 30
0.0
  0
VERTEX
  5
77E
  8
025
 10
370.780331
 20
202.398264
 30
0.0
  0
VERTEX
  5
77F
  8
025
 10
371.509653
 20
201.396187
 30
0.0
  0
VERTEX
  5
780
  8
025
 10
372.256164
 20
200.198009
 30
0.0
  0
VERTEX
  5
781
  8
025
 10
373.001482
 20
198.833232
 30
0.0
  0
VERTEX
  5
782
  8
025
 10
373.727255
 20
197.335463
 30
0.0
  0
VERTEX
  5
783
  8
025
 10
374.415613
 20
195.741581
 30
0.0
  0
VERTEX
  5
784
  8
025
 10
375.049605
 20
194.090832
 30
0.0
  0
VERTEX
  5
785
  8
025
 10
375.613621
 20
192.423865
 30
0.0
  0
VERTEX
  5
786
  8
025
 10
376.093773
 20
190.781725
 30
0.0
  0
VERTEX
  5
787
  8
025
 10
376.478237
 20
189.204846
 30
0.0
  0
VERTEX
  5
788
  8
025
 10
376.757548
 20
187.732058
 30
0.0
  0
SEQEND
  5
789
  8
025
  0
POLYLINE
  5
36B
  8
05
 66
     1
 10
0.0
 20
0.0
 30
0.0
  0
VERTEX
  5
78A
  8
05
 10
370.08166
 20
203.427733
 30
0.0
  0
VERTEX
  5
78B
  8
05
 10
370.356009
 20
203.264486
 30
0.0
  0
VERTEX
  5
78C
  8
05
 10
370.952871
 20
202.761204
 30
0.0
  0
VERTEX
  5
78D
  8
05
 10
371.598305
 20
202.03476
 30
0.0
  0
VERTEX
  5
78E
  8
05
 10
372.276419
 20
201.103041
 30
0.0
  0
VERTEX
  5
78F
  8
05
 10
372.970515
 20
199.98899
 30
0.0
  0
VERTEX
  5
790
  8
05
 10
373.663502
 20
198.720039
 30
0.0
  0
VERTEX
  5
791
  8
05
 10
374.338317
 20
197.327432
 30
0.0
  0
VERTEX
  5
792
  8
05
 10
374.978343
 20
195.84546
 30
0.0
  0
VERTEX
  5
793
  8
05
 10
375.567822
 20
194.310616
 30
0.0
  0
VERTEX
  5
794
  8
05
 10
376.092236
 20
192.760691
 30
0.0
  0
VERTEX
  5
795
  8
05
 10
376.538675
 20
191.23385
 30
0.0
  0
VERTEX
  5
796
  8
05
 10
376.896146
 20
189.767689
 30
0.0
  0
VERTEX
  5
797
  8
05
 10
377.155845
 20
188.398309
 30
0.0
  0
SEQEND
  5
798
  8
05
  0
POLYLINE
  5
36C
  8
05
 66
     1
 10
0.0
 20
0.0
 30
0.0
  0
VERTEX
  5
799
  8
05
 10
358.065124
 20
200.22005
 30
0.0
  0
VERTEX
  5
79A
  8
05
 10
358.156097
 20
200.247368
 30
0.0
  0
VERTEX
  5
79B
  8
05
 10
358.647806
 20
200.219856
 30
0.0
  0
VERTEX
  5
79C
  8
05
 10
359.221694
 20
199.93191
 30
0.0
  0
VERTEX
  5
79D
  8
05
 10
359.863628
 20
199.390623
 30
0.0
  0
VERTEX
  5
79E
  8
05
 10
360.557802
 20
198.609321
 30
0.0
  0
VERTEX
  5
79F
  8
05
 10
361.287124
 20
197.607244
 30
0.0
  0
VERTEX
  5
7A0
  8
05
 10
362.033634
 20
196.409066
 30
0.0
  0
VERTEX
  5
7A1
  8
05
 10
362.778952
 20
195.044289
 30
0.0
  0
VERTEX
  5
7A2
  8
05
 10
363.504726
 20
193.54652
 30
0.0
  0
VERTEX
  5
7A3
  8
05
 10
364.193084
 20
191.952638
 30
0.0
  0
VERTEX
  5
7A4
  8
05
 10
364.827076
 20
190.301889
 30
0.0
  0
VERTEX
  5
7A5
  8
05
 10
365.391092
 20
188.634922
 30
0.0
  0
VERTEX
  5
7A6
  8
05
 10
365.871244
 20
186.992782
 30
0.0
  0
VERTEX
  5
7A7
  8
05
 10
366.255708
 20
185.415904
 30
0.0
  0
VERTEX
  5
7A8
  8
05
 10
366.535019
 20
183.943115
 30
0.0
  0
SEQEND
  5
7A9
  8
05
  0
POLYLINE
  5
36D
  8
025
 66
     1
 10
0.0
 20
0.0
 30
0.0
  0
VERTEX
  5
7AA
  8
025
 10
350.529474
 20
190.516276
 30
0.0
  0
VERTEX
  5
7AB
  8
025
 10
350.617002
 20
190.535425
 30
0.0
  0
VERTEX
  5
7AC
  8
025
 10
350.895596
 20
190.468655
 30
0.0
  0
VERTEX
  5
7AD
  8
025
 10
351.224229
 20
190.230752
 30
0.0
  0
VERTEX
  5
7AE
  8
025
 10
351.59027
 20
189.830858
 30
0.0
  0
VERTEX
  5
7AF
  8
025
 10
351.979654
 20
189.284342
 30
0.0
  0
VERTEX
  5
7B0
  8
025
 10
352.377417
 20
188.612206
 30
0.0
  0
VERTEX
  5
7B1
  8
025
 10
352.768272
 20
187.840279
 30
0.0
  0
VERTEX
  5
7B2
  8
025
 10
353.137199
 20
186.998227
 30
0.0
  0
VERTEX
  5
7B3
  8
025
 10
353.470021
 20
186.118408
 30
0.0
  0
VERTEX
  5
7B4
  8
025
 10
353.753947
 20
185.234634
 30
0.0
  0
VERTEX
  5
7B5
  8
025
 10
353.978067
 20
184.380868
 30
0.0
  0
VERTEX
  5
7B6
  8
025
 10
354.133767
 20
183.58992
 30
0.0
  0
SEQEND
  5
7B7
  8
025
  0
LINE
  5
36E
  8
05
 10
348.21512
 20
145.21012
 30
0.0
 11
340.774412
 21
191.948424
 31
0.0
  0
LINE
  5
36F
  8
05
 10
365.905476
 20
179.066343
 30
0.0
 11
376.128005
 21
182.855285
 31
0.0
  0
LINE
  5
370
  8
025
 10
338.680195
 20
148.645904
 30
0.0
 11
339.250701
 21
148.756348
 31
0.0
  0
LINE
  5
371
  8
025
 10
338.257213
 20
145.761787
 30
0.0
 11
338.842904
 21
145.776847
 31
0.0
  0
LINE
  5
372
  8
025
 10
338.918829
 20
145.299925
 30
0.0
 11
338.348324
 21
145.189482
 31
0.0
  0
LINE
  5
373
  8
025
 10
339.202982
 20
148.132585
 30
0.0
 11
338.756121
 21
148.168983
 31
0.0
  0
LINE
  5
374
  8
025
 10
338.918829
 20
145.299925
 30
0.0
 11
338.72522
 21
145.542482
 31
0.0
  0
LINE
  5
375
  8
025
 10
339.009373
 20
148.375142
 30
0.0
 11
338.719542
 21
148.398749
 31
0.0
  0
LINE
  5
376
  8
025
 10
339.00288
 20
145.645395
 30
0.0
 11
338.72522
 21
145.542482
 31
0.0
  0
LINE
  5
377
  8
025
 10
338.257213
 20
145.761787
 30
0.0
 11
338.842904
 21
145.776847
 31
0.0
  0
LINE
  5
378
  8
025
 10
339.202982
 20
148.132585
 30
0.0
 11
338.756121
 21
148.168983
 31
0.0
  0
LINE
  5
379
  8
025
 10
338.680195
 20
148.645904
 30
0.0
 11
339.250701
 21
148.756348
 31
0.0
  0
LINE
  5
37A
  8
025
 10
338.918829
 20
145.299925
 30
0.0
 11
338.348324
 21
145.189482
 31
0.0
  0
LINE
  5
37B
  8
025
 10
340.048453
 20
144.618757
 30
0.0
 11
337.827171
 21
143.795447
 31
0.0
  0
LINE
  5
37C
  8
025
 10
340.242062
 20
144.3762
 30
0.0
 11
338.02078
 21
143.55289
 31
0.0
  0
LINE
  5
37D
  8
025
 10
338.02078
 20
143.55289
 30
0.0
 11
340.242062
 21
144.3762
 31
0.0
  0
LINE
  5
37E
  8
025
 10
337.765011
 20
143.963153
 30
0.0
 11
339.986293
 21
144.786463
 31
0.0
  0
LINE
  5
37F
  8
025
 10
340.860287
 20
145.110406
 30
0.0
 11
337.250703
 21
143.772527
 31
0.0
  0
LINE
  5
380
  8
025
 10
338.756121
 20
148.168983
 30
0.0
 11
338.680195
 21
148.645904
 31
0.0
  0
LINE
  5
381
  8
025
 10
337.949182
 20
145.849642
 30
0.0
 11
338.257213
 21
145.761787
 31
0.0
  0
LINE
  5
382
  8
025
 10
338.348324
 20
145.189482
 30
0.0
 11
337.901462
 21
145.22588
 31
0.0
  0
LINE
  5
383
  8
025
 10
337.901462
 20
145.22588
 30
0.0
 11
337.707853
 21
145.468436
 31
0.0
  0
LINE
  5
384
  8
025
 10
338.348324
 20
145.189482
 30
0.0
 11
338.154714
 21
145.432038
 31
0.0
  0
LINE
  5
385
  8
025
 10
337.580411
 20
146.319034
 30
0.0
 11
337.949182
 21
145.849642
 31
0.0
  0
LINE
  5
386
  8
025
 10
337.519671
 20
146.700571
 30
0.0
 11
337.580411
 21
146.319034
 31
0.0
  0
LINE
  5
387
  8
025
 10
338.72522
 20
145.542482
 30
0.0
 11
338.154714
 21
145.432038
 31
0.0
  0
LINE
  5
388
  8
025
 10
338.154714
 20
145.432038
 30
0.0
 11
337.707853
 21
145.468436
 31
0.0
  0
LINE
  5
389
  8
025
 10
337.519671
 20
146.700571
 30
0.0
 11
337.580411
 21
146.319034
 31
0.0
  0
LINE
  5
38A
  8
025
 10
337.580411
 20
146.319034
 30
0.0
 11
337.949182
 21
145.849642
 31
0.0
  0
LINE
  5
38B
  8
025
 10
337.949182
 20
145.849642
 30
0.0
 11
338.257213
 21
145.761787
 31
0.0
  0
LINE
  5
38C
  8
025
 10
338.756121
 20
148.168983
 30
0.0
 11
338.680195
 21
148.645904
 31
0.0
  0
LINE
  5
38D
  8
025
 10
338.348324
 20
145.189482
 30
0.0
 11
337.901462
 21
145.22588
 31
0.0
  0
LINE
  5
38E
  8
025
 10
338.02078
 20
143.55289
 30
0.0
 11
337.827171
 21
143.795447
 31
0.0
  0
LINE
  5
38F
  8
025
 10
337.02509
 20
146.113206
 30
0.0
 11
336.964349
 21
146.494743
 31
0.0
  0
LINE
  5
390
  8
025
 10
336.977371
 20
145.489444
 30
0.0
 11
337.02509
 21
146.113206
 31
0.0
  0
LINE
  5
391
  8
025
 10
336.745265
 20
145.100378
 30
0.0
 11
336.977371
 21
145.489444
 31
0.0
  0
LINE
  5
392
  8
025
 10
334.79295
 20
147.205111
 30
0.0
 11
335.194256
 21
147.454867
 31
0.0
  0
LINE
  5
393
  8
025
 10
335.007705
 20
146.779647
 30
0.0
 11
334.814096
 21
147.022203
 31
0.0
  0
LINE
  5
394
  8
025
 10
335.270181
 20
146.977945
 30
0.0
 11
335.076572
 21
147.220502
 31
0.0
  0
LINE
  5
395
  8
025
 10
337.424231
 20
145.453046
 30
0.0
 11
337.222496
 21
144.87321
 31
0.0
  0
LINE
  5
396
  8
025
 10
337.222496
 20
144.87321
 30
0.0
 11
337.028887
 21
145.115767
 31
0.0
  0
LINE
  5
397
  8
025
 10
337.424231
 20
145.453046
 30
0.0
 11
337.230622
 21
145.695603
 31
0.0
  0
LINE
  5
398
  8
025
 10
337.028887
 20
145.115767
 30
0.0
 11
336.863585
 21
144.968009
 31
0.0
  0
LINE
  5
399
  8
025
 10
336.863585
 20
144.968009
 30
0.0
 11
336.642767
 21
144.770628
 31
0.0
  0
LINE
  5
39A
  8
025
 10
335.053234
 20
147.367101
 30
0.0
 11
335.076572
 21
147.220502
 31
0.0
  0
LINE
  5
39B
  8
025
 10
335.270181
 20
146.977945
 30
0.0
 11
335.007705
 21
146.779647
 31
0.0
  0
LINE
  5
39C
  8
025
 10
335.194256
 20
147.454867
 30
0.0
 11
335.270181
 21
146.977945
 31
0.0
  0
LINE
  5
39D
  8
025
 10
335.076572
 20
147.220502
 30
0.0
 11
334.888608
 21
147.078496
 31
0.0
  0
LINE
  5
39E
  8
025
 10
334.888608
 20
147.078496
 30
0.0
 11
334.814096
 21
147.022203
 31
0.0
  0
LINE
  5
39F
  8
025
 10
337.373313
 20
146.646324
 30
0.0
 11
337.386802
 21
146.561591
 31
0.0
  0
LINE
  5
3A0
  8
025
 10
337.230622
 20
145.695603
 30
0.0
 11
337.139295
 21
145.433107
 31
0.0
  0
LINE
  5
3A1
  8
025
 10
337.139295
 20
145.433107
 30
0.0
 11
337.028887
 21
145.115767
 31
0.0
  0
LINE
  5
3A2
  8
025
 10
336.745265
 20
145.100378
 30
0.0
 11
336.977371
 21
145.489444
 31
0.0
  0
LINE
  5
3A3
  8
025
 10
336.977371
 20
145.489444
 30
0.0
 11
337.02509
 21
146.113206
 31
0.0
  0
LINE
  5
3A4
  8
025
 10
337.02509
 20
146.113206
 30
0.0
 11
336.964349
 21
146.494743
 31
0.0
  0
LINE
  5
3A5
  8
025
 10
337.424231
 20
145.453046
 30
0.0
 11
337.222496
 21
144.87321
 31
0.0
  0
LINE
  5
3A6
  8
025
 10
334.79295
 20
147.205111
 30
0.0
 11
335.194256
 21
147.454867
 31
0.0
  0
LINE
  5
3A7
  8
025
 10
335.194256
 20
147.454867
 30
0.0
 11
335.270181
 21
146.977945
 31
0.0
  0
LINE
  5
3A8
  8
025
 10
335.270181
 20
146.977945
 30
0.0
 11
335.007705
 21
146.779647
 31
0.0
  0
LINE
  5
3A9
  8
025
 10
335.664994
 20
144.497954
 30
0.0
 11
336.220315
 21
144.703781
 31
0.0
  0
LINE
  5
3AA
  8
025
 10
335.372148
 20
144.490424
 30
0.0
 11
335.664994
 21
144.497954
 31
0.0
  0
LINE
  5
3AB
  8
025
 10
335.064118
 20
144.578279
 30
0.0
 11
335.372148
 21
144.490424
 31
0.0
  0
LINE
  5
3AC
  8
025
 10
335.547311
 20
144.263589
 30
0.0
 11
335.115635
 21
144.204603
 31
0.0
  0
LINE
  5
3AD
  8
025
 10
335.309244
 20
143.962046
 30
0.0
 11
335.115635
 21
144.204603
 31
0.0
  0
LINE
  5
3AE
  8
025
 10
335.74092
 20
144.021032
 30
0.0
 11
335.547311
 21
144.263589
 31
0.0
  0
LINE
  5
3AF
  8
025
 10
335.309244
 20
143.962046
 30
0.0
 11
334.862383
 21
143.998443
 31
0.0
  0
LINE
  5
3B0
  8
025
 10
335.74092
 20
144.021032
 30
0.0
 11
335.309244
 21
143.962046
 31
0.0
  0
LINE
  5
3B1
  8
025
 10
336.29624
 20
144.22686
 30
0.0
 11
335.74092
 21
144.021032
 31
0.0
  0
LINE
  5
3B2
  8
025
 10
336.836376
 20
144.528072
 30
0.0
 11
336.29624
 21
144.22686
 31
0.0
  0
LINE
  5
3B3
  8
025
 10
336.29624
 20
144.22686
 30
0.0
 11
336.102631
 21
144.469416
 31
0.0
  0
LINE
  5
3B4
  8
025
 10
336.292092
 20
144.575071
 30
0.0
 11
336.102631
 21
144.469416
 31
0.0
  0
LINE
  5
3B5
  8
025
 10
336.102631
 20
144.469416
 30
0.0
 11
335.727154
 21
144.330247
 31
0.0
  0
LINE
  5
3B6
  8
025
 10
335.727154
 20
144.330247
 30
0.0
 11
335.547311
 21
144.263589
 31
0.0
  0
LINE
  5
3B7
  8
025
 10
335.064118
 20
144.578279
 30
0.0
 11
335.372148
 21
144.490424
 31
0.0
  0
LINE
  5
3B8
  8
025
 10
335.372148
 20
144.490424
 30
0.0
 11
335.664994
 21
144.497954
 31
0.0
  0
LINE
  5
3B9
  8
025
 10
335.664994
 20
144.497954
 30
0.0
 11
336.220315
 21
144.703781
 31
0.0
  0
LINE
  5
3BA
  8
025
 10
336.836376
 20
144.528072
 30
0.0
 11
336.29624
 21
144.22686
 31
0.0
  0
LINE
  5
3BB
  8
025
 10
336.29624
 20
144.22686
 30
0.0
 11
335.74092
 21
144.021032
 31
0.0
  0
LINE
  5
3BC
  8
025
 10
335.74092
 20
144.021032
 30
0.0
 11
335.309244
 21
143.962046
 31
0.0
  0
LINE
  5
3BD
  8
025
 10
335.309244
 20
143.962046
 30
0.0
 11
334.862383
 21
143.998443
 31
0.0
  0
LINE
  5
3BE
  8
025
 10
336.220315
 20
144.703781
 30
0.0
 11
336.745265
 21
145.100378
 31
0.0
  0
LINE
  5
3BF
  8
025
 10
334.894918
 20
144.71759
 30
0.0
 11
335.064118
 21
144.578279
 31
0.0
  0
LINE
  5
3C0
  8
025
 10
337.222496
 20
144.87321
 30
0.0
 11
336.836376
 21
144.528072
 31
0.0
  0
LINE
  5
3C1
  8
025
 10
336.836376
 20
144.528072
 30
0.0
 11
336.642767
 21
144.770628
 31
0.0
  0
LINE
  5
3C2
  8
025
 10
336.642767
 20
144.770628
 30
0.0
 11
336.292092
 21
144.575071
 31
0.0
  0
LINE
  5
3C3
  8
025
 10
334.894918
 20
144.71759
 30
0.0
 11
335.064118
 21
144.578279
 31
0.0
  0
LINE
  5
3C4
  8
025
 10
336.220315
 20
144.703781
 30
0.0
 11
336.745265
 21
145.100378
 31
0.0
  0
LINE
  5
3C5
  8
025
 10
337.222496
 20
144.87321
 30
0.0
 11
336.836376
 21
144.528072
 31
0.0
  0
LINE
  5
3C6
  8
025
 10
337.250703
 20
143.772527
 30
0.0
 11
337.765011
 21
143.963153
 31
0.0
  0
LINE
  5
3C7
  8
025
 10
336.964349
 20
146.494743
 30
0.0
 11
337.519671
 21
146.700571
 31
0.0
  0
LINE
  5
3C8
  8
025
 10
337.901462
 20
145.22588
 30
0.0
 11
337.424231
 21
145.453046
 31
0.0
  0
LINE
  5
3C9
  8
025
 10
337.580411
 20
146.319034
 30
0.0
 11
337.386802
 21
146.561591
 31
0.0
  0
LINE
  5
3CA
  8
025
 10
337.707853
 20
145.468436
 30
0.0
 11
337.230622
 21
145.695603
 31
0.0
  0
LINE
  5
3CB
  8
025
 10
336.964349
 20
146.494743
 30
0.0
 11
337.519671
 21
146.700571
 31
0.0
  0
LINE
  5
3CC
  8
025
 10
337.901462
 20
145.22588
 30
0.0
 11
337.424231
 21
145.453046
 31
0.0
  0
LINE
  5
3CD
  8
025
 10
339.526197
 20
147.949346
 30
0.0
 11
339.332588
 21
148.191903
 31
0.0
  0
LINE
  5
3CE
  8
025
 10
339.866763
 20
148.580638
 30
0.0
 11
340.205163
 21
148.302015
 31
0.0
  0
LINE
  5
3CF
  8
025
 10
339.250701
 20
148.756348
 30
0.0
 11
339.866763
 21
148.580638
 31
0.0
  0
LINE
  5
3D0
  8
025
 10
339.740953
 20
147.523882
 30
0.0
 11
339.526197
 21
147.949346
 31
0.0
  0
LINE
  5
3D1
  8
025
 10
339.801694
 20
147.142345
 30
0.0
 11
339.740953
 21
147.523882
 31
0.0
  0
LINE
  5
3D2
  8
025
 10
339.738789
 20
146.613966
 30
0.0
 11
339.801694
 21
147.142345
 31
0.0
  0
LINE
  5
3D3
  8
025
 10
339.506684
 20
146.224899
 30
0.0
 11
339.738789
 21
146.613966
 31
0.0
  0
LINE
  5
3D4
  8
025
 10
339.120564
 20
145.87976
 30
0.0
 11
339.506684
 21
146.224899
 31
0.0
  0
LINE
  5
3D5
  8
025
 10
338.842904
 20
145.776847
 30
0.0
 11
339.120564
 21
145.87976
 31
0.0
  0
LINE
  5
3D6
  8
025
 10
339.202982
 20
148.132585
 30
0.0
 11
339.009373
 21
148.375142
 31
0.0
  0
LINE
  5
3D7
  8
025
 10
339.196489
 20
145.402839
 30
0.0
 11
338.918829
 21
145.299925
 31
0.0
  0
LINE
  5
3D8
  8
025
 10
339.736625
 20
145.704051
 30
0.0
 11
339.196489
 21
145.402839
 31
0.0
  0
LINE
  5
3D9
  8
025
 10
340.231205
 20
146.291416
 30
0.0
 11
339.736625
 21
145.704051
 31
0.0
  0
LINE
  5
3DA
  8
025
 10
340.448125
 20
146.775866
 30
0.0
 11
340.231205
 21
146.291416
 31
0.0
  0
LINE
  5
3DB
  8
025
 10
340.480659
 20
147.495014
 30
0.0
 11
340.448125
 21
146.775866
 31
0.0
  0
LINE
  5
3DC
  8
025
 10
340.450289
 20
147.685782
 30
0.0
 11
340.480659
 21
147.495014
 31
0.0
  0
LINE
  5
3DD
  8
025
 10
340.205163
 20
148.302015
 30
0.0
 11
340.450289
 21
147.685782
 31
0.0
  0
LINE
  5
3DE
  8
025
 10
339.526197
 20
147.949346
 30
0.0
 11
339.202982
 21
148.132585
 31
0.0
  0
LINE
  5
3DF
  8
025
 10
339.196489
 20
145.402839
 30
0.0
 11
339.00288
 21
145.645395
 31
0.0
  0
LINE
  5
3E0
  8
025
 10
339.736625
 20
145.704051
 30
0.0
 11
339.543016
 21
145.946607
 31
0.0
  0
LINE
  5
3E1
  8
025
 10
340.231205
 20
146.291416
 30
0.0
 11
340.037596
 21
146.533972
 31
0.0
  0
LINE
  5
3E2
  8
025
 10
340.448125
 20
146.775866
 30
0.0
 11
340.254516
 21
147.018423
 31
0.0
  0
LINE
  5
3E3
  8
025
 10
340.480659
 20
147.495014
 30
0.0
 11
340.28705
 21
147.73757
 31
0.0
  0
LINE
  5
3E4
  8
025
 10
340.450289
 20
147.685782
 30
0.0
 11
340.25668
 21
147.928339
 31
0.0
  0
LINE
  5
3E5
  8
025
 10
339.332588
 20
148.191903
 30
0.0
 11
339.009373
 21
148.375142
 31
0.0
  0
LINE
  5
3E6
  8
025
 10
340.060737
 20
148.420929
 30
0.0
 11
340.121307
 21
148.268659
 31
0.0
  0
LINE
  5
3E7
  8
025
 10
340.121307
 20
148.268659
 30
0.0
 11
340.25668
 21
147.928339
 31
0.0
  0
LINE
  5
3E8
  8
025
 10
340.25668
 20
147.928339
 30
0.0
 11
340.28705
 21
147.73757
 31
0.0
  0
LINE
  5
3E9
  8
025
 10
340.28705
 20
147.73757
 30
0.0
 11
340.254516
 21
147.018423
 31
0.0
  0
LINE
  5
3EA
  8
025
 10
340.254516
 20
147.018423
 30
0.0
 11
340.037596
 21
146.533972
 31
0.0
  0
LINE
  5
3EB
  8
025
 10
340.037596
 20
146.533972
 30
0.0
 11
339.665057
 21
146.091544
 31
0.0
  0
LINE
  5
3EC
  8
025
 10
339.665057
 20
146.091544
 30
0.0
 11
339.543016
 21
145.946607
 31
0.0
  0
LINE
  5
3ED
  8
025
 10
339.543016
 20
145.946607
 30
0.0
 11
339.19234
 21
145.75105
 31
0.0
  0
LINE
  5
3EE
  8
025
 10
339.19234
 20
145.75105
 30
0.0
 11
339.00288
 21
145.645395
 31
0.0
  0
LINE
  5
3EF
  8
025
 10
338.842904
 20
145.776847
 30
0.0
 11
339.120564
 21
145.87976
 31
0.0
  0
LINE
  5
3F0
  8
025
 10
339.120564
 20
145.87976
 30
0.0
 11
339.506684
 21
146.224899
 31
0.0
  0
LINE
  5
3F1
  8
025
 10
339.506684
 20
146.224899
 30
0.0
 11
339.738789
 21
146.613966
 31
0.0
  0
LINE
  5
3F2
  8
025
 10
339.738789
 20
146.613966
 30
0.0
 11
339.801694
 21
147.142345
 31
0.0
  0
LINE
  5
3F3
  8
025
 10
339.801694
 20
147.142345
 30
0.0
 11
339.740953
 21
147.523882
 31
0.0
  0
LINE
  5
3F4
  8
025
 10
339.740953
 20
147.523882
 30
0.0
 11
339.526197
 21
147.949346
 31
0.0
  0
LINE
  5
3F5
  8
025
 10
339.526197
 20
147.949346
 30
0.0
 11
339.202982
 21
148.132585
 31
0.0
  0
LINE
  5
3F6
  8
025
 10
339.250701
 20
148.756348
 30
0.0
 11
339.866763
 21
148.580638
 31
0.0
  0
LINE
  5
3F7
  8
025
 10
339.866763
 20
148.580638
 30
0.0
 11
340.205163
 21
148.302015
 31
0.0
  0
LINE
  5
3F8
  8
025
 10
340.205163
 20
148.302015
 30
0.0
 11
340.450289
 21
147.685782
 31
0.0
  0
LINE
  5
3F9
  8
025
 10
340.450289
 20
147.685782
 30
0.0
 11
340.480659
 21
147.495014
 31
0.0
  0
LINE
  5
3FA
  8
025
 10
340.480659
 20
147.495014
 30
0.0
 11
340.448125
 21
146.775866
 31
0.0
  0
LINE
  5
3FB
  8
025
 10
340.448125
 20
146.775866
 30
0.0
 11
340.231205
 21
146.291416
 31
0.0
  0
LINE
  5
3FC
  8
025
 10
340.231205
 20
146.291416
 30
0.0
 11
339.736625
 21
145.704051
 31
0.0
  0
LINE
  5
3FD
  8
025
 10
339.736625
 20
145.704051
 30
0.0
 11
339.196489
 21
145.402839
 31
0.0
  0
LINE
  5
3FE
  8
025
 10
339.196489
 20
145.402839
 30
0.0
 11
338.918829
 21
145.299925
 31
0.0
  0
LINE
  5
3FF
  8
025
 10
339.986293
 20
144.786463
 30
0.0
 11
340.860287
 21
145.110406
 31
0.0
  0
LINE
  5
400
  8
025
 10
340.242062
 20
144.3762
 30
0.0
 11
340.048453
 21
144.618757
 31
0.0
  0
POLYLINE
  5
401
  8
05
 66
     1
 10
0.0
 20
0.0
 30
0.0
  0
VERTEX
  5
7B8
  8
05
 10
349.658103
 20
187.431583
 30
0.0
  0
VERTEX
  5
7B9
  8
05
 10
349.784549
 20
186.796884
 30
0.0
  0
VERTEX
  5
7BA
  8
05
 10
349.968932
 20
186.110418
 30
0.0
  0
VERTEX
  5
7BB
  8
05
 10
350.203191
 20
185.402187
 30
0.0
  0
VERTEX
  5
7BC
  8
05
 10
350.477091
 20
184.703143
 30
0.0
  0
VERTEX
  5
7BD
  8
05
 10
350.778659
 20
184.043838
 30
0.0
  0
VERTEX
  5
7BE
  8
05
 10
351.094715
 20
183.453088
 30
0.0
  0
VERTEX
  5
7BF
  8
05
 10
351.411448
 20
182.95671
 30
0.0
  0
VERTEX
  5
7C0
  8
05
 10
351.715013
 20
182.576399
 30
0.0
  0
VERTEX
  5
7C1
  8
05
 10
351.992143
 20
182.328776
 30
0.0
  0
VERTEX
  5
7C2
  8
05
 10
352.086168
 20
182.272926
 30
0.0
  0
SEQEND
  5
7C3
  8
05
  0
POLYLINE
  5
402
  8
025
 66
     1
 10
0.0
 20
0.0
 30
0.0
  0
VERTEX
  5
7C4
  8
025
 10
349.673826
 20
188.781414
 30
0.0
  0
VERTEX
  5
7C5
  8
025
 10
349.800006
 20
188.956204
 30
0.0
  0
VERTEX
  5
7C6
  8
025
 10
349.989617
 20
189.000152
 30
0.0
  0
VERTEX
  5
7C7
  8
025
 10
350.228201
 20
188.896039
 30
0.0
  0
VERTEX
  5
7C8
  8
025
 10
350.505332
 20
188.648416
 30
0.0
  0
VERTEX
  5
7C9
  8
025
 10
350.808897
 20
188.268105
 30
0.0
  0
VERTEX
  5
7CA
  8
025
 10
351.125629
 20
187.771727
 30
0.0
  0
VERTEX
  5
7CB
  8
025
 10
351.441686
 20
187.180977
 30
0.0
  0
VERTEX
  5
7CC
  8
025
 10
351.743253
 20
186.521672
 30
0.0
  0
VERTEX
  5
7CD
  8
025
 10
352.017153
 20
185.822628
 30
0.0
  0
VERTEX
  5
7CE
  8
025
 10
352.251413
 20
185.114397
 30
0.0
  0
VERTEX
  5
7CF
  8
025
 10
352.435795
 20
184.427931
 30
0.0
  0
VERTEX
  5
7D0
  8
025
 10
352.562241
 20
183.793232
 30
0.0
  0
SEQEND
  5
7D1
  8
025
  0
POLYLINE
  5
403
  8
05
 66
     1
 10
0.0
 20
0.0
 30
0.0
  0
VERTEX
  5
7D2
  8
05
 10
349.658103
 20
187.431583
 30
0.0
  0
VERTEX
  5
7D3
  8
05
 10
349.59512
 20
187.986775
 30
0.0
  0
VERTEX
  5
7D4
  8
05
 10
349.598351
 20
188.438195
 30
0.0
  0
VERTEX
  5
7D5
  8
05
 10
349.673826
 20
188.781414
 30
0.0
  0
SEQEND
  5
7D6
  8
05
  0
LINE
  5
404
  8
05
 10
353.865876
 20
181.514697
 30
0.0
 11
363.000902
 21
184.900561
 31
0.0
  0
POLYLINE
  5
405
  8
05
 66
     1
 10
0.0
 20
0.0
 30
0.0
  0
VERTEX
  5
7D7
  8
05
 10
352.086168
 20
182.272926
 30
0.0
  0
VERTEX
  5
7D8
  8
05
 10
352.230727
 20
182.224663
 30
0.0
  0
VERTEX
  5
7D9
  8
05
 10
352.420338
 20
182.268611
 30
0.0
  0
VERTEX
  5
7DA
  8
05
 10
352.552688
 20
182.458699
 30
0.0
  0
VERTEX
  5
7DB
  8
05
 10
352.621993
 20
182.78662
 30
0.0
  0
VERTEX
  5
7DC
  8
05
 10
352.625225
 20
183.23804
 30
0.0
  0
VERTEX
  5
7DD
  8
05
 10
352.562241
 20
183.793232
 30
0.0
  0
SEQEND
  5
7DE
  8
05
  0
POLYLINE
  5
406
  8
05
 66
     1
 10
0.0
 20
0.0
 30
0.0
  0
VERTEX
  5
7DF
  8
05
 10
353.499197
 20
181.562598
 30
0.0
  0
VERTEX
  5
7E0
  8
05
 10
353.778349
 20
181.495548
 30
0.0
  0
VERTEX
  5
7E1
  8
05
 10
353.865876
 20
181.514697
 30
0.0
  0
SEQEND
  5
7E2
  8
05
  0
LINE
  5
407
  8
05
 10
352.086313
 20
182.272741
 30
0.0
 11
353.499197
 21
181.562598
 31
0.0
  0
POLYLINE
  5
408
  8
05
 66
     1
 10
0.0
 20
0.0
 30
0.0
  0
VERTEX
  5
7E3
  8
05
 10
353.865876
 20
181.514697
 30
0.0
  0
VERTEX
  5
7E4
  8
05
 10
353.996199
 20
181.602476
 30
0.0
  0
VERTEX
  5
7E5
  8
05
 10
354.144933
 20
181.878994
 30
0.0
  0
VERTEX
  5
7E6
  8
05
 10
354.218834
 20
182.314475
 30
0.0
  0
VERTEX
  5
7E7
  8
05
 10
354.215064
 20
182.892184
 30
0.0
  0
VERTEX
  5
7E8
  8
05
 10
354.133767
 20
183.58992
 30
0.0
  0
SEQEND
  5
7E9
  8
05
  0
POLYLINE
  5
409
  8
05
 66
     1
 10
0.0
 20
0.0
 30
0.0
  0
VERTEX
  5
7EA
  8
05
 10
361.197
 20
184.231951
 30
0.0
  0
VERTEX
  5
7EB
  8
05
 10
361.936772
 20
182.87733
 30
0.0
  0
VERTEX
  5
7EC
  8
05
 10
362.683283
 20
181.679151
 30
0.0
  0
VERTEX
  5
7ED
  8
05
 10
363.412604
 20
180.677074
 30
0.0
  0
VERTEX
  5
7EE
  8
05
 10
364.106779
 20
179.895773
 30
0.0
  0
VERTEX
  5
7EF
  8
05
 10
364.748713
 20
179.354485
 30
0.0
  0
VERTEX
  5
7F0
  8
05
 10
365.3226
 20
179.06654
 30
0.0
  0
VERTEX
  5
7F1
  8
05
 10
365.81431
 20
179.039027
 30
0.0
  0
VERTEX
  5
7F2
  8
05
 10
365.905282
 20
179.066346
 30
0.0
  0
SEQEND
  5
7F3
  8
05
  0
POLYLINE
  5
40A
  8
05
 66
     1
 10
0.0
 20
0.0
 30
0.0
  0
VERTEX
  5
7F4
  8
05
 10
365.905282
 20
179.066346
 30
0.0
  0
VERTEX
  5
7F5
  8
05
 10
366.211734
 20
179.272624
 30
0.0
  0
VERTEX
  5
7F6
  8
05
 10
366.505087
 20
179.761579
 30
0.0
  0
VERTEX
  5
7F7
  8
05
 10
366.687145
 20
180.493852
 30
0.0
  0
VERTEX
  5
7F8
  8
05
 10
366.753426
 20
181.451413
 30
0.0
  0
VERTEX
  5
7F9
  8
05
 10
366.702298
 20
182.610682
 30
0.0
  0
VERTEX
  5
7FA
  8
05
 10
366.535019
 20
183.943115
 30
0.0
  0
SEQEND
  5
7FB
  8
05
  0
POLYLINE
  5
40B
  8
05
 66
     1
 10
0.0
 20
0.0
 30
0.0
  0
VERTEX
  5
7FC
  8
05
 10
362.999432
 20
184.90002
 30
0.0
  0
VERTEX
  5
7FD
  8
05
 10
363.130739
 20
184.921717
 30
0.0
  0
VERTEX
  5
7FE
  8
05
 10
363.168426
 20
184.916527
 30
0.0
  0
SEQEND
  5
7FF
  8
05
  0
LINE
  5
40C
  8
05
 10
363.10185
 20
184.978004
 30
0.0
 11
363.053709
 21
184.92587
 31
0.0
  0
LINE
  5
40D
  8
05
 10
363.053709
 20
184.92587
 30
0.0
 11
363.001927
 21
184.900943
 31
0.0
  0
LINE
  5
40E
  8
05
 10
363.062154
 20
184.835489
 30
0.0
 11
363.001985
 21
184.902319
 31
0.0
  0
POLYLINE
  5
40F
  8
05
 66
     1
 10
0.0
 20
0.0
 30
0.0
  0
VERTEX
  5
800
  8
05
 10
363.268793
 20
186.975783
 30
0.0
  0
VERTEX
  5
801
  8
05
 10
363.312913
 20
186.664348
 30
0.0
  0
VERTEX
  5
802
  8
05
 10
363.346274
 20
186.331673
 30
0.0
  0
VERTEX
  5
803
  8
05
 10
363.361607
 20
185.989174
 30
0.0
  0
VERTEX
  5
804
  8
05
 10
363.350197
 20
185.653018
 30
0.0
  0
VERTEX
  5
805
  8
05
 10
363.30211
 20
185.344761
 30
0.0
  0
VERTEX
  5
806
  8
05
 10
363.206706
 20
185.091556
 30
0.0
  0
VERTEX
  5
807
  8
05
 10
363.10185
 20
184.978004
 30
0.0
  0
SEQEND
  5
808
  8
05
  0
POLYLINE
  5
410
  8
05
 66
     1
 10
0.0
 20
0.0
 30
0.0
  0
VERTEX
  5
809
  8
05
 10
364.211709
 20
186.853796
 30
0.0
  0
VERTEX
  5
80A
  8
05
 10
364.26242
 20
186.495858
 30
0.0
  0
VERTEX
  5
80B
  8
05
 10
364.300795
 20
186.113288
 30
0.0
  0
VERTEX
  5
80C
  8
05
 10
364.318442
 20
185.719414
 30
0.0
  0
VERTEX
  5
80D
  8
05
 10
364.30534
 20
185.332823
 30
0.0
  0
VERTEX
  5
80E
  8
05
 10
364.250067
 20
184.978301
 30
0.0
  0
VERTEX
  5
80F
  8
05
 10
364.140385
 20
184.687072
 30
0.0
  0
VERTEX
  5
810
  8
05
 10
363.964473
 20
184.496464
 30
0.0
  0
VERTEX
  5
811
  8
05
 10
363.717759
 20
184.446846
 30
0.0
  0
VERTEX
  5
812
  8
05
 10
363.411188
 20
184.56125
 30
0.0
  0
VERTEX
  5
813
  8
05
 10
363.062154
 20
184.835489
 30
0.0
  0
SEQEND
  5
814
  8
05
  0
LINE
  5
411
  8
05
 10
379.173014
 20
183.983907
 30
0.0
 11
389.472799
 21
187.801484
 31
0.0
  0
LINE
  5
412
  8
05
 10
377.838724
 20
184.334009
 30
0.0
 11
378.311317
 21
184.096475
 31
0.0
  0
LINE
  5
413
  8
05
 10
376.911788
 20
183.990444
 30
0.0
 11
378.180008
 21
184.460505
 31
0.0
  0
LINE
  5
414
  8
05
 10
376.708174
 20
183.502276
 30
0.0
 11
377.109938
 21
184.465511
 31
0.0
  0
POLYLINE
  5
415
  8
05
 66
     1
 10
0.0
 20
0.0
 30
0.0
  0
VERTEX
  5
815
  8
05
 10
376.708174
 20
183.502276
 30
0.0
  0
VERTEX
  5
816
  8
05
 10
376.909674
 20
184.282795
 30
0.0
  0
VERTEX
  5
817
  8
05
 10
376.975955
 20
185.240356
 30
0.0
  0
VERTEX
  5
818
  8
05
 10
376.924827
 20
186.399625
 30
0.0
  0
VERTEX
  5
819
  8
05
 10
376.757548
 20
187.732058
 30
0.0
  0
SEQEND
  5
81A
  8
05
  0
POLYLINE
  5
416
  8
025
 66
     1
 10
0.0
 20
0.0
 30
0.0
  0
VERTEX
  5
81B
  8
025
 10
379.173014
 20
183.983907
 30
0.0
  0
VERTEX
  5
81C
  8
025
 10
379.479272
 20
184.190188
 30
0.0
  0
VERTEX
  5
81D
  8
025
 10
379.772625
 20
184.679143
 30
0.0
  0
VERTEX
  5
81E
  8
025
 10
379.954683
 20
185.411416
 30
0.0
  0
VERTEX
  5
81F
  8
025
 10
380.020964
 20
186.368977
 30
0.0
  0
VERTEX
  5
820
  8
025
 10
379.969836
 20
187.528246
 30
0.0
  0
VERTEX
  5
821
  8
025
 10
379.802557
 20
188.860679
 30
0.0
  0
SEQEND
  5
822
  8
025
  0
POLYLINE
  5
417
  8
05
 66
     1
 10
0.0
 20
0.0
 30
0.0
  0
VERTEX
  5
823
  8
05
 10
378.311317
 20
184.096475
 30
0.0
  0
VERTEX
  5
824
  8
05
 10
378.590138
 20
183.984104
 30
0.0
  0
VERTEX
  5
825
  8
05
 10
379.081847
 20
183.956591
 30
0.0
  0
VERTEX
  5
826
  8
05
 10
379.173014
 20
183.983907
 30
0.0
  0
SEQEND
  5
827
  8
05
  0
POLYLINE
  5
418
  8
05
 66
     1
 10
0.0
 20
0.0
 30
0.0
  0
VERTEX
  5
828
  8
05
 10
376.128005
 20
182.855285
 30
0.0
  0
VERTEX
  5
829
  8
05
 10
376.434263
 20
183.061567
 30
0.0
  0
VERTEX
  5
82A
  8
05
 10
376.708174
 20
183.502276
 30
0.0
  0
SEQEND
  5
82B
  8
05
  0
POLYLINE
  5
419
  8
05
 66
     1
 10
0.0
 20
0.0
 30
0.0
  0
VERTEX
  5
82C
  8
05
 10
377.109938
 20
184.465511
 30
0.0
  0
VERTEX
  5
82D
  8
05
 10
377.29729
 20
185.191228
 30
0.0
  0
VERTEX
  5
82E
  8
05
 10
377.358917
 20
186.081556
 30
0.0
  0
VERTEX
  5
82F
  8
05
 10
377.311379
 20
187.159429
 30
0.0
  0
VERTEX
  5
830
  8
05
 10
377.155845
 20
188.398309
 30
0.0
  0
SEQEND
  5
831
  8
05
  0
POLYLINE
  5
41A
  8
025
 66
     1
 10
0.0
 20
0.0
 30
0.0
  0
VERTEX
  5
832
  8
025
 10
378.180008
 20
184.460505
 30
0.0
  0
VERTEX
  5
833
  8
025
 10
378.464763
 20
184.652303
 30
0.0
  0
VERTEX
  5
834
  8
025
 10
378.737519
 20
185.106927
 30
0.0
  0
VERTEX
  5
835
  8
025
 10
378.906795
 20
185.787785
 30
0.0
  0
VERTEX
  5
836
  8
025
 10
378.968422
 20
186.678113
 30
0.0
  0
VERTEX
  5
837
  8
025
 10
378.920883
 20
187.755986
 30
0.0
  0
VERTEX
  5
838
  8
025
 10
378.76535
 20
188.994866
 30
0.0
  0
SEQEND
  5
839
  8
025
  0
LINE
  5
41B
  8
05
 10
389.472799
 20
187.801484
 30
0.0
 11
389.804079
 21
188.034909
 31
0.0
  0
LINE
  5
41C
  8
05
 10
358.064931
 20
200.220053
 30
0.0
 11
368.28746
 21
204.008996
 31
0.0
  0
LINE
  5
41D
  8
05
 10
350.529474
 20
190.516276
 30
0.0
 11
359.6645
 21
193.90214
 31
0.0
  0
POLYLINE
  5
41E
  8
05
 66
     1
 10
0.0
 20
0.0
 30
0.0
  0
VERTEX
  5
83A
  8
05
 10
337.245262
 20
196.369801
 30
0.0
  0
VERTEX
  5
83B
  8
05
 10
337.440419
 20
195.776281
 30
0.0
  0
VERTEX
  5
83C
  8
05
 10
337.669302
 20
195.189691
 30
0.0
  0
VERTEX
  5
83D
  8
05
 10
337.921814
 20
194.635943
 30
0.0
  0
VERTEX
  5
83E
  8
05
 10
338.18681
 20
194.139531
 30
0.0
  0
SEQEND
  5
83F
  8
05
  0
POLYLINE
  5
41F
  8
05
 66
     1
 10
0.0
 20
0.0
 30
0.0
  0
VERTEX
  5
840
  8
05
 10
339.463333
 20
193.590965
 30
0.0
  0
VERTEX
  5
841
  8
05
 10
338.942845
 20
193.761984
 30
0.0
  0
VERTEX
  5
842
  8
05
 10
338.325
 20
194.015167
 30
0.0
  0
SEQEND
  5
843
  8
05
  0
LINE
  5
420
  8
05
 10
338.18681
 20
194.139531
 30
0.0
 11
338.239645
 21
194.056617
 31
0.0
  0
LINE
  5
421
  8
05
 10
339.463333
 20
193.590965
 30
0.0
 11
340.774412
 21
191.948424
 31
0.0
  0
POLYLINE
  5
422
  8
05
 66
     1
 10
0.0
 20
0.0
 30
0.0
  0
VERTEX
  5
844
  8
05
 10
335.904886
 20
197.047126
 30
0.0
  0
VERTEX
  5
845
  8
05
 10
336.57564
 20
196.727661
 30
0.0
  0
VERTEX
  5
846
  8
05
 10
337.245262
 20
196.369801
 30
0.0
  0
SEQEND
  5
847
  8
05
  0
POLYLINE
  5
423
  8
05
 66
     1
 10
0.0
 20
0.0
 30
0.0
  0
VERTEX
  5
848
  8
05
 10
350.282594
 20
190.240961
 30
0.0
  0
VERTEX
  5
849
  8
05
 10
350.399152
 20
190.428497
 30
0.0
  0
VERTEX
  5
84A
  8
05
 10
350.529474
 20
190.516276
 30
0.0
  0
SEQEND
  5
84B
  8
05
  0
POLYLINE
  5
424
  8
05
 66
     1
 10
0.0
 20
0.0
 30
0.0
  0
VERTEX
  5
84C
  8
05
 10
357.435388
 20
195.34328
 30
0.0
  0
VERTEX
  5
84D
  8
05
 10
357.268109
 20
196.675713
 30
0.0
  0
VERTEX
  5
84E
  8
05
 10
357.21698
 20
197.834983
 30
0.0
  0
VERTEX
  5
84F
  8
05
 10
357.283261
 20
198.792543
 30
0.0
  0
VERTEX
  5
850
  8
05
 10
357.46532
 20
199.524816
 30
0.0
  0
VERTEX
  5
851
  8
05
 10
357.758673
 20
200.013771
 30
0.0
  0
VERTEX
  5
852
  8
05
 10
358.065124
 20
200.22005
 30
0.0
  0
SEQEND
  5
853
  8
05
  0
POLYLINE
  5
425
  8
05
 66
     1
 10
0.0
 20
0.0
 30
0.0
  0
VERTEX
  5
854
  8
05
 10
357.435388
 20
195.34328
 30
0.0
  0
VERTEX
  5
855
  8
05
 10
357.714698
 20
193.870492
 30
0.0
  0
VERTEX
  5
856
  8
05
 10
357.869219
 20
193.236725
 30
0.0
  0
SEQEND
  5
857
  8
05
  0
POLYLINE
  5
426
  8
05
 66
     1
 10
0.0
 20
0.0
 30
0.0
  0
VERTEX
  5
858
  8
05
 10
359.803394
 20
194.001552
 30
0.0
  0
VERTEX
  5
859
  8
05
 10
359.800222
 20
193.996911
 30
0.0
  0
VERTEX
  5
85A
  8
05
 10
359.70432
 20
193.919746
 30
0.0
  0
VERTEX
  5
85B
  8
05
 10
359.665971
 20
193.902681
 30
0.0
  0
SEQEND
  5
85C
  8
05
  0
LINE
  5
427
  8
05
 10
359.663345
 20
193.90277
 30
0.0
 11
359.665066
 21
193.953572
 31
0.0
  0
LINE
  5
428
  8
05
 10
359.665066
 20
193.953572
 30
0.0
 11
359.675652
 21
194.021468
 31
0.0
  0
LINE
  5
429
  8
05
 10
359.663476
 20
193.901758
 30
0.0
 11
359.665971
 21
193.902681
 31
0.0
  0
LINE
  5
42A
  8
05
 10
382.035642
 20
208.994072
 30
0.0
 11
386.801757
 21
208.351404
 31
0.0
  0
POLYLINE
  5
42B
  8
025
 66
     1
 10
0.0
 20
0.0
 30
0.0
  0
VERTEX
  5
85D
  8
025
 10
382.035642
 20
208.994072
 30
0.0
  0
VERTEX
  5
85E
  8
025
 10
382.21513
 20
208.954997
 30
0.0
  0
VERTEX
  5
85F
  8
025
 10
382.789017
 20
208.667052
 30
0.0
  0
VERTEX
  5
860
  8
025
 10
383.430951
 20
208.125765
 30
0.0
  0
VERTEX
  5
861
  8
025
 10
384.125125
 20
207.344463
 30
0.0
  0
VERTEX
  5
862
  8
025
 10
384.854447
 20
206.342386
 30
0.0
  0
VERTEX
  5
863
  8
025
 10
385.600958
 20
205.144207
 30
0.0
  0
VERTEX
  5
864
  8
025
 10
386.346276
 20
203.779431
 30
0.0
  0
VERTEX
  5
865
  8
025
 10
387.072049
 20
202.281661
 30
0.0
  0
VERTEX
  5
866
  8
025
 10
387.760407
 20
200.687779
 30
0.0
  0
VERTEX
  5
867
  8
025
 10
388.394399
 20
199.037031
 30
0.0
  0
VERTEX
  5
868
  8
025
 10
388.958415
 20
197.370064
 30
0.0
  0
VERTEX
  5
869
  8
025
 10
389.438567
 20
195.727924
 30
0.0
  0
VERTEX
  5
86A
  8
025
 10
389.823032
 20
194.151045
 30
0.0
  0
VERTEX
  5
86B
  8
025
 10
390.102342
 20
192.678257
 30
0.0
  0
SEQEND
  5
86C
  8
025
  0
LINE
  5
42C
  8
05
 10
371.332469
 20
205.137617
 30
0.0
 11
381.632254
 21
208.955195
 31
0.0
  0
POLYLINE
  5
42D
  8
05
 66
     1
 10
0.0
 20
0.0
 30
0.0
  0
VERTEX
  5
86D
  8
05
 10
370.752299
 20
204.490627
 30
0.0
  0
VERTEX
  5
86E
  8
05
 10
371.026211
 20
204.931336
 30
0.0
  0
VERTEX
  5
86F
  8
05
 10
371.332469
 20
205.137617
 30
0.0
  0
SEQEND
  5
870
  8
05
  0
LINE
  5
42E
  8
05
 10
370.548685
 20
204.002459
 30
0.0
 11
370.752299
 21
204.490627
 31
0.0
  0
LINE
  5
42F
  8
05
 10
369.149157
 20
203.896428
 30
0.0
 11
370.08166
 21
203.427733
 31
0.0
  0
POLYLINE
  5
430
  8
05
 66
     1
 10
0.0
 20
0.0
 30
0.0
  0
VERTEX
  5
871
  8
05
 10
368.28746
 20
204.008996
 30
0.0
  0
VERTEX
  5
872
  8
05
 10
368.378626
 20
204.036311
 30
0.0
  0
VERTEX
  5
873
  8
05
 10
368.870336
 20
204.008798
 30
0.0
  0
VERTEX
  5
874
  8
05
 10
369.149157
 20
203.896428
 30
0.0
  0
SEQEND
  5
875
  8
05
  0
LINE
  5
431
  8
05
 10
369.62175
 20
203.658893
 30
0.0
 11
370.88997
 21
204.128955
 31
0.0
  0
POLYLINE
  5
432
  8
05
 66
     1
 10
0.0
 20
0.0
 30
0.0
  0
VERTEX
  5
876
  8
05
 10
381.632254
 20
208.955195
 30
0.0
  0
VERTEX
  5
877
  8
05
 10
381.72342
 20
208.98251
 30
0.0
  0
VERTEX
  5
878
  8
05
 10
382.035642
 20
208.994072
 30
0.0
  0
SEQEND
  5
879
  8
05
  0
POLYLINE
  5
433
  8
05
 66
     1
 10
0.0
 20
0.0
 30
0.0
  0
VERTEX
  5
87A
  8
05
 10
386.801644
 20
208.351311
 30
0.0
  0
VERTEX
  5
87B
  8
05
 10
387.106599
 20
208.25957
 30
0.0
  0
VERTEX
  5
87C
  8
05
 10
387.612593
 20
207.932775
 30
0.0
  0
VERTEX
  5
87D
  8
05
 10
388.173011
 20
207.386359
 30
0.0
  0
VERTEX
  5
87E
  8
05
 10
388.772565
 20
206.635227
 30
0.0
  0
VERTEX
  5
87F
  8
05
 10
389.394902
 20
205.699869
 30
0.0
  0
VERTEX
  5
880
  8
05
 10
390.023046
 20
204.605799
 30
0.0
  0
VERTEX
  5
881
  8
05
 10
390.639863
 20
203.382859
 30
0.0
  0
VERTEX
  5
882
  8
05
 10
391.228527
 20
202.064408
 30
0.0
  0
VERTEX
  5
883
  8
05
 10
391.772981
 20
200.686411
 30
0.0
  0
VERTEX
  5
884
  8
05
 10
392.258374
 20
199.286456
 30
0.0
  0
VERTEX
  5
885
  8
05
 10
392.671466
 20
197.902729
 30
0.0
  0
VERTEX
  5
886
  8
05
 10
393.000989
 20
196.572975
 30
0.0
  0
VERTEX
  5
887
  8
05
 10
393.237954
 20
195.333467
 30
0.0
  0
SEQEND
  5
888
  8
05
  0
POLYLINE
  5
434
  8
05
 66
     1
 10
0.0
 20
0.0
 30
0.0
  0
VERTEX
  5
889
  8
05
 10
392.999831
 20
191.628662
 30
0.0
  0
VERTEX
  5
88A
  8
05
 10
393.172015
 20
191.898474
 30
0.0
  0
VERTEX
  5
88B
  8
05
 10
393.342472
 20
192.47677
 30
0.0
  0
VERTEX
  5
88C
  8
05
 10
393.411057
 20
193.257045
 30
0.0
  0
VERTEX
  5
88D
  8
05
 10
393.375898
 20
194.218014
 30
0.0
  0
VERTEX
  5
88E
  8
05
 10
393.237954
 20
195.333467
 30
0.0
  0
SEQEND
  5
88F
  8
05
  0
ENDSEC
  0
EOF
