  0
SECTION
  2
HEADER
  9
$ACADVER
  1
AC1009
  9
$INSBASE
 10
0.0
 20
0.0
 30
0.0
  9
$EXTMIN
 10
192.0
 20
-5.0
 30
0.0
  9
$EXTMAX
 10
412.0
 20
292.0
 30
0.0
  9
$LIMMIN
 10
0.0
 20
0.0
  9
$LIMMAX
 10
410.0
 20
287.0
  9
$ORTHOMODE
 70
     1
  9
$REGENMODE
 70
     1
  9
$FILLMODE
 70
     1
  9
$QTEXTMODE
 70
     0
  9
$MIRRTEXT
 70
     1
  9
$DRAGMODE
 70
     2
  9
$LTSCALE
 40
5.0
  9
$OSMODE
 70
     0
  9
$ATTMODE
 70
     1
  9
$TEXTSIZE
 40
3.5
  9
$TRACEWID
 40
26.0
  9
$TEXTSTYLE
  7
STANDARD
  9
$CLAYER
  8
BEM1
  9
$CELTYPE
  6
BYLAYER
  9
$CECOLOR
 62
   256
  9
$DIMSCALE
 40
1.0
  9
$DIMASZ
 40
3.5
  9
$DIMEXO
 40
0.8
  9
$DIMDLI
 40
8.0
  9
$DIMRND
 40
0.0
  9
$DIMDLE
 40
0.0
  9
$DIMEXE
 40
1.8
  9
$DIMTP
 40
0.0
  9
$DIMTM
 40
0.0
  9
$DIMTXT
 40
3.5
  9
$DIMCEN
 40
1.5
  9
$DIMTSZ
 40
0.0
  9
$DIMTOL
 70
     0
  9
$DIMLIM
 70
     0
  9
$DIMTIH
 70
     0
  9
$DIMTOH
 70
     0
  9
$DIMSE1
 70
     0
  9
$DIMSE2
 70
     0
  9
$DIMTAD
 70
     1
  9
$DIMZIN
 70
     0
  9
$DIMBLK
  1

  9
$DIMASO
 70
     0
  9
$DIMSHO
 70
     0
  9
$DIMPOST
  1

  9
$DIMAPOST
  1
"
  9
$DIMALT
 70
     0
  9
$DIMALTD
 70
     3
  9
$DIMALTF
 40
0.03937
  9
$DIMLFAC
 40
0.5
  9
$DIMTOFL
 70
     0
  9
$DIMTVP
 40
0.0
  9
$DIMTIX
 70
     0
  9
$DIMSOXD
 70
     0
  9
$DIMSAH
 70
     0
  9
$DIMBLK1
  1

  9
$DIMBLK2
  1

  9
$DIMSTYLE
  2
STANDARD
  9
$DIMCLRD
 70
     0
  9
$DIMCLRE
 70
     0
  9
$DIMCLRT
 70
     0
  9
$DIMTFAC
 40
1.0
  9
$DIMGAP
 40
0.09
  9
$LUNITS
 70
     2
  9
$LUPREC
 70
     2
  9
$SKETCHINC
 40
1.0
  9
$FILLETRAD
 40
0.0
  9
$AUNITS
 70
     0
  9
$AUPREC
 70
     0
  9
$MENU
  1
acad
  9
$ELEVATION
 40
0.0
  9
$PELEVATION
 40
0.0
  9
$THICKNESS
 40
0.0
  9
$LIMCHECK
 70
     0
  9
$BLIPMODE
 70
     0
  9
$CHAMFERA
 40
0.0
  9
$CHAMFERB
 40
0.0
  9
$SKPOLY
 70
     0
  9
$TDCREATE
 40
2449552.534298
  9
$TDUPDATE
 40
2451751.450045
  9
$TDINDWG
 40
0.455391
  9
$TDUSRTIMER
 40
0.455391
  9
$USRTIMER
 70
     1
  9
$ANGBASE
 50
0.0
  9
$ANGDIR
 70
     0
  9
$PDMODE
 70
     0
  9
$PDSIZE
 40
0.0
  9
$PLINEWID
 40
0.0
  9
$COORDS
 70
     2
  9
$SPLFRAME
 70
     0
  9
$SPLINETYPE
 70
     6
  9
$SPLINESEGS
 70
     8
  9
$ATTDIA
 70
     1
  9
$ATTREQ
 70
     1
  9
$HANDLING
 70
     1
  9
$HANDSEED
  5
8A8
  9
$SURFTAB1
 70
     6
  9
$SURFTAB2
 70
     6
  9
$SURFTYPE
 70
     6
  9
$SURFU
 70
     6
  9
$SURFV
 70
     6
  9
$UCSNAME
  2

  9
$UCSORG
 10
0.0
 20
0.0
 30
0.0
  9
$UCSXDIR
 10
1.0
 20
0.0
 30
0.0
  9
$UCSYDIR
 10
0.0
 20
1.0
 30
0.0
  9
$PUCSNAME
  2

  9
$PUCSORG
 10
0.0
 20
0.0
 30
0.0
  9
$PUCSXDIR
 10
1.0
 20
0.0
 30
0.0
  9
$PUCSYDIR
 10
0.0
 20
1.0
 30
0.0
  9
$USERI1
 70
     0
  9
$USERI2
 70
     0
  9
$USERI3
 70
     0
  9
$USERI4
 70
     0
  9
$USERI5
 70
     0
  9
$USERR1
 40
0.0
  9
$USERR2
 40
0.0
  9
$USERR3
 40
0.0
  9
$USERR4
 40
0.0
  9
$USERR5
 40
0.0
  9
$WORLDVIEW
 70
     1
  9
$SHADEDGE
 70
     3
  9
$SHADEDIF
 70
    70
  9
$TILEMODE
 70
     1
  9
$MAXACTVP
 70
    16
  9
$PLIMCHECK
 70
     0
  9
$PEXTMIN
 10
1.000000E+020
 20
1.000000E+020
 30
1.000000E+020
  9
$PEXTMAX
 10
-1.000000E+020
 20
-1.000000E+020
 30
-1.000000E+020
  9
$PLIMMIN
 10
0.0
 20
0.0
  9
$PLIMMAX
 10
12.0
 20
9.0
  9
$UNITMODE
 70
     0
  9
$VISRETAIN
 70
     0
  9
$PLINEGEN
 70
     0
  9
$PSLTSCALE
 70
     0
  0
ENDSEC
  0
SECTION
  2
TABLES
  0
TABLE
  2
VPORT
 70
     2
  0
VPORT
  2
*ACTIVE
 70
     0
 10
0.0
 20
0.0
 11
1.0
 21
1.0
 12
302.000912
 22
148.368658
 13
0.0
 23
0.0
 14
1.0
 24
1.0
 15
2.0
 25
2.0
 16
0.0
 26
0.0
 36
1.0
 17
0.0
 27
0.0
 37
0.0
 40
309.518401
 41
1.525
 42
50.0
 43
0.0
 44
0.0
 50
0.0
 51
0.0
 71
     0
 72
   500
 73
     1
 74
     0
 75
     0
 76
     0
 77
     0
 78
     0
  0
ENDTAB
  0
TABLE
  2
LTYPE
 70
     1
  0
LTYPE
  2
AUSGEZOGEN
 70
     0
  3
Ausgezogene Linie
 72
    65
 73
     0
 40
0.0
  0
ENDTAB
  0
TABLE
  2
LAYER
 70
     6
  0
LAYER
  2
0
 70
     0
 62
     8
  6
AUSGEZOGEN
  0
LAYER
  2
05
 70
     0
 62
     2
  6
AUSGEZOGEN
  0
LAYER
  2
BEM1
 70
     0
 62
     4
  6
AUSGEZOGEN
  0
LAYER
  2
035
 70
     0
 62
     3
  6
AUSGEZOGEN
  0
LAYER
  2
025
 70
     0
 62
     4
  6
AUSGEZOGEN
  0
LAYER
  2
RAHMEN
 70
     0
 62
     2
  6
AUSGEZOGEN
  0
ENDTAB
  0
TABLE
  2
STYLE
 70
     3
  0
STYLE
  2
STANDARD
 70
     0
 40
0.0
 41
0.7
 50
15.0
 71
     0
 42
3.5
  3
txt
  4

  0
STYLE
  2
UNIV
 70
     0
 40
0.0
 41
1.0
 50
0.0
 71
     0
 42
2.5
  3
univ
  4

  0
STYLE
  2
SCRIPTS
 70
     0
 40
0.0
 41
1.0
 50
0.0
 71
     0
 42
5.0
  3
scripts
  4

  0
ENDTAB
  0
TABLE
  2
VIEW
 70
     0
  0
ENDTAB
  0
TABLE
  2
UCS
 70
     0
  0
ENDTAB
  0
TABLE
  2
APPID
 70
     1
  0
APPID
  2
ACAD
 70
     0
  0
ENDTAB
  0
TABLE
  2
DIMSTYLE
 70
     1
  0
DIMSTYLE
  2
STANDARD
 70
     0
  3

  4

  5

  6

  7

 40
1.0
 41
0.18
 42
0.0625
 43
0.38
 44
0.18
 45
0.0
 46
0.0
 47
0.0
 48
0.0
140
0.18
141
0.09
142
0.0
143
25.4
144
1.0
145
0.0
146
1.0
147
0.09
 71
     0
 72
     0
 73
     1
 74
     1
 75
     0
 76
     0
 77
     0
 78
     0
170
     0
171
     2
172
     0
173
     0
174
     0
175
     0
176
     0
177
     0
178
     0
  0
ENDTAB
  0
ENDSEC
  0
SECTION
  2
BLOCKS
  0
BLOCK
  8
0
  2
$MODEL_SPACE
 70
     0
 10
0.0
 20
0.0
 30
0.0
  3
$MODEL_SPACE
  1

  0
ENDBLK
  5
6
  8
0
  0
BLOCK
 67
     1
  8
0
  2
$PAPER_SPACE
 70
     0
 10
0.0
 20
0.0
 30
0.0
  3
$PAPER_SPACE
  1

  0
ENDBLK
  5
9
 67
     1
  8
0
  0
BLOCK
  8
0
  2
ZKOPF
 70
     2
 10
0.0
 20
0.0
 30
0.0
  3
ZKOPF
  1

  0
ATTDEF
  5
50
  8
0
 62
     4
 10
-13.321429
 20
37.0
 30
0.0
 40
2.5
  1
Dobler
  7
SCRIPTS
 72
     1
 11
-8.5
 21
37.0
 31
0.0
  3
Name des Konstrukteurs ?
  2
NAME
 70
     0
  0
POLYLINE
  5
51
  8
0
 62
     2
 66
     1
 10
0.0
 20
0.0
 30
0.0
  0
VERTEX
  5
43E
  8
0
 62
     2
 10
-51.0
 20
0.0
 30
0.0
  0
VERTEX
  5
43F
  8
0
 62
     2
 10
-51.0
 20
46.0
 30
0.0
  0
SEQEND
  5
440
  8
0
 62
     2
  0
POLYLINE
  5
52
  8
0
 62
     2
 66
     1
 10
0.0
 20
0.0
 30
0.0
  0
VERTEX
  5
441
  8
0
 62
     2
 10
-17.0
 20
9.0
 30
0.0
  0
VERTEX
  5
442
  8
0
 62
     2
 10
-17.0
 20
46.0
 30
0.0
  0
SEQEND
  5
443
  8
0
 62
     2
  0
POLYLINE
  5
53
  8
0
 62
     2
 66
     1
 10
0.0
 20
0.0
 30
0.0
  0
VERTEX
  5
444
  8
0
 62
     2
 10
-32.0
 20
26.0
 30
0.0
  0
VERTEX
  5
445
  8
0
 62
     2
 10
-32.0
 20
46.0
 30
0.0
  0
SEQEND
  5
446
  8
0
 62
     2
  0
POLYLINE
  5
54
  8
0
 62
     2
 66
     1
 10
0.0
 20
0.0
 30
0.0
  0
VERTEX
  5
447
  8
0
 62
     2
 10
-133.0
 20
41.0
 30
0.0
  0
VERTEX
  5
448
  8
0
 62
     2
 10
-92.0
 20
41.0
 30
0.0
  0
SEQEND
  5
449
  8
0
 62
     2
  0
POLYLINE
  5
55
  8
0
 62
     2
 66
     1
 10
0.0
 20
0.0
 30
0.0
  0
VERTEX
  5
44A
  8
0
 62
     2
 10
-145.0
 20
0.0
 30
0.0
  0
VERTEX
  5
44B
  8
0
 62
     2
 10
-145.0
 20
46.0
 30
0.0
  0
SEQEND
  5
44C
  8
0
 62
     2
  0
POLYLINE
  5
56
  8
0
 62
     2
 66
     1
 10
0.0
 20
0.0
 30
0.0
  0
VERTEX
  5
44D
  8
0
 62
     2
 10
-158.0
 20
0.0
 30
0.0
  0
VERTEX
  5
44E
  8
0
 62
     2
 10
-158.0
 20
46.0
 30
0.0
  0
SEQEND
  5
44F
  8
0
 62
     2
  0
LINE
  5
57
  8
0
 62
     2
 10
-200.0
 20
6.0
 30
0.0
 11
-133.0
 21
6.0
 31
0.0
  0
POLYLINE
  5
58
  8
0
 62
     4
 66
     1
 10
0.0
 20
0.0
 30
0.0
  0
VERTEX
  5
450
  8
0
 62
     4
 10
-200.0
 20
11.0
 30
0.0
  0
VERTEX
  5
451
  8
0
 62
     4
 10
-133.0
 20
11.0
 30
0.0
  0
SEQEND
  5
452
  8
0
 62
     4
  0
POLYLINE
  5
59
  8
0
 62
     4
 66
     1
 10
0.0
 20
0.0
 30
0.0
  0
VERTEX
  5
453
  8
0
 62
     4
 10
-200.0
 20
16.0
 30
0.0
  0
VERTEX
  5
454
  8
0
 62
     4
 10
-133.0
 20
16.0
 30
0.0
  0
SEQEND
  5
455
  8
0
 62
     4
  0
POLYLINE
  5
5A
  8
0
 62
     4
 66
     1
 10
0.0
 20
0.0
 30
0.0
  0
VERTEX
  5
456
  8
0
 62
     4
 10
-200.0
 20
21.0
 30
0.0
  0
VERTEX
  5
457
  8
0
 62
     4
 10
-133.0
 20
21.0
 30
0.0
  0
SEQEND
  5
458
  8
0
 62
     4
  0
POLYLINE
  5
5B
  8
0
 62
     4
 66
     1
 10
0.0
 20
0.0
 30
0.0
  0
VERTEX
  5
459
  8
0
 62
     4
 10
-200.0
 20
26.0
 30
0.0
  0
VERTEX
  5
45A
  8
0
 62
     4
 10
-133.0
 20
26.0
 30
0.0
  0
SEQEND
  5
45B
  8
0
 62
     4
  0
POLYLINE
  5
5C
  8
0
 62
     4
 66
     1
 10
0.0
 20
0.0
 30
0.0
  0
VERTEX
  5
45C
  8
0
 62
     4
 10
-200.0
 20
31.0
 30
0.0
  0
VERTEX
  5
45D
  8
0
 62
     4
 10
-133.0
 20
31.0
 30
0.0
  0
SEQEND
  5
45E
  8
0
 62
     4
  0
POLYLINE
  5
5D
  8
0
 62
     4
 66
     1
 10
0.0
 20
0.0
 30
0.0
  0
VERTEX
  5
45F
  8
0
 62
     4
 10
-200.0
 20
36.0
 30
0.0
  0
VERTEX
  5
460
  8
0
 62
     4
 10
-133.0
 20
36.0
 30
0.0
  0
SEQEND
  5
461
  8
0
 62
     4
  0
POLYLINE
  5
5E
  8
0
 62
     4
 66
     1
 10
0.0
 20
0.0
 30
0.0
  0
VERTEX
  5
462
  8
0
 62
     4
 10
-200.0
 20
41.0
 30
0.0
  0
VERTEX
  5
463
  8
0
 62
     4
 10
-133.0
 20
41.0
 30
0.0
  0
SEQEND
  5
464
  8
0
 62
     4
  0
TEXT
  5
5F
  8
0
 62
     4
 10
-50.0
 20
6.0
 30
0.0
 40
1.5
  1
Zeichn. Nr.
 51
15.0
  0
TEXT
  5
60
  8
0
 62
     4
 10
-50.0
 20
23.0
 30
0.0
 40
1.5
  1
Ersetzt durch:         Blatt
 51
15.0
  0
TEXT
  5
61
  8
0
 62
     4
 10
-50.0
 20
38.0
 30
0.0
 40
1.5
  1
Gezeichnet
 51
15.0
  0
TEXT
  5
62
  8
0
 62
     4
 10
-50.0
 20
27.0
 30
0.0
 40
1.5
  1
Gesehen
 51
15.0
  0
TEXT
  5
63
  8
0
 62
     4
 10
-31.0
 20
42.0
 30
0.0
 40
1.5
  1
Datum     Name
 51
15.0
  0
TEXT
  5
64
  8
0
 62
     4
 10
-91.0
 20
42.0
 30
0.0
 40
1.5
  1
Werkstoff:      Massstab:
 51
15.0
  0
TEXT
  5
65
  8
0
 62
     4
 10
-132.0
 20
23.0
 30
0.0
 40
1.5
  1
Benennung:
 51
15.0
  0
LINE
  5
66
  8
0
 62
     2
 10
-133.0
 20
33.0
 30
0.0
 11
-92.0
 21
33.0
 31
0.0
  0
TEXT
  5
67
  8
0
 62
     4
 10
-132.0
 20
39.0
 30
0.0
 40
1.5
  1
*)Lieferant darf ohne 
 51
15.0
  0
TEXT
  5
68
  8
0
 62
     4
 10
-132.0
 20
36.5
 30
0.0
 40
1.5
  1
 Ruecksprache nicht 
 51
15.0
  0
TEXT
  5
69
  8
0
 62
     4
 10
-132.0
 20
34.0
 30
0.0
 40
1.5
  1
 geaendert werden
 51
15.0
  0
TEXT
  5
6A
  8
0
 62
     4
 10
-132.0
 20
30.0
 30
0.0
 40
1.5
  1
Zeichnung urheberrechtlich
 51
15.0
  0
TEXT
  5
6B
  8
0
 62
     4
 10
-132.0
 20
27.5
 30
0.0
 40
1.5
  1
geschuetzt (DIN 34) (C)
 51
15.0
  0
TEXT
  5
6C
  8
0
 62
     4
 10
-50.0
 20
32.0
 30
0.0
 40
1.5
  1
Geprueft
 51
15.0
  0
TEXT
  5
6D
  8
0
 62
     4
 10
-50.0
 20
15.0
 30
0.0
 40
1.5
  1
Ersatz fuer:           von  Blatt
 51
15.0
  0
TEXT
  5
6E
  8
0
 62
     4
 10
-197.0
 20
1.0
 30
0.0
 40
1.5
  1
Ind.  Aenderung             Datum    Name
 51
15.0
  0
TEXT
  5
6F
  8
0
 62
     4
 10
-128.0
 20
3.0
 30
0.0
 40
3.005964
  1
NEUTRIK AG, FL-9494 SCHAAN
  7
UNIV
 72
     3
 11
-56.0
 21
3.0
 31
0.0
  0
ATTDEF
  5
71
  8
0
 62
     4
 10
-28.875
 20
37.0
 30
0.0
 40
2.5
  1
01.10.91
 41
0.7
 51
15.0
 72
     1
 11
-24.5
 21
37.0
 31
0.0
  3
Datum der Zeichnung ?
  2
DATE
 70
     0
  0
ATTDEF
  5
72
  8
0
 62
     4
 10
-80.5
 20
36.0
 30
0.0
 40
2.5
  1

 41
0.7
 51
15.0
 72
     1
 11
-80.5
 21
36.0
 31
0.0
  3
Aus welchem Werkstoff ?
  2
WERKSTOFF
 70
     0
  0
ATTDEF
  5
73
  8
0
 62
     2
 10
-92.0
 20
12.5
 30
0.0
 40
5.0
  1

 41
0.7
 51
15.0
 72
     1
 11
-92.0
 21
12.5
 31
0.0
  3
Zeichnungsname ?
  2
BENENNUNG
 70
     0
  0
ATTDEF
  5
74
  8
0
 62
     3
 10
-93.225
 20
21.0
 30
0.0
 40
3.5
  1
()
 41
0.7
 51
15.0
 72
     1
 11
-92.0
 21
21.0
 31
0.0
  3
Zu welchem Produkt ?
  2
TEIL
 70
     0
  0
ATTDEF
  5
75
  8
0
 62
     3
 10
-25.5
 20
2.0
 30
0.0
 40
3.5
  1

 41
0.7
 51
15.0
 72
     1
 11
-25.5
 21
2.0
 31
0.0
  3
Zeichnungsnummer ?
  2
NUMMER
 70
     0
  0
ATTDEF
  5
76
  8
0
 62
     2
 10
-63.860366
 20
34.930682
 30
0.0
 40
5.0
  1
5:1
 41
0.7
 51
15.0
 72
     1
 11
-60.943699
 21
34.930682
 31
0.0
  3
Hauptmassstab:
  2
MASS
 70
     0
  0
ATTDEF
  5
77
  8
0
 62
     3
 10
-60.0
 20
29.0
 30
0.0
 40
3.5
  1

 41
0.7
 51
15.0
 72
     1
 11
-60.0
 21
29.0
 31
0.0
  3
Nebenmassstab:
  2
MASS2
 70
     0
  0
ATTDEF
  5
78
  8
0
 62
     4
 10
-81.0
 20
29.0
 30
0.0
 40
2.5
  1

 41
0.7
 51
15.0
 72
     1
 11
-81.0
 21
29.0
 31
0.0
  3
Werkstoffzusatz:
  2
TEIL
 70
     0
  0
ATTDEF
  5
79
  8
0
 62
     3
 10
-99.549591
 20
59.004319
 30
0.0
 40
3.5
  1
Freimasstoleranzen %%p0.1
 41
0.7
 51
15.0
  3
Freimasstoleranzen:
  2
TOL
 70
     0
  0
ATTDEF
  5
7A
  8
0
 62
     3
 10
-99.549591
 20
54.004319
 30
0.0
 40
3.5
  1
nicht bemasste Radien R=0.2
 41
0.7
 51
15.0
  3
Nicht bemasste Radien:
  2
RADIEN
 70
     0
  0
ATTDEF
  5
7B
  8
0
 62
     3
 10
-99.549591
 20
49.004319
 30
0.0
 40
3.5
  1
nicht bemasste Facetten 0.5 x 45%%D
 41
0.7
 51
15.0
  3
nicht bemasste Facetten:
  2
FACETTE
 70
     0
  0
POLYLINE
  5
7C
  8
0
 62
     2
 66
     1
 10
0.0
 20
0.0
 30
0.0
  0
VERTEX
  5
465
  8
0
 62
     2
 10
-191.0
 20
0.0
 30
0.0
  0
VERTEX
  5
466
  8
0
 62
     2
 10
-191.0
 20
46.0
 30
0.0
  0
SEQEND
  5
467
  8
0
 62
     2
  0
POLYLINE
  5
7D
  8
0
 62
     2
 66
     1
 10
0.0
 20
0.0
 30
0.0
  0
VERTEX
  5
468
  8
0
 62
     2
 10
-133.0
 20
0.0
 30
0.0
  0
VERTEX
  5
469
  8
0
 62
     2
 10
-133.0
 20
46.0
 30
0.0
  0
SEQEND
  5
46A
  8
0
 62
     2
  0
POLYLINE
  5
7E
  8
0
 62
     2
 66
     1
 10
0.0
 20
0.0
 30
0.0
  0
VERTEX
  5
46B
  8
0
 62
     2
 10
-92.0
 20
26.0
 30
0.0
  0
VERTEX
  5
46C
  8
0
 62
     2
 10
-92.0
 20
46.0
 30
0.0
  0
SEQEND
  5
46D
  8
0
 62
     2
  0
POLYLINE
  5
7F
  8
0
 62
     2
 66
     1
 10
0.0
 20
0.0
 30
0.0
  0
VERTEX
  5
46E
  8
0
 62
     2
 10
-69.0
 20
26.0
 30
0.0
  0
VERTEX
  5
46F
  8
0
 62
     2
 10
-69.0
 20
46.0
 30
0.0
  0
SEQEND
  5
470
  8
0
 62
     2
  0
ATTDEF
  5
80
  8
0
 62
     4
 10
-197.186267
 20
7.0
 30
0.0
 40
2.5
  1

 41
0.7
 51
15.0
  3
Index1:
  2
INDEX1
 70
     0
  0
ATTDEF
  5
81
  8
0
 62
     4
 10
-190.348743
 20
7.0
 30
0.0
 40
2.5
  1

 41
0.7
 51
15.0
  3
Aenderung1:
  2
A1
 70
     0
  0
ATTDEF
  5
82
  8
0
 62
     4
 10
-157.348743
 20
7.0
 30
0.0
 40
2.5
  1

 41
0.7
 51
15.0
  3
Datum1:
  2
DATUM1
 70
     0
  0
ATTDEF
  5
83
  8
0
 62
     4
 10
-144.46499
 20
7.0
 30
0.0
 40
2.5
  1

 41
0.7
 51
15.0
  3
Name1:
  2
NAME1
 70
     0
  0
ATTDEF
  5
84
  8
0
 62
     4
 10
-197.186267
 20
12.0
 30
0.0
 40
2.5
  1

 41
0.7
 51
15.0
  3
Index2:
  2
INDEX2
 70
     0
  0
ATTDEF
  5
85
  8
0
 62
     4
 10
-190.348743
 20
12.0
 30
0.0
 40
2.5
  1

 41
0.7
 51
15.0
  3
Aenderung2:
  2
A2
 70
     0
  0
ATTDEF
  5
86
  8
0
 62
     4
 10
-157.348743
 20
12.0
 30
0.0
 40
2.5
  1

 41
0.7
 51
15.0
  3
Datum2:
  2
DATUM2
 70
     0
  0
ATTDEF
  5
87
  8
0
 62
     4
 10
-144.46499
 20
12.0
 30
0.0
 40
2.5
  1

 41
0.7
 51
15.0
  3
Name2
  2
NAME2
 70
     0
  0
ATTDEF
  5
88
  8
0
 62
     4
 10
-197.186267
 20
17.0
 30
0.0
 40
2.5
  1

 41
0.7
 51
15.0
  3
Index3:
  2
INDEX3
 70
     0
  0
ATTDEF
  5
89
  8
0
 62
     4
 10
-190.348743
 20
17.0
 30
0.0
 40
2.5
  1

 41
0.7
 51
15.0
  3
Aenderung3
  2
A3
 70
     0
  0
ATTDEF
  5
8A
  8
0
 62
     4
 10
-157.348743
 20
17.0
 30
0.0
 40
2.5
  1

 41
0.7
 51
15.0
  3
Datum3:
  2
DATUM3
 70
     0
  0
ATTDEF
  5
8B
  8
0
 62
     4
 10
-144.46499
 20
17.0
 30
0.0
 40
2.5
  1

 41
0.7
 51
15.0
  3
Name3:
  2
NAME3
 70
     0
  0
ATTDEF
  5
8C
  8
0
 62
     4
 10
-197.186267
 20
22.0
 30
0.0
 40
2.5
  1

 41
0.7
 51
15.0
  3
Index4:
  2
INDEX4
 70
     0
  0
ATTDEF
  5
8D
  8
0
 62
     4
 10
-190.348743
 20
22.0
 30
0.0
 40
2.5
  1

 41
0.7
 51
15.0
  3
Aenderung4:
  2
A4
 70
     0
  0
ATTDEF
  5
8E
  8
0
 62
     4
 10
-157.348743
 20
22.0
 30
0.0
 40
2.5
  1

 41
0.7
 51
15.0
  3
Datum4:
  2
DATUM4
 70
     0
  0
ATTDEF
  5
8F
  8
0
 62
     4
 10
-144.46499
 20
22.0
 30
0.0
 40
2.5
  1

 41
0.7
 51
15.0
  3
Name4:
  2
NAME4
 70
     0
  0
ATTDEF
  5
90
  8
0
 62
     4
 10
-197.186267
 20
27.0
 30
0.0
 40
2.5
  1

 41
0.7
 51
15.0
  3
Index5:
  2
INDEX5
 70
     0
  0
ATTDEF
  5
91
  8
0
 62
     4
 10
-190.348743
 20
27.0
 30
0.0
 40
2.5
  1

 41
0.7
 51
15.0
  3
Aenderung5:
  2
A5
 70
     0
  0
ATTDEF
  5
92
  8
0
 62
     4
 10
-157.348743
 20
27.0
 30
0.0
 40
2.5
  1

 41
0.7
 51
15.0
  3
Datum5:
  2
DATUM5
 70
     0
  0
ATTDEF
  5
93
  8
0
 62
     4
 10
-144.46499
 20
27.0
 30
0.0
 40
2.5
  1

 41
0.7
 51
15.0
  3
Name5
  2
NAME5
 70
     0
  0
ATTDEF
  5
94
  8
0
 62
     4
 10
-197.186267
 20
32.0
 30
0.0
 40
2.5
  1

 41
0.7
 51
15.0
  3
Index6:
  2
INDEX6
 70
     0
  0
ATTDEF
  5
95
  8
0
 62
     4
 10
-190.348743
 20
32.0
 30
0.0
 40
2.5
  1

 41
0.7
 51
15.0
  3
Aenderung6:
  2
A6
 70
     0
  0
ATTDEF
  5
96
  8
0
 62
     4
 10
-157.348743
 20
32.0
 30
0.0
 40
2.5
  1

 41
0.7
 51
15.0
  3
Datum6:
  2
DATUM6
 70
     0
  0
ATTDEF
  5
97
  8
0
 62
     4
 10
-144.46499
 20
32.0
 30
0.0
 40
2.5
  1

 41
0.7
 51
15.0
  3
Name6:
  2
NAME6
 70
     0
  0
ATTDEF
  5
98
  8
0
 62
     4
 10
-197.186267
 20
37.0
 30
0.0
 40
2.5
  1

 41
0.7
 51
15.0
  3
Index7:
  2
INDEX7
 70
     0
  0
ATTDEF
  5
99
  8
0
 62
     4
 10
-190.348743
 20
37.0
 30
0.0
 40
2.5
  1

 41
0.7
 51
15.0
  3
Aenderung7:
  2
A7
 70
     0
  0
ATTDEF
  5
9A
  8
0
 62
     4
 10
-157.348743
 20
37.0
 30
0.0
 40
2.5
  1

 41
0.7
 51
15.0
  3
Datum7:
  2
DATUM7
 70
     0
  0
ATTDEF
  5
9B
  8
0
 62
     4
 10
-144.46499
 20
37.0
 30
0.0
 40
2.5
  1

 41
0.7
 51
15.0
  3
Name7:
  2
NAME7
 70
     0
  0
ATTDEF
  5
9C
  8
0
 62
     4
 10
-197.186267
 20
42.0
 30
0.0
 40
2.5
  1

 41
0.7
 51
15.0
  3
Index8:
  2
INDEX8
 70
     0
  0
ATTDEF
  5
9D
  8
0
 62
     4
 10
-190.348743
 20
42.0
 30
0.0
 40
2.5
  1

 41
0.7
 51
15.0
  3
Aenderung8:
  2
A8
 70
     0
  0
ATTDEF
  5
9E
  8
0
 62
     4
 10
-157.348743
 20
42.0
 30
0.0
 40
2.5
  1

 41
0.7
 51
15.0
  3
Datum8:
  2
DATUM8
 70
     0
  0
ATTDEF
  5
9F
  8
0
 62
     4
 10
-144.46499
 20
42.0
 30
0.0
 40
2.5
  1

 41
0.7
 51
15.0
  3
Name8:
  2
NAME8
 70
     0
  0
POLYLINE
  5
A0
  8
0
 62
     2
 66
     1
 10
0.0
 20
0.0
 30
0.0
  0
VERTEX
  5
471
  8
0
 62
     2
 10
0.0
 20
0.0
 30
0.0
  0
VERTEX
  5
472
  8
0
 62
     2
 10
0.0
 20
46.0
 30
0.0
  0
SEQEND
  5
473
  8
0
 62
     2
  0
POLYLINE
  5
A1
  8
0
 62
     2
 66
     1
 10
0.0
 20
0.0
 30
0.0
  0
VERTEX
  5
474
  8
0
 62
     2
 10
-200.0
 20
46.0
 30
0.0
  0
VERTEX
  5
475
  8
0
 62
     2
 10
-200.0
 20
0.0
 30
0.0
  0
SEQEND
  5
476
  8
0
 62
     2
  0
POLYLINE
  5
A2
  8
0
 62
     2
 66
     1
 10
0.0
 20
0.0
 30
0.0
  0
VERTEX
  5
477
  8
0
 62
     2
 10
0.0
 20
9.0
 30
0.0
  0
VERTEX
  5
478
  8
0
 62
     2
 10
-133.0
 20
9.0
 30
0.0
  0
SEQEND
  5
479
  8
0
 62
     2
  0
POLYLINE
  5
A3
  8
0
 62
     2
 66
     1
 10
0.0
 20
0.0
 30
0.0
  0
VERTEX
  5
47A
  8
0
 62
     2
 10
0.0
 20
18.0
 30
0.0
  0
VERTEX
  5
47B
  8
0
 62
     2
 10
-51.0
 20
18.0
 30
0.0
  0
SEQEND
  5
47C
  8
0
 62
     2
  0
POLYLINE
  5
A4
  8
0
 62
     2
 66
     1
 10
0.0
 20
0.0
 30
0.0
  0
VERTEX
  5
47D
  8
0
 62
     2
 10
0.0
 20
26.0
 30
0.0
  0
VERTEX
  5
47E
  8
0
 62
     2
 10
-133.0
 20
26.0
 30
0.0
  0
SEQEND
  5
47F
  8
0
 62
     2
  0
POLYLINE
  5
A5
  8
0
 62
     2
 66
     1
 10
0.0
 20
0.0
 30
0.0
  0
VERTEX
  5
480
  8
0
 62
     2
 10
0.0
 20
31.0
 30
0.0
  0
VERTEX
  5
481
  8
0
 62
     2
 10
-51.0
 20
31.0
 30
0.0
  0
SEQEND
  5
482
  8
0
 62
     2
  0
POLYLINE
  5
A6
  8
0
 62
     2
 66
     1
 10
0.0
 20
0.0
 30
0.0
  0
VERTEX
  5
483
  8
0
 62
     2
 10
0.0
 20
36.0
 30
0.0
  0
VERTEX
  5
484
  8
0
 62
     2
 10
-51.0
 20
36.0
 30
0.0
  0
SEQEND
  5
485
  8
0
 62
     2
  0
POLYLINE
  5
A7
  8
0
 62
     2
 66
     1
 10
0.0
 20
0.0
 30
0.0
  0
VERTEX
  5
486
  8
0
 62
     2
 10
0.0
 20
41.0
 30
0.0
  0
VERTEX
  5
487
  8
0
 62
     2
 10
-51.0
 20
41.0
 30
0.0
  0
SEQEND
  5
488
  8
0
 62
     2
  0
POLYLINE
  5
A8
  8
0
 62
     2
 66
     1
 10
0.0
 20
0.0
 30
0.0
  0
VERTEX
  5
489
  8
0
 62
     2
 10
0.0
 20
46.0
 30
0.0
  0
VERTEX
  5
48A
  8
0
 62
     2
 10
-200.0
 20
46.0
 30
0.0
  0
SEQEND
  5
48B
  8
0
 62
     2
  0
ENDBLK
  5
AA
  8
0
  0
ENDSEC
  0
SECTION
  2
ENTITIES
  0
POLYLINE
  5
1E
  8
RAHMEN
 66
     1
 10
0.0
 20
0.0
 30
0.0
 70
     1
  0
VERTEX
  5
439
  8
RAHMEN
 10
202.0
 20
5.0
 30
0.0
  0
VERTEX
  5
43A
  8
RAHMEN
 10
402.0
 20
5.0
 30
0.0
  0
VERTEX
  5
43B
  8
RAHMEN
 10
402.0
 20
282.0
 30
0.0
  0
VERTEX
  5
43C
  8
RAHMEN
 10
202.0
 20
282.0
 30
0.0
  0
SEQEND
  5
43D
  8
RAHMEN
  0
INSERT
  5
20
  8
05
 66
     1
  2
ZKOPF
 10
402.0
 20
5.0
 30
0.0
  0
ATTRIB
  5
21
  8
0
 62
     4
 10
386.833333
 20
42.0
 30
0.0
 40
2.5
  1
Battlogg
  7
SCRIPTS
 72
     1
 11
393.5
 21
42.0
 31
0.0
  2
NAME
 70
     0
  0
ATTRIB
  5
23
  8
0
 62
     4
 10
373.125
 20
42.0
 30
0.0
 40
2.5
  1
25.7.00
 41
0.7
 51
15.0
 72
     1
 11
377.5
 21
42.0
 31
0.0
  2
DATE
 70
     0
  0
ATTRIB
  5
24
  8
0
 62
     4
 10
321.5
 20
41.0
 30
0.0
 40
2.5
  1

 41
0.7
 51
15.0
 72
     1
 11
321.5
 21
41.0
 31
0.0
  2
WERKSTOFF
 70
     0
  0
ATTRIB
  5
25
  8
0
 62
     2
 10
295.416667
 20
17.5
 30
0.0
 40
5.0
  1
DIE-BNC-Y
 41
0.7
 51
15.0
 72
     1
 11
310.0
 21
17.5
 31
0.0
  2
BENENNUNG
 70
     0
  0
ATTRIB
  5
26
  8
0
 62
     3
 10
306.733333
 20
26.0
 30
0.0
 40
3.5
  1
BNC
 41
0.7
 51
15.0
 72
     1
 11
310.0
 21
26.0
 31
0.0
  2
TEIL
 70
     0
  0
ATTRIB
  5
27
  8
0
 62
     3
 10
376.5
 20
7.0
 30
0.0
 40
3.5
  1

 41
0.7
 51
15.0
 72
     1
 11
376.5
 21
7.0
 31
0.0
  2
NUMMER
 70
     0
  0
ATTRIB
  5
28
  8
0
 62
     2
 10
341.056301
 20
39.930682
 30
0.0
 40
5.0
  1

 41
0.7
 51
15.0
 72
     1
 11
341.056301
 21
39.930682
 31
0.0
  2
MASS
 70
     0
  0
ATTRIB
  5
29
  8
0
 62
     3
 10
342.0
 20
34.0
 30
0.0
 40
3.5
  1

 41
0.7
 51
15.0
 72
     1
 11
342.0
 21
34.0
 31
0.0
  2
MASS2
 70
     0
  0
ATTRIB
  5
2A
  8
0
 62
     4
 10
321.0
 20
34.0
 30
0.0
 40
2.5
  1

 41
0.7
 51
15.0
 72
     1
 11
321.0
 21
34.0
 31
0.0
  2
TEIL
 70
     0
  0
ATTRIB
  5
2B
  8
0
 62
     3
 10
302.450409
 20
64.004319
 30
0.0
 40
3.5
  1
 
 41
0.7
 51
15.0
  2
TOL
 70
     0
  0
ATTRIB
  5
2C
  8
0
 62
     3
 10
302.450409
 20
59.004319
 30
0.0
 40
3.5
  1

 41
0.7
 51
15.0
  2
RADIEN
 70
     0
  0
ATTRIB
  5
2D
  8
0
 62
     3
 10
302.450409
 20
54.004319
 30
0.0
 40
3.5
  1

 41
0.7
 51
15.0
  2
FACETTE
 70
     0
  0
ATTRIB
  5
2E
  8
0
 62
     4
 10
204.813733
 20
12.0
 30
0.0
 40
2.5
  1

 41
0.7
 51
15.0
  2
INDEX1
 70
     0
  0
ATTRIB
  5
2F
  8
0
 62
     4
 10
211.651257
 20
12.0
 30
0.0
 40
2.5
  1

 41
0.7
 51
15.0
  2
A1
 70
     0
  0
ATTRIB
  5
30
  8
0
 62
     4
 10
244.651257
 20
12.0
 30
0.0
 40
2.5
  1

 41
0.7
 51
15.0
  2
DATUM1
 70
     0
  0
ATTRIB
  5
31
  8
0
 62
     4
 10
257.53501
 20
12.0
 30
0.0
 40
2.5
  1

 41
0.7
 51
15.0
  2
NAME1
 70
     0
  0
ATTRIB
  5
32
  8
0
 62
     4
 10
204.813733
 20
17.0
 30
0.0
 40
2.5
  1

 41
0.7
 51
15.0
  2
INDEX2
 70
     0
  0
ATTRIB
  5
33
  8
0
 62
     4
 10
211.651257
 20
17.0
 30
0.0
 40
2.5
  1

 41
0.7
 51
15.0
  2
A2
 70
     0
  0
ATTRIB
  5
34
  8
0
 62
     4
 10
244.651257
 20
17.0
 30
0.0
 40
2.5
  1

 41
0.7
 51
15.0
  2
DATUM2
 70
     0
  0
ATTRIB
  5
35
  8
0
 62
     4
 10
257.53501
 20
17.0
 30
0.0
 40
2.5
  1

 41
0.7
 51
15.0
  2
NAME2
 70
     0
  0
ATTRIB
  5
36
  8
0
 62
     4
 10
204.813733
 20
22.0
 30
0.0
 40
2.5
  1

 41
0.7
 51
15.0
  2
INDEX3
 70
     0
  0
ATTRIB
  5
37
  8
0
 62
     4
 10
211.651257
 20
22.0
 30
0.0
 40
2.5
  1

 41
0.7
 51
15.0
  2
A3
 70
     0
  0
ATTRIB
  5
38
  8
0
 62
     4
 10
244.651257
 20
22.0
 30
0.0
 40
2.5
  1

 41
0.7
 51
15.0
  2
DATUM3
 70
     0
  0
ATTRIB
  5
39
  8
0
 62
     4
 10
257.53501
 20
22.0
 30
0.0
 40
2.5
  1

 41
0.7
 51
15.0
  2
NAME3
 70
     0
  0
ATTRIB
  5
3A
  8
0
 62
     4
 10
204.813733
 20
27.0
 30
0.0
 40
2.5
  1

 41
0.7
 51
15.0
  2
INDEX4
 70
     0
  0
ATTRIB
  5
3B
  8
0
 62
     4
 10
211.651257
 20
27.0
 30
0.0
 40
2.5
  1

 41
0.7
 51
15.0
  2
A4
 70
     0
  0
ATTRIB
  5
3C
  8
0
 62
     4
 10
244.651257
 20
27.0
 30
0.0
 40
2.5
  1

 41
0.7
 51
15.0
  2
DATUM4
 70
     0
  0
ATTRIB
  5
3D
  8
0
 62
     4
 10
257.53501
 20
27.0
 30
0.0
 40
2.5
  1

 41
0.7
 51
15.0
  2
NAME4
 70
     0
  0
ATTRIB
  5
3E
  8
0
 62
     4
 10
204.813733
 20
32.0
 30
0.0
 40
2.5
  1

 41
0.7
 51
15.0
  2
INDEX5
 70
     0
  0
ATTRIB
  5
3F
  8
0
 62
     4
 10
211.651257
 20
32.0
 30
0.0
 40
2.5
  1

 41
0.7
 51
15.0
  2
A5
 70
     0
  0
ATTRIB
  5
40
  8
0
 62
     4
 10
244.651257
 20
32.0
 30
0.0
 40
2.5
  1

 41
0.7
 51
15.0
  2
DATUM5
 70
     0
  0
ATTRIB
  5
41
  8
0
 62
     4
 10
257.53501
 20
32.0
 30
0.0
 40
2.5
  1

 41
0.7
 51
15.0
  2
NAME5
 70
     0
  0
ATTRIB
  5
42
  8
0
 62
     4
 10
204.813733
 20
37.0
 30
0.0
 40
2.5
  1

 41
0.7
 51
15.0
  2
INDEX6
 70
     0
  0
ATTRIB
  5
43
  8
0
 62
     4
 10
211.651257
 20
37.0
 30
0.0
 40
2.5
  1

 41
0.7
 51
15.0
  2
A6
 70
     0
  0
ATTRIB
  5
44
  8
0
 62
     4
 10
244.651257
 20
37.0
 30
0.0
 40
2.5
  1

 41
0.7
 51
15.0
  2
DATUM6
 70
     0
  0
ATTRIB
  5
45
  8
0
 62
     4
 10
257.53501
 20
37.0
 30
0.0
 40
2.5
  1

 41
0.7
 51
15.0
  2
NAME6
 70
     0
  0
ATTRIB
  5
46
  8
0
 62
     4
 10
204.813733
 20
42.0
 30
0.0
 40
2.5
  1

 41
0.7
 51
15.0
  2
INDEX7
 70
     0
  0
ATTRIB
  5
47
  8
0
 62
     4
 10
211.651257
 20
42.0
 30
0.0
 40
2.5
  1

 41
0.7
 51
15.0
  2
A7
 70
     0
  0
ATTRIB
  5
48
  8
0
 62
     4
 10
244.651257
 20
42.0
 30
0.0
 40
2.5
  1

 41
0.7
 51
15.0
  2
DATUM7
 70
     0
  0
ATTRIB
  5
49
  8
0
 62
     4
 10
257.53501
 20
42.0
 30
0.0
 40
2.5
  1

 41
0.7
 51
15.0
  2
NAME7
 70
     0
  0
ATTRIB
  5
4A
  8
0
 62
     4
 10
204.813733
 20
47.0
 30
0.0
 40
2.5
  1

 41
0.7
 51
15.0
  2
INDEX8
 70
     0
  0
ATTRIB
  5
4B
  8
0
 62
     4
 10
211.651257
 20
47.0
 30
0.0
 40
2.5
  1

 41
0.7
 51
15.0
  2
A8
 70
     0
  0
ATTRIB
  5
4C
  8
0
 62
     4
 10
244.651257
 20
47.0
 30
0.0
 40
2.5
  1

 41
0.7
 51
15.0
  2
DATUM8
 70
     0
  0
ATTRIB
  5
4D
  8
0
 62
     4
 10
257.53501
 20
47.0
 30
0.0
 40
2.5
  1

 41
0.7
 51
15.0
  2
NAME8
 70
     0
  0
SEQEND
  5
AB
  8
05
  0
LINE
  5
AC
  8
05
 10
331.569542
 20
139.744028
 30
0.0
 11
330.719175
 21
145.085548
 31
0.0
  0
LINE
  5
AD
  8
05
 10
331.569542
 20
139.744028
 30
0.0
 11
327.431146
 21
144.928677
 31
0.0
  0
LINE
  5
AE
  8
05
 10
316.556114
 20
140.897887
 30
0.0
 11
316.055005
 21
144.045568
 31
0.0
  0
LINE
  5
AF
  8
05
 10
313.216356
 20
145.08199
 30
0.0
 11
316.556114
 21
140.897887
 31
0.0
  0
LINE
  5
B0
  8
05
 10
295.96095
 20
150.886654
 30
0.0
 11
297.251201
 21
142.782027
 31
0.0
  0
LINE
  5
B1
  8
05
 10
316.556114
 20
140.897887
 30
0.0
 11
327.431146
 21
144.928677
 31
0.0
  0
POLYLINE
  5
B2
  8
035
 66
     1
 10
0.0
 20
0.0
 30
0.0
  0
VERTEX
  5
48C
  8
035
 10
247.657954
 20
144.625803
 30
0.0
  0
VERTEX
  5
48D
  8
035
 10
247.825233
 20
143.293369
 30
0.0
  0
VERTEX
  5
48E
  8
035
 10
247.876361
 20
142.1341
 30
0.0
  0
VERTEX
  5
48F
  8
035
 10
247.81008
 20
141.176539
 30
0.0
  0
VERTEX
  5
490
  8
035
 10
247.628022
 20
140.444266
 30
0.0
  0
VERTEX
  5
491
  8
035
 10
247.334669
 20
139.955311
 30
0.0
  0
VERTEX
  5
492
  8
035
 10
247.028217
 20
139.749033
 30
0.0
  0
SEQEND
  5
493
  8
035
  0
LINE
  5
B4
  8
05
 10
331.569542
 20
139.744028
 30
0.0
 11
343.967077
 21
144.339128
 31
0.0
  0
LINE
  5
B5
  8
05
 10
259.773546
 20
136.032644
 30
0.0
 11
252.332838
 21
182.770948
 31
0.0
  0
LINE
  5
B6
  8
035
 10
271.390096
 20
121.479242
 30
0.0
 11
264.904329
 21
162.21915
 31
0.0
  0
POLYLINE
  5
B7
  8
05
 66
     1
 10
0.0
 20
0.0
 30
0.0
  0
VERTEX
  5
494
  8
05
 10
218.291697
 20
131.617772
 30
0.0
  0
VERTEX
  5
495
  8
05
 10
217.986742
 20
131.709512
 30
0.0
  0
VERTEX
  5
496
  8
05
 10
217.480748
 20
132.036308
 30
0.0
  0
VERTEX
  5
497
  8
05
 10
216.92033
 20
132.582724
 30
0.0
  0
VERTEX
  5
498
  8
05
 10
216.320776
 20
133.333855
 30
0.0
  0
VERTEX
  5
499
  8
05
 10
215.698439
 20
134.269214
 30
0.0
  0
VERTEX
  5
49A
  8
05
 10
215.070295
 20
135.363284
 30
0.0
  0
VERTEX
  5
49B
  8
05
 10
214.453479
 20
136.586224
 30
0.0
  0
VERTEX
  5
49C
  8
05
 10
213.864815
 20
137.904674
 30
0.0
  0
VERTEX
  5
49D
  8
05
 10
213.32036
 20
139.282671
 30
0.0
  0
VERTEX
  5
49E
  8
05
 10
212.834967
 20
140.682627
 30
0.0
  0
VERTEX
  5
49F
  8
05
 10
212.421875
 20
142.066354
 30
0.0
  0
VERTEX
  5
4A0
  8
05
 10
212.092352
 20
143.396107
 30
0.0
  0
VERTEX
  5
4A1
  8
05
 10
211.855387
 20
144.635616
 30
0.0
  0
SEQEND
  5
4A2
  8
05
  0
POLYLINE
  5
B8
  8
025
 66
     1
 10
0.0
 20
0.0
 30
0.0
  0
VERTEX
  5
4A3
  8
025
 10
237.435424
 20
140.83686
 30
0.0
  0
VERTEX
  5
4A4
  8
025
 10
237.156114
 20
142.309648
 30
0.0
  0
VERTEX
  5
4A5
  8
025
 10
236.771649
 20
143.886526
 30
0.0
  0
VERTEX
  5
4A6
  8
025
 10
236.291498
 20
145.528667
 30
0.0
  0
VERTEX
  5
4A7
  8
025
 10
235.727482
 20
147.195634
 30
0.0
  0
VERTEX
  5
4A8
  8
025
 10
235.71089
 20
147.238834
 30
0.0
  0
SEQEND
  5
4A9
  8
025
  0
POLYLINE
  5
BA
  8
035
 66
     1
 10
0.0
 20
0.0
 30
0.0
  0
VERTEX
  5
4AA
  8
035
 10
234.390416
 20
139.708239
 30
0.0
  0
VERTEX
  5
4AB
  8
035
 10
234.111105
 20
141.181027
 30
0.0
  0
VERTEX
  5
4AC
  8
035
 10
233.726641
 20
142.757905
 30
0.0
  0
VERTEX
  5
4AD
  8
035
 10
233.246489
 20
144.400045
 30
0.0
  0
VERTEX
  5
4AE
  8
035
 10
232.682473
 20
146.067013
 30
0.0
  0
VERTEX
  5
4AF
  8
035
 10
232.04848
 20
147.717761
 30
0.0
  0
VERTEX
  5
4B0
  8
035
 10
231.360123
 20
149.311643
 30
0.0
  0
VERTEX
  5
4B1
  8
035
 10
230.634349
 20
150.809412
 30
0.0
  0
VERTEX
  5
4B2
  8
035
 10
229.889031
 20
152.174189
 30
0.0
  0
VERTEX
  5
4B3
  8
035
 10
229.142521
 20
153.372367
 30
0.0
  0
VERTEX
  5
4B4
  8
035
 10
228.413199
 20
154.374445
 30
0.0
  0
VERTEX
  5
4B5
  8
035
 10
227.719025
 20
155.155746
 30
0.0
  0
VERTEX
  5
4B6
  8
035
 10
227.077091
 20
155.697034
 30
0.0
  0
VERTEX
  5
4B7
  8
035
 10
226.782025
 20
155.872608
 30
0.0
  0
SEQEND
  5
4B8
  8
035
  0
POLYLINE
  5
BB
  8
025
 66
     1
 10
0.0
 20
0.0
 30
0.0
  0
VERTEX
  5
4B9
  8
025
 10
234.788713
 20
140.374489
 30
0.0
  0
VERTEX
  5
4BA
  8
025
 10
234.529013
 20
141.743869
 30
0.0
  0
VERTEX
  5
4BB
  8
025
 10
234.171543
 20
143.21003
 30
0.0
  0
VERTEX
  5
4BC
  8
025
 10
233.725104
 20
144.736871
 30
0.0
  0
VERTEX
  5
4BD
  8
025
 10
233.200689
 20
146.286796
 30
0.0
  0
VERTEX
  5
4BE
  8
025
 10
232.611211
 20
147.821641
 30
0.0
  0
VERTEX
  5
4BF
  8
025
 10
231.971185
 20
149.303612
 30
0.0
  0
VERTEX
  5
4C0
  8
025
 10
231.29637
 20
150.696219
 30
0.0
  0
VERTEX
  5
4C1
  8
025
 10
230.603383
 20
151.965171
 30
0.0
  0
VERTEX
  5
4C2
  8
025
 10
229.909287
 20
153.079222
 30
0.0
  0
VERTEX
  5
4C3
  8
025
 10
229.231173
 20
154.01094
 30
0.0
  0
VERTEX
  5
4C4
  8
025
 10
228.585738
 20
154.737384
 30
0.0
  0
VERTEX
  5
4C5
  8
025
 10
227.988876
 20
155.240667
 30
0.0
  0
VERTEX
  5
4C6
  8
025
 10
227.714528
 20
155.403914
 30
0.0
  0
SEQEND
  5
4C7
  8
025
  0
POLYLINE
  5
BC
  8
025
 66
     1
 10
0.0
 20
0.0
 30
0.0
  0
VERTEX
  5
4C8
  8
025
 10
236.398217
 20
140.971046
 30
0.0
  0
VERTEX
  5
4C9
  8
025
 10
236.138518
 20
142.340426
 30
0.0
  0
VERTEX
  5
4CA
  8
025
 10
235.781048
 20
143.806587
 30
0.0
  0
VERTEX
  5
4CB
  8
025
 10
235.334609
 20
145.333428
 30
0.0
  0
VERTEX
  5
4CC
  8
025
 10
234.810194
 20
146.883353
 30
0.0
  0
VERTEX
  5
4CD
  8
025
 10
234.220716
 20
148.418198
 30
0.0
  0
VERTEX
  5
4CE
  8
025
 10
233.58069
 20
149.900169
 30
0.0
  0
VERTEX
  5
4CF
  8
025
 10
232.905875
 20
151.292776
 30
0.0
  0
VERTEX
  5
4D0
  8
025
 10
232.212887
 20
152.561728
 30
0.0
  0
VERTEX
  5
4D1
  8
025
 10
231.518791
 20
153.675779
 30
0.0
  0
VERTEX
  5
4D2
  8
025
 10
230.840677
 20
154.607497
 30
0.0
  0
VERTEX
  5
4D3
  8
025
 10
230.195243
 20
155.333941
 30
0.0
  0
VERTEX
  5
4D4
  8
025
 10
229.598381
 20
155.837224
 30
0.0
  0
VERTEX
  5
4D5
  8
025
 10
229.064788
 20
156.104952
 30
0.0
  0
VERTEX
  5
4D6
  8
025
 10
228.607603
 20
156.130533
 30
0.0
  0
VERTEX
  5
4D7
  8
025
 10
228.522838
 20
156.105135
 30
0.0
  0
SEQEND
  5
4D8
  8
025
  0
LINE
  5
BD
  8
05
 10
271.390096
 20
121.479242
 30
0.0
 11
259.773546
 21
136.032644
 31
0.0
  0
LINE
  5
BE
  8
05
 10
247.02841
 20
139.74903
 30
0.0
 11
236.805881
 21
135.960087
 31
0.0
  0
LINE
  5
BF
  8
05
 10
223.057699
 20
130.975011
 30
0.0
 11
218.291584
 21
131.617679
 31
0.0
  0
POLYLINE
  5
C0
  8
025
 66
     1
 10
0.0
 20
0.0
 30
0.0
  0
VERTEX
  5
4D9
  8
025
 10
219.115731
 20
135.53974
 30
0.0
  0
VERTEX
  5
4DA
  8
025
 10
219.253674
 20
134.424287
 30
0.0
  0
VERTEX
  5
4DB
  8
025
 10
219.288833
 20
133.463317
 30
0.0
  0
VERTEX
  5
4DC
  8
025
 10
219.220249
 20
132.683043
 30
0.0
  0
VERTEX
  5
4DD
  8
025
 10
219.049792
 20
132.104747
 30
0.0
  0
VERTEX
  5
4DE
  8
025
 10
218.782112
 20
131.744205
 30
0.0
  0
VERTEX
  5
4DF
  8
025
 10
218.42451
 20
131.611251
 30
0.0
  0
VERTEX
  5
4E0
  8
025
 10
218.291697
 20
131.617772
 30
0.0
  0
SEQEND
  5
4E1
  8
025
  0
POLYLINE
  5
C1
  8
025
 66
     1
 10
0.0
 20
0.0
 30
0.0
  0
VERTEX
  5
4E2
  8
025
 10
219.115731
 20
135.53974
 30
0.0
  0
VERTEX
  5
4E3
  8
025
 10
218.878766
 20
136.779248
 30
0.0
  0
VERTEX
  5
4E4
  8
025
 10
218.549243
 20
138.109002
 30
0.0
  0
VERTEX
  5
4E5
  8
025
 10
218.136151
 20
139.492729
 30
0.0
  0
VERTEX
  5
4E6
  8
025
 10
217.650758
 20
140.892684
 30
0.0
  0
VERTEX
  5
4E7
  8
025
 10
217.106303
 20
142.270681
 30
0.0
  0
VERTEX
  5
4E8
  8
025
 10
217.035744
 20
142.428715
 30
0.0
  0
SEQEND
  5
4E9
  8
025
  0
LINE
  5
C2
  8
05
 10
233.760873
 20
134.831466
 30
0.0
 11
223.461087
 21
131.013888
 31
0.0
  0
POLYLINE
  5
C3
  8
025
 66
     1
 10
0.0
 20
0.0
 30
0.0
  0
VERTEX
  5
4EA
  8
025
 10
224.09063
 20
135.890661
 30
0.0
  0
VERTEX
  5
4EB
  8
025
 10
224.257909
 20
134.558228
 30
0.0
  0
VERTEX
  5
4EC
  8
025
 10
224.309038
 20
133.398958
 30
0.0
  0
VERTEX
  5
4ED
  8
025
 10
224.242757
 20
132.441398
 30
0.0
  0
VERTEX
  5
4EE
  8
025
 10
224.060698
 20
131.709125
 30
0.0
  0
VERTEX
  5
4EF
  8
025
 10
223.767345
 20
131.22017
 30
0.0
  0
VERTEX
  5
4F0
  8
025
 10
223.461087
 20
131.013888
 30
0.0
  0
SEQEND
  5
4F1
  8
025
  0
POLYLINE
  5
C4
  8
05
 66
     1
 10
0.0
 20
0.0
 30
0.0
  0
VERTEX
  5
4F2
  8
05
 10
223.461087
 20
131.013888
 30
0.0
  0
VERTEX
  5
4F3
  8
05
 10
223.369921
 20
130.986573
 30
0.0
  0
VERTEX
  5
4F4
  8
05
 10
223.057699
 20
130.975011
 30
0.0
  0
SEQEND
  5
4F5
  8
05
  0
POLYLINE
  5
C5
  8
025
 66
     1
 10
0.0
 20
0.0
 30
0.0
  0
VERTEX
  5
4F6
  8
025
 10
224.09063
 20
135.890661
 30
0.0
  0
VERTEX
  5
4F7
  8
025
 10
223.81132
 20
137.363449
 30
0.0
  0
VERTEX
  5
4F8
  8
025
 10
223.426855
 20
138.940327
 30
0.0
  0
VERTEX
  5
4F9
  8
025
 10
222.946703
 20
140.582468
 30
0.0
  0
VERTEX
  5
4FA
  8
025
 10
222.44481
 20
142.06583
 30
0.0
  0
SEQEND
  5
4FB
  8
025
  0
POLYLINE
  5
C6
  8
035
 66
     1
 10
0.0
 20
0.0
 30
0.0
  0
VERTEX
  5
4FC
  8
035
 10
234.390416
 20
139.708239
 30
0.0
  0
VERTEX
  5
4FD
  8
035
 10
234.557695
 20
138.375805
 30
0.0
  0
VERTEX
  5
4FE
  8
035
 10
234.608823
 20
137.216536
 30
0.0
  0
VERTEX
  5
4FF
  8
035
 10
234.542542
 20
136.258975
 30
0.0
  0
VERTEX
  5
500
  8
035
 10
234.341042
 20
135.478456
 30
0.0
  0
SEQEND
  5
501
  8
035
  0
POLYLINE
  5
C7
  8
025
 66
     1
 10
0.0
 20
0.0
 30
0.0
  0
VERTEX
  5
502
  8
025
 10
234.788713
 20
140.374489
 30
0.0
  0
VERTEX
  5
503
  8
025
 10
234.944246
 20
139.13561
 30
0.0
  0
VERTEX
  5
504
  8
025
 10
234.991785
 20
138.057736
 30
0.0
  0
VERTEX
  5
505
  8
025
 10
234.930158
 20
137.167408
 30
0.0
  0
VERTEX
  5
506
  8
025
 10
234.742806
 20
136.441692
 30
0.0
  0
SEQEND
  5
507
  8
025
  0
POLYLINE
  5
C8
  8
025
 66
     1
 10
0.0
 20
0.0
 30
0.0
  0
VERTEX
  5
508
  8
025
 10
236.398217
 20
140.971046
 30
0.0
  0
VERTEX
  5
509
  8
025
 10
236.553751
 20
139.732167
 30
0.0
  0
VERTEX
  5
50A
  8
025
 10
236.60129
 20
138.654293
 30
0.0
  0
VERTEX
  5
50B
  8
025
 10
236.539662
 20
137.763965
 30
0.0
  0
VERTEX
  5
50C
  8
025
 10
236.370387
 20
137.083107
 30
0.0
  0
VERTEX
  5
50D
  8
025
 10
236.097631
 20
136.628483
 30
0.0
  0
VERTEX
  5
50E
  8
025
 10
235.812876
 20
136.436685
 30
0.0
  0
SEQEND
  5
50F
  8
025
  0
POLYLINE
  5
C9
  8
025
 66
     1
 10
0.0
 20
0.0
 30
0.0
  0
VERTEX
  5
510
  8
025
 10
237.435424
 20
140.83686
 30
0.0
  0
VERTEX
  5
511
  8
025
 10
237.602703
 20
139.504427
 30
0.0
  0
VERTEX
  5
512
  8
025
 10
237.653832
 20
138.345157
 30
0.0
  0
VERTEX
  5
513
  8
025
 10
237.587551
 20
137.387597
 30
0.0
  0
VERTEX
  5
514
  8
025
 10
237.405492
 20
136.655323
 30
0.0
  0
VERTEX
  5
515
  8
025
 10
237.112139
 20
136.166368
 30
0.0
  0
VERTEX
  5
516
  8
025
 10
236.805881
 20
135.960087
 30
0.0
  0
SEQEND
  5
517
  8
025
  0
POLYLINE
  5
CA
  8
05
 66
     1
 10
0.0
 20
0.0
 30
0.0
  0
VERTEX
  5
518
  8
05
 10
234.341042
 20
135.478456
 30
0.0
  0
VERTEX
  5
519
  8
05
 10
234.067131
 20
135.037747
 30
0.0
  0
VERTEX
  5
51A
  8
05
 10
233.760873
 20
134.831466
 30
0.0
  0
SEQEND
  5
51B
  8
05
  0
POLYLINE
  5
CB
  8
05
 66
     1
 10
0.0
 20
0.0
 30
0.0
  0
VERTEX
  5
51C
  8
05
 10
236.805881
 20
135.960087
 30
0.0
  0
VERTEX
  5
51D
  8
05
 10
236.714715
 20
135.932771
 30
0.0
  0
VERTEX
  5
51E
  8
05
 10
236.223006
 20
135.960284
 30
0.0
  0
VERTEX
  5
51F
  8
05
 10
235.944184
 20
136.072655
 30
0.0
  0
SEQEND
  5
520
  8
05
  0
LINE
  5
CC
  8
05
 10
235.944184
 20
136.072655
 30
0.0
 11
235.471592
 21
136.310189
 31
0.0
  0
LINE
  5
CD
  8
05
 10
234.742806
 20
136.441692
 30
0.0
 11
234.341042
 21
135.478456
 31
0.0
  0
LINE
  5
CE
  8
05
 10
235.812876
 20
136.436685
 30
0.0
 11
234.544656
 21
135.966624
 31
0.0
  0
LINE
  5
CF
  8
05
 10
271.390096
 20
121.479242
 30
0.0
 11
276.347513
 21
119.276186
 31
0.0
  0
LINE
  5
D0
  8
05
 10
288.745049
 20
123.871287
 30
0.0
 11
276.347513
 21
119.276186
 31
0.0
  0
LINE
  5
D1
  8
025
 10
283.146232
 20
131.796353
 30
0.0
 11
282.952623
 21
132.03891
 31
0.0
  0
LINE
  5
D2
  8
025
 10
281.666819
 20
131.85409
 30
0.0
 11
281.47321
 21
132.096647
 31
0.0
  0
LINE
  5
D3
  8
025
 10
284.039953
 20
131.723558
 30
0.0
 11
283.846344
 21
131.966114
 31
0.0
  0
LINE
  5
D4
  8
025
 10
283.846344
 20
131.966114
 30
0.0
 11
283.937454
 21
131.393808
 31
0.0
  0
LINE
  5
D5
  8
025
 10
281.94448
 20
131.957004
 30
0.0
 11
281.666819
 21
131.85409
 31
0.0
  0
LINE
  5
D6
  8
025
 10
283.146232
 20
131.796353
 30
0.0
 11
282.823016
 21
131.979592
 31
0.0
  0
LINE
  5
D7
  8
025
 10
283.825198
 20
132.149023
 30
0.0
 11
284.039953
 21
131.723558
 31
0.0
  0
LINE
  5
D8
  8
025
 10
284.039953
 20
131.723558
 30
0.0
 11
283.825198
 21
132.149023
 31
0.0
  0
LINE
  5
D9
  8
025
 10
282.823016
 20
131.979592
 30
0.0
 11
283.146232
 21
131.796353
 31
0.0
  0
LINE
  5
DA
  8
025
 10
281.666819
 20
131.85409
 30
0.0
 11
281.94448
 21
131.957004
 31
0.0
  0
LINE
  5
DB
  8
025
 10
280.788283
 20
131.831502
 30
0.0
 11
281.452063
 21
132.279555
 31
0.0
  0
LINE
  5
DC
  8
025
 10
281.47321
 20
132.096647
 30
0.0
 11
281.071905
 21
131.846892
 31
0.0
  0
LINE
  5
DD
  8
025
 10
281.452063
 20
132.279555
 30
0.0
 11
280.788283
 21
131.831502
 31
0.0
  0
LINE
  5
DE
  8
025
 10
278.452047
 20
128.036219
 30
0.0
 11
278.258438
 21
128.278776
 31
0.0
  0
LINE
  5
DF
  8
025
 10
278.011679
 20
130.802364
 30
0.0
 11
278.452047
 21
128.036219
 31
0.0
  0
LINE
  5
E0
  8
025
 10
278.452047
 20
128.036219
 30
0.0
 11
278.011679
 21
130.802364
 31
0.0
  0
LINE
  5
E1
  8
025
 10
278.488946
 20
124.110404
 30
0.0
 11
278.24382
 21
124.726637
 31
0.0
  0
LINE
  5
E2
  8
025
 10
278.488946
 20
124.110404
 30
0.0
 11
278.24382
 21
124.726637
 31
0.0
  0
LINE
  5
E3
  8
025
 10
278.245984
 20
125.636553
 30
0.0
 11
278.462904
 21
126.121004
 31
0.0
  0
LINE
  5
E4
  8
025
 10
278.245984
 20
125.636553
 30
0.0
 11
278.462904
 21
126.121004
 31
0.0
  0
LINE
  5
E5
  8
025
 10
278.514207
 20
127.868513
 30
0.0
 11
277.786571
 21
127.598817
 31
0.0
  0
LINE
  5
E6
  8
025
 10
281.443407
 20
128.639893
 30
0.0
 11
277.833822
 21
127.302014
 31
0.0
  0
LINE
  5
E7
  8
025
 10
277.833822
 20
127.302014
 30
0.0
 11
281.443407
 21
128.639893
 31
0.0
  0
LINE
  5
E8
  8
025
 10
278.21345
 20
124.917406
 30
0.0
 11
278.245984
 21
125.636553
 31
0.0
  0
LINE
  5
E9
  8
025
 10
278.24382
 20
124.726637
 30
0.0
 11
278.21345
 21
124.917406
 31
0.0
  0
LINE
  5
EA
  8
025
 10
278.24382
 20
124.726637
 30
0.0
 11
278.21345
 21
124.917406
 31
0.0
  0
LINE
  5
EB
  8
025
 10
278.21345
 20
124.917406
 30
0.0
 11
278.245984
 21
125.636553
 31
0.0
  0
LINE
  5
EC
  8
025
 10
277.833822
 20
127.302014
 30
0.0
 11
277.317528
 21
130.54508
 31
0.0
  0
LINE
  5
ED
  8
025
 10
277.317528
 20
130.54508
 30
0.0
 11
277.833822
 21
127.302014
 31
0.0
  0
LINE
  5
EE
  8
025
 10
277.317528
 20
130.54508
 30
0.0
 11
278.011679
 21
130.802364
 31
0.0
  0
LINE
  5
EF
  8
025
 10
277.865321
 20
130.748117
 30
0.0
 11
278.258438
 21
128.278776
 31
0.0
  0
LINE
  5
F0
  8
025
 10
278.011679
 20
130.802364
 30
0.0
 11
277.317528
 21
130.54508
 31
0.0
  0
LINE
  5
F1
  8
025
 10
281.113698
 20
126.093385
 30
0.0
 11
280.744928
 21
126.562777
 31
0.0
  0
LINE
  5
F2
  8
025
 10
281.113698
 20
126.093385
 30
0.0
 11
280.744928
 21
126.562777
 31
0.0
  0
LINE
  5
F3
  8
025
 10
283.933694
 20
125.926455
 30
0.0
 11
284.042154
 21
126.16868
 31
0.0
  0
LINE
  5
F4
  8
025
 10
284.325775
 20
126.18407
 30
0.0
 11
284.24456
 21
126.047932
 31
0.0
  0
LINE
  5
F5
  8
025
 10
281.536151
 20
126.160232
 30
0.0
 11
281.14294
 21
126.01449
 31
0.0
  0
LINE
  5
F6
  8
025
 10
278.993816
 20
126.430077
 30
0.0
 11
278.761711
 21
126.04101
 31
0.0
  0
LINE
  5
F7
  8
025
 10
281.729761
 20
125.917676
 30
0.0
 11
281.536151
 21
126.160232
 31
0.0
  0
LINE
  5
F8
  8
025
 10
284.736305
 20
126.425965
 30
0.0
 11
284.519385
 21
125.941514
 31
0.0
  0
LINE
  5
F9
  8
025
 10
284.519385
 20
125.941514
 30
0.0
 11
284.325775
 21
126.18407
 31
0.0
  0
LINE
  5
FA
  8
025
 10
279.187425
 20
126.18752
 30
0.0
 11
278.95532
 21
125.798453
 31
0.0
  0
LINE
  5
FB
  8
025
 10
281.66902
 20
126.299213
 30
0.0
 11
281.729761
 21
125.917676
 31
0.0
  0
LINE
  5
FC
  8
025
 10
284.736305
 20
126.425965
 30
0.0
 11
284.519385
 21
125.941514
 31
0.0
  0
LINE
  5
FD
  8
025
 10
283.933694
 20
125.926455
 30
0.0
 11
284.042154
 21
126.16868
 31
0.0
  0
LINE
  5
FE
  8
025
 10
281.66902
 20
126.299213
 30
0.0
 11
281.729761
 21
125.917676
 31
0.0
  0
LINE
  5
FF
  8
025
 10
279.187425
 20
126.18752
 30
0.0
 11
278.95532
 21
125.798453
 31
0.0
  0
LINE
  5
100
  8
025
 10
279.491128
 20
124.279834
 30
0.0
 11
279.937989
 21
124.243436
 31
0.0
  0
LINE
  5
101
  8
025
 10
279.167912
 20
124.463073
 30
0.0
 11
279.491128
 21
124.279834
 31
0.0
  0
LINE
  5
102
  8
025
 10
279.167912
 20
124.463073
 30
0.0
 11
278.974303
 21
124.70563
 31
0.0
  0
LINE
  5
103
  8
025
 10
279.249799
 20
123.898628
 30
0.0
 11
278.633738
 21
124.074338
 31
0.0
  0
LINE
  5
104
  8
025
 10
278.633738
 20
124.074338
 30
0.0
 11
278.529747
 21
124.159959
 31
0.0
  0
LINE
  5
105
  8
025
 10
278.529747
 20
124.159959
 30
0.0
 11
278.439763
 21
124.234047
 31
0.0
  0
LINE
  5
106
  8
025
 10
279.937989
 20
124.243436
 30
0.0
 11
280.013914
 21
123.766515
 31
0.0
  0
LINE
  5
107
  8
025
 10
278.827347
 20
123.831781
 30
0.0
 11
278.488946
 21
124.110404
 31
0.0
  0
LINE
  5
108
  8
025
 10
279.443409
 20
123.656072
 30
0.0
 11
278.827347
 21
123.831781
 31
0.0
  0
LINE
  5
109
  8
025
 10
280.013914
 20
123.766515
 30
0.0
 11
279.443409
 21
123.656072
 31
0.0
  0
LINE
  5
10A
  8
025
 10
278.953156
 20
124.888538
 30
0.0
 11
279.167912
 21
124.463073
 31
0.0
  0
LINE
  5
10B
  8
025
 10
278.761711
 20
126.04101
 30
0.0
 11
278.698806
 21
125.512632
 31
0.0
  0
LINE
  5
10C
  8
025
 10
278.827347
 20
123.831781
 30
0.0
 11
278.633738
 21
124.074338
 31
0.0
  0
LINE
  5
10D
  8
025
 10
279.443409
 20
123.656072
 30
0.0
 11
279.249799
 21
123.898628
 31
0.0
  0
LINE
  5
10E
  8
025
 10
280.013914
 20
123.766515
 30
0.0
 11
279.820305
 21
124.009071
 31
0.0
  0
LINE
  5
10F
  8
025
 10
278.698806
 20
125.512632
 30
0.0
 11
278.759547
 21
125.131094
 31
0.0
  0
LINE
  5
110
  8
025
 10
278.953156
 20
124.888538
 30
0.0
 11
278.759547
 21
125.131094
 31
0.0
  0
LINE
  5
111
  8
025
 10
278.892416
 20
125.270075
 30
0.0
 11
278.698806
 21
125.512632
 31
0.0
  0
LINE
  5
112
  8
025
 10
278.95532
 20
125.798453
 30
0.0
 11
278.761711
 21
126.04101
 31
0.0
  0
LINE
  5
113
  8
025
 10
278.759547
 20
125.131094
 30
0.0
 11
278.974303
 21
124.70563
 31
0.0
  0
LINE
  5
114
  8
025
 10
279.780958
 20
124.256227
 30
0.0
 11
279.820305
 21
124.009071
 31
0.0
  0
LINE
  5
115
  8
025
 10
279.820305
 20
124.009071
 30
0.0
 11
279.249799
 21
123.898628
 31
0.0
  0
LINE
  5
116
  8
025
 10
278.892416
 20
125.270075
 30
0.0
 11
278.953156
 21
124.888538
 31
0.0
  0
LINE
  5
117
  8
025
 10
278.95532
 20
125.798453
 30
0.0
 11
278.892416
 21
125.270075
 31
0.0
  0
LINE
  5
118
  8
025
 10
278.95532
 20
125.798453
 30
0.0
 11
278.892416
 21
125.270075
 31
0.0
  0
LINE
  5
119
  8
025
 10
278.892416
 20
125.270075
 30
0.0
 11
278.953156
 21
124.888538
 31
0.0
  0
LINE
  5
11A
  8
025
 10
278.953156
 20
124.888538
 30
0.0
 11
279.167912
 21
124.463073
 31
0.0
  0
LINE
  5
11B
  8
025
 10
279.167912
 20
124.463073
 30
0.0
 11
279.491128
 21
124.279834
 31
0.0
  0
LINE
  5
11C
  8
025
 10
279.491128
 20
124.279834
 30
0.0
 11
279.937989
 21
124.243436
 31
0.0
  0
LINE
  5
11D
  8
025
 10
279.937989
 20
124.243436
 30
0.0
 11
280.013914
 21
123.766515
 31
0.0
  0
LINE
  5
11E
  8
025
 10
280.013914
 20
123.766515
 30
0.0
 11
279.443409
 21
123.656072
 31
0.0
  0
LINE
  5
11F
  8
025
 10
279.443409
 20
123.656072
 30
0.0
 11
278.827347
 21
123.831781
 31
0.0
  0
LINE
  5
120
  8
025
 10
278.827347
 20
123.831781
 30
0.0
 11
278.488946
 21
124.110404
 31
0.0
  0
LINE
  5
121
  8
025
 10
281.729761
 20
125.917676
 30
0.0
 11
281.174439
 21
125.711848
 31
0.0
  0
LINE
  5
122
  8
025
 10
281.729761
 20
125.917676
 30
0.0
 11
281.174439
 21
125.711848
 31
0.0
  0
LINE
  5
123
  8
025
 10
281.174439
 20
125.711848
 30
0.0
 11
281.113698
 21
126.093385
 31
0.0
  0
LINE
  5
124
  8
025
 10
281.174439
 20
125.711848
 30
0.0
 11
281.113698
 21
126.093385
 31
0.0
  0
LINE
  5
125
  8
025
 10
283.686404
 20
125.632772
 30
0.0
 11
283.933694
 21
125.926455
 31
0.0
  0
LINE
  5
126
  8
025
 10
283.423928
 20
125.434474
 30
0.0
 11
283.686404
 21
125.632772
 31
0.0
  0
LINE
  5
127
  8
025
 10
283.499854
 20
124.957553
 30
0.0
 11
283.423928
 21
125.434474
 31
0.0
  0
LINE
  5
128
  8
025
 10
284.24456
 20
126.047932
 30
0.0
 11
284.093671
 21
125.795004
 31
0.0
  0
LINE
  5
129
  8
025
 10
284.093671
 20
125.795004
 30
0.0
 11
283.786677
 21
125.520593
 31
0.0
  0
LINE
  5
12A
  8
025
 10
283.786677
 20
125.520593
 30
0.0
 11
283.70755
 21
125.449864
 31
0.0
  0
LINE
  5
12B
  8
025
 10
283.70755
 20
125.449864
 30
0.0
 11
283.496209
 21
125.318335
 31
0.0
  0
LINE
  5
12C
  8
025
 10
283.496209
 20
125.318335
 30
0.0
 11
283.447267
 21
125.287875
 31
0.0
  0
LINE
  5
12D
  8
025
 10
283.901159
 20
125.207308
 30
0.0
 11
283.499854
 21
124.957553
 31
0.0
  0
LINE
  5
12E
  8
025
 10
284.28728
 20
125.552447
 30
0.0
 11
283.901159
 21
125.207308
 31
0.0
  0
LINE
  5
12F
  8
025
 10
283.901159
 20
125.207308
 30
0.0
 11
283.70755
 21
125.449864
 31
0.0
  0
LINE
  5
130
  8
025
 10
284.28728
 20
125.552447
 30
0.0
 11
284.093671
 21
125.795004
 31
0.0
  0
LINE
  5
131
  8
025
 10
284.28728
 20
125.552447
 30
0.0
 11
283.901159
 21
125.207308
 31
0.0
  0
LINE
  5
132
  8
025
 10
283.901159
 20
125.207308
 30
0.0
 11
283.499854
 21
124.957553
 31
0.0
  0
LINE
  5
133
  8
025
 10
283.499854
 20
124.957553
 30
0.0
 11
283.423928
 21
125.434474
 31
0.0
  0
LINE
  5
134
  8
025
 10
283.423928
 20
125.434474
 30
0.0
 11
283.686404
 21
125.632772
 31
0.0
  0
LINE
  5
135
  8
025
 10
283.686404
 20
125.632772
 30
0.0
 11
283.933694
 21
125.926455
 31
0.0
  0
LINE
  5
136
  8
025
 10
284.519385
 20
125.941514
 30
0.0
 11
284.28728
 21
125.552447
 31
0.0
  0
LINE
  5
137
  8
025
 10
284.519385
 20
125.941514
 30
0.0
 11
284.28728
 21
125.552447
 31
0.0
  0
LINE
  5
138
  8
025
 10
282.397869
 20
128.18556
 30
0.0
 11
282.95319
 21
128.391387
 31
0.0
  0
LINE
  5
139
  8
025
 10
282.835506
 20
128.157023
 30
0.0
 11
282.460029
 21
128.017853
 31
0.0
  0
LINE
  5
13A
  8
025
 10
282.473795
 20
127.708638
 30
0.0
 11
282.280185
 21
127.951195
 31
0.0
  0
LINE
  5
13B
  8
025
 10
282.473795
 20
127.708638
 30
0.0
 11
281.948844
 21
127.312042
 31
0.0
  0
LINE
  5
13C
  8
025
 10
282.473795
 20
127.708638
 30
0.0
 11
281.948844
 21
127.312042
 31
0.0
  0
LINE
  5
13D
  8
025
 10
282.397869
 20
128.18556
 30
0.0
 11
282.95319
 21
128.391387
 31
0.0
  0
LINE
  5
13E
  8
025
 10
281.666819
 20
131.85409
 30
0.0
 11
281.265514
 21
131.604335
 31
0.0
  0
LINE
  5
13F
  8
025
 10
281.265514
 20
131.604335
 30
0.0
 11
281.666819
 21
131.85409
 31
0.0
  0
LINE
  5
140
  8
025
 10
280.278517
 20
131.339521
 30
0.0
 11
280.788283
 21
131.831502
 31
0.0
  0
LINE
  5
141
  8
025
 10
281.071905
 20
131.846892
 30
0.0
 11
280.906602
 21
131.699134
 31
0.0
  0
LINE
  5
142
  8
025
 10
280.906602
 20
131.699134
 30
0.0
 11
280.685785
 21
131.501753
 31
0.0
  0
LINE
  5
143
  8
025
 10
280.685785
 20
131.501753
 30
0.0
 11
280.453679
 21
131.112686
 31
0.0
  0
LINE
  5
144
  8
025
 10
280.647288
 20
130.870129
 30
0.0
 11
280.453679
 21
131.112686
 31
0.0
  0
LINE
  5
145
  8
025
 10
280.879394
 20
131.259196
 30
0.0
 11
280.685785
 21
131.501753
 31
0.0
  0
LINE
  5
146
  8
025
 10
280.879394
 20
131.259196
 30
0.0
 11
280.647288
 21
130.870129
 31
0.0
  0
LINE
  5
147
  8
025
 10
280.788283
 20
131.831502
 30
0.0
 11
280.278517
 21
131.339521
 31
0.0
  0
LINE
  5
148
  8
025
 10
280.647288
 20
130.870129
 30
0.0
 11
280.879394
 21
131.259196
 31
0.0
  0
LINE
  5
149
  8
025
 10
281.265514
 20
131.604335
 30
0.0
 11
281.071905
 21
131.846892
 31
0.0
  0
LINE
  5
14A
  8
025
 10
281.265514
 20
131.604335
 30
0.0
 11
280.879394
 21
131.259196
 31
0.0
  0
LINE
  5
14B
  8
025
 10
280.879394
 20
131.259196
 30
0.0
 11
281.265514
 21
131.604335
 31
0.0
  0
LINE
  5
14C
  8
025
 10
281.857734
 20
127.884348
 30
0.0
 11
282.397869
 21
128.18556
 31
0.0
  0
LINE
  5
14D
  8
025
 10
281.471613
 20
127.539209
 30
0.0
 11
281.857734
 21
127.884348
 31
0.0
  0
LINE
  5
14E
  8
025
 10
281.269878
 20
126.959374
 30
0.0
 11
281.471613
 21
127.539209
 31
0.0
  0
LINE
  5
14F
  8
025
 10
281.443407
 20
128.639893
 30
0.0
 11
281.249797
 21
128.882449
 31
0.0
  0
LINE
  5
150
  8
025
 10
282.460029
 20
128.017853
 30
0.0
 11
282.280185
 21
127.951195
 31
0.0
  0
LINE
  5
151
  8
025
 10
282.280185
 20
127.951195
 30
0.0
 11
281.979088
 21
127.723718
 31
0.0
  0
LINE
  5
152
  8
025
 10
281.979088
 20
127.723718
 30
0.0
 11
281.755235
 21
127.554599
 31
0.0
  0
LINE
  5
153
  8
025
 10
281.755235
 20
127.554599
 30
0.0
 11
281.674019
 21
127.41846
 31
0.0
  0
LINE
  5
154
  8
025
 10
281.674019
 20
127.41846
 30
0.0
 11
281.52313
 21
127.165532
 31
0.0
  0
LINE
  5
155
  8
025
 10
281.52313
 20
127.165532
 30
0.0
 11
281.475411
 21
126.54177
 31
0.0
  0
LINE
  5
156
  8
025
 10
281.475411
 20
126.54177
 30
0.0
 11
281.536151
 21
126.160232
 31
0.0
  0
LINE
  5
157
  8
025
 10
281.66902
 20
126.299213
 30
0.0
 11
281.475411
 21
126.54177
 31
0.0
  0
LINE
  5
158
  8
025
 10
281.716739
 20
126.922975
 30
0.0
 11
281.52313
 21
127.165532
 31
0.0
  0
LINE
  5
159
  8
025
 10
281.948844
 20
127.312042
 30
0.0
 11
281.755235
 21
127.554599
 31
0.0
  0
LINE
  5
15A
  8
025
 10
281.337111
 20
129.307583
 30
0.0
 11
281.443407
 21
128.639893
 31
0.0
  0
LINE
  5
15B
  8
025
 10
281.716739
 20
126.922975
 30
0.0
 11
281.66902
 21
126.299213
 31
0.0
  0
LINE
  5
15C
  8
025
 10
281.948844
 20
127.312042
 30
0.0
 11
281.716739
 21
126.922975
 31
0.0
  0
LINE
  5
15D
  8
025
 10
281.443407
 20
128.639893
 30
0.0
 11
281.337111
 21
129.307583
 31
0.0
  0
LINE
  5
15E
  8
025
 10
281.948844
 20
127.312042
 30
0.0
 11
281.716739
 21
126.922975
 31
0.0
  0
LINE
  5
15F
  8
025
 10
281.716739
 20
126.922975
 30
0.0
 11
281.66902
 21
126.299213
 31
0.0
  0
LINE
  5
160
  8
025
 10
281.269878
 20
126.959374
 30
0.0
 11
281.471613
 21
127.539209
 31
0.0
  0
LINE
  5
161
  8
025
 10
281.471613
 20
127.539209
 30
0.0
 11
281.857734
 21
127.884348
 31
0.0
  0
LINE
  5
162
  8
025
 10
281.857734
 20
127.884348
 30
0.0
 11
282.397869
 21
128.18556
 31
0.0
  0
LINE
  5
163
  8
025
 10
280.345786
 20
127.222938
 30
0.0
 11
280.792648
 21
127.18654
 31
0.0
  0
LINE
  5
164
  8
025
 10
279.77528
 20
127.112494
 30
0.0
 11
280.345786
 21
127.222938
 31
0.0
  0
LINE
  5
165
  8
025
 10
279.49762
 20
127.009581
 30
0.0
 11
279.77528
 21
127.112494
 31
0.0
  0
LINE
  5
166
  8
025
 10
278.957485
 20
126.708369
 30
0.0
 11
279.49762
 21
127.009581
 31
0.0
  0
LINE
  5
167
  8
025
 10
278.462904
 20
126.121004
 30
0.0
 11
278.957485
 21
126.708369
 31
0.0
  0
LINE
  5
168
  8
025
 10
279.875047
 20
130.179851
 30
0.0
 11
279.937952
 21
130.708229
 31
0.0
  0
LINE
  5
169
  8
025
 10
279.966158
 20
129.607545
 30
0.0
 11
279.875047
 21
130.179851
 31
0.0
  0
LINE
  5
16A
  8
025
 10
280.180914
 20
129.18208
 30
0.0
 11
279.966158
 21
129.607545
 31
0.0
  0
LINE
  5
16B
  8
025
 10
278.452047
 20
128.036219
 30
0.0
 11
280.67333
 21
128.85953
 31
0.0
  0
LINE
  5
16C
  8
025
 10
280.85988
 20
129.534749
 30
0.0
 11
280.666271
 21
129.777306
 31
0.0
  0
LINE
  5
16D
  8
025
 10
280.67333
 20
128.85953
 30
0.0
 11
280.479721
 21
129.102086
 31
0.0
  0
LINE
  5
16E
  8
025
 10
280.744928
 20
126.562777
 30
0.0
 11
280.551319
 21
126.805334
 31
0.0
  0
LINE
  5
16F
  8
025
 10
280.375589
 20
130.679692
 30
0.0
 11
280.4667
 21
130.107386
 31
0.0
  0
LINE
  5
170
  8
025
 10
280.4667
 20
130.107386
 30
0.0
 11
280.666271
 21
129.777306
 31
0.0
  0
LINE
  5
171
  8
025
 10
280.660309
 20
129.864829
 30
0.0
 11
280.4667
 21
130.107386
 31
0.0
  0
LINE
  5
172
  8
025
 10
280.569198
 20
130.437135
 30
0.0
 11
280.375589
 21
130.679692
 31
0.0
  0
LINE
  5
173
  8
025
 10
280.67333
 20
128.85953
 30
0.0
 11
280.180914
 21
129.18208
 31
0.0
  0
LINE
  5
174
  8
025
 10
280.73549
 20
128.691823
 30
0.0
 11
278.514207
 21
127.868513
 31
0.0
  0
LINE
  5
175
  8
025
 10
280.479721
 20
129.102086
 30
0.0
 11
280.233963
 21
129.263067
 31
0.0
  0
LINE
  5
176
  8
025
 10
280.233963
 20
129.263067
 30
0.0
 11
280.09364
 21
129.354983
 31
0.0
  0
LINE
  5
177
  8
025
 10
280.551319
 20
126.805334
 30
0.0
 11
280.243288
 21
126.893189
 31
0.0
  0
LINE
  5
178
  8
025
 10
280.243288
 20
126.893189
 30
0.0
 11
279.657597
 21
126.87813
 31
0.0
  0
LINE
  5
179
  8
025
 10
279.657597
 20
126.87813
 30
0.0
 11
279.379937
 21
126.775216
 31
0.0
  0
LINE
  5
17A
  8
025
 10
279.379937
 20
126.775216
 30
0.0
 11
279.111896
 21
126.535624
 31
0.0
  0
LINE
  5
17B
  8
025
 10
279.111896
 20
126.535624
 30
0.0
 11
278.993816
 21
126.430077
 31
0.0
  0
LINE
  5
17C
  8
025
 10
279.187425
 20
126.18752
 30
0.0
 11
278.993816
 21
126.430077
 31
0.0
  0
LINE
  5
17D
  8
025
 10
279.573546
 20
126.532659
 30
0.0
 11
279.379937
 21
126.775216
 31
0.0
  0
LINE
  5
17E
  8
025
 10
279.851206
 20
126.635573
 30
0.0
 11
279.657597
 21
126.87813
 31
0.0
  0
LINE
  5
17F
  8
025
 10
280.436897
 20
126.650632
 30
0.0
 11
280.243288
 21
126.893189
 31
0.0
  0
LINE
  5
180
  8
025
 10
280.660309
 20
129.864829
 30
0.0
 11
280.85988
 21
129.534749
 31
0.0
  0
LINE
  5
181
  8
025
 10
280.569198
 20
130.437135
 30
0.0
 11
280.660309
 21
129.864829
 31
0.0
  0
LINE
  5
182
  8
025
 10
279.573546
 20
126.532659
 30
0.0
 11
279.187425
 21
126.18752
 31
0.0
  0
LINE
  5
183
  8
025
 10
279.851206
 20
126.635573
 30
0.0
 11
279.573546
 21
126.532659
 31
0.0
  0
LINE
  5
184
  8
025
 10
280.436897
 20
126.650632
 30
0.0
 11
279.851206
 21
126.635573
 31
0.0
  0
LINE
  5
185
  8
025
 10
280.744928
 20
126.562777
 30
0.0
 11
280.436897
 21
126.650632
 31
0.0
  0
LINE
  5
186
  8
025
 10
280.67333
 20
128.85953
 30
0.0
 11
278.452047
 21
128.036219
 31
0.0
  0
LINE
  5
187
  8
025
 10
280.180914
 20
129.18208
 30
0.0
 11
280.67333
 21
128.85953
 31
0.0
  0
LINE
  5
188
  8
025
 10
279.966158
 20
129.607545
 30
0.0
 11
280.180914
 21
129.18208
 31
0.0
  0
LINE
  5
189
  8
025
 10
279.875047
 20
130.179851
 30
0.0
 11
279.966158
 21
129.607545
 31
0.0
  0
LINE
  5
18A
  8
025
 10
279.937952
 20
130.708229
 30
0.0
 11
279.875047
 21
130.179851
 31
0.0
  0
LINE
  5
18B
  8
025
 10
280.660309
 20
129.864829
 30
0.0
 11
280.569198
 21
130.437135
 31
0.0
  0
LINE
  5
18C
  8
025
 10
280.85988
 20
129.534749
 30
0.0
 11
280.660309
 21
129.864829
 31
0.0
  0
LINE
  5
18D
  8
025
 10
280.744928
 20
126.562777
 30
0.0
 11
280.436897
 21
126.650632
 31
0.0
  0
LINE
  5
18E
  8
025
 10
280.436897
 20
126.650632
 30
0.0
 11
279.851206
 21
126.635573
 31
0.0
  0
LINE
  5
18F
  8
025
 10
279.851206
 20
126.635573
 30
0.0
 11
279.573546
 21
126.532659
 31
0.0
  0
LINE
  5
190
  8
025
 10
279.573546
 20
126.532659
 30
0.0
 11
279.187425
 21
126.18752
 31
0.0
  0
LINE
  5
191
  8
025
 10
278.462904
 20
126.121004
 30
0.0
 11
278.957485
 21
126.708369
 31
0.0
  0
LINE
  5
192
  8
025
 10
278.957485
 20
126.708369
 30
0.0
 11
279.49762
 21
127.009581
 31
0.0
  0
LINE
  5
193
  8
025
 10
279.49762
 20
127.009581
 30
0.0
 11
279.77528
 21
127.112494
 31
0.0
  0
LINE
  5
194
  8
025
 10
279.77528
 20
127.112494
 30
0.0
 11
280.345786
 21
127.222938
 31
0.0
  0
LINE
  5
195
  8
025
 10
280.345786
 20
127.222938
 30
0.0
 11
280.792648
 21
127.18654
 31
0.0
  0
LINE
  5
196
  8
025
 10
280.792648
 20
127.18654
 30
0.0
 11
281.269878
 21
126.959374
 31
0.0
  0
LINE
  5
197
  8
025
 10
280.85988
 20
129.534749
 30
0.0
 11
281.337111
 21
129.307583
 31
0.0
  0
LINE
  5
198
  8
025
 10
281.169408
 20
129.387411
 30
0.0
 11
281.249797
 21
128.882449
 31
0.0
  0
LINE
  5
199
  8
025
 10
281.249797
 20
128.882449
 30
0.0
 11
280.73549
 21
128.691823
 31
0.0
  0
LINE
  5
19A
  8
025
 10
281.337111
 20
129.307583
 30
0.0
 11
280.85988
 21
129.534749
 31
0.0
  0
LINE
  5
19B
  8
025
 10
280.792648
 20
127.18654
 30
0.0
 11
281.269878
 21
126.959374
 31
0.0
  0
LINE
  5
19C
  8
025
 10
279.937952
 20
130.708229
 30
0.0
 11
280.278517
 21
131.339521
 31
0.0
  0
LINE
  5
19D
  8
025
 10
280.453679
 20
131.112686
 30
0.0
 11
280.375589
 21
130.679692
 31
0.0
  0
LINE
  5
19E
  8
025
 10
280.647288
 20
130.870129
 30
0.0
 11
280.569198
 21
130.437135
 31
0.0
  0
LINE
  5
19F
  8
025
 10
280.278517
 20
131.339521
 30
0.0
 11
279.937952
 21
130.708229
 31
0.0
  0
LINE
  5
1A0
  8
025
 10
280.569198
 20
130.437135
 30
0.0
 11
280.647288
 21
130.870129
 31
0.0
  0
LINE
  5
1A1
  8
025
 10
284.620785
 20
127.101515
 30
0.0
 11
284.542696
 21
126.668522
 31
0.0
  0
LINE
  5
1A2
  8
025
 10
284.736305
 20
126.425965
 30
0.0
 11
284.542696
 21
126.668522
 31
0.0
  0
LINE
  5
1A3
  8
025
 10
284.814394
 20
126.858959
 30
0.0
 11
284.620785
 21
127.101515
 31
0.0
  0
LINE
  5
1A4
  8
025
 10
284.814394
 20
126.858959
 30
0.0
 11
284.736305
 21
126.425965
 31
0.0
  0
LINE
  5
1A5
  8
025
 10
284.692913
 20
127.622033
 30
0.0
 11
284.814394
 21
126.858959
 31
0.0
  0
LINE
  5
1A6
  8
025
 10
284.692913
 20
127.622033
 30
0.0
 11
284.814394
 21
126.858959
 31
0.0
  0
LINE
  5
1A7
  8
025
 10
284.814394
 20
126.858959
 30
0.0
 11
284.736305
 21
126.425965
 31
0.0
  0
LINE
  5
1A8
  8
025
 10
283.345803
 20
131.466273
 30
0.0
 11
283.146232
 21
131.796353
 31
0.0
  0
LINE
  5
1A9
  8
025
 10
283.436914
 20
130.893967
 30
0.0
 11
283.345803
 21
131.466273
 31
0.0
  0
LINE
  5
1AA
  8
025
 10
284.131064
 20
131.151252
 30
0.0
 11
283.937454
 21
131.393808
 31
0.0
  0
LINE
  5
1AB
  8
025
 10
283.937454
 20
131.393808
 30
0.0
 11
283.874551
 21
130.86543
 31
0.0
  0
LINE
  5
1AC
  8
025
 10
284.039953
 20
131.723558
 30
0.0
 11
284.131064
 21
131.151252
 31
0.0
  0
LINE
  5
1AD
  8
025
 10
284.131064
 20
131.151252
 30
0.0
 11
284.039953
 21
131.723558
 31
0.0
  0
LINE
  5
1AE
  8
025
 10
283.345803
 20
131.466273
 30
0.0
 11
283.436914
 21
130.893967
 31
0.0
  0
LINE
  5
1AF
  8
025
 10
283.146232
 20
131.796353
 30
0.0
 11
283.345803
 21
131.466273
 31
0.0
  0
LINE
  5
1B0
  8
025
 10
283.831727
 20
128.413976
 30
0.0
 11
284.154942
 21
128.230737
 31
0.0
  0
LINE
  5
1B1
  8
025
 10
283.384865
 20
128.450374
 30
0.0
 11
283.831727
 21
128.413976
 31
0.0
  0
LINE
  5
1B2
  8
025
 10
282.95319
 20
128.391387
 30
0.0
 11
283.384865
 21
128.450374
 31
0.0
  0
LINE
  5
1B3
  8
025
 10
284.013948
 20
127.269364
 30
0.0
 11
283.799192
 21
127.694829
 31
0.0
  0
LINE
  5
1B4
  8
025
 10
284.105059
 20
126.697059
 30
0.0
 11
284.013948
 21
127.269364
 31
0.0
  0
LINE
  5
1B5
  8
025
 10
284.042154
 20
126.16868
 30
0.0
 11
284.105059
 21
126.697059
 31
0.0
  0
LINE
  5
1B6
  8
025
 10
284.154942
 20
128.230737
 30
0.0
 11
284.493343
 21
127.952113
 31
0.0
  0
LINE
  5
1B7
  8
025
 10
283.126718
 20
130.071907
 30
0.0
 11
283.358824
 21
130.460974
 31
0.0
  0
LINE
  5
1B8
  8
025
 10
282.601768
 20
129.675311
 30
0.0
 11
283.126718
 21
130.071907
 31
0.0
  0
LINE
  5
1B9
  8
025
 10
282.692878
 20
129.103005
 30
0.0
 11
282.601768
 21
129.675311
 31
0.0
  0
LINE
  5
1BA
  8
025
 10
283.799192
 20
127.694829
 30
0.0
 11
283.66542
 21
127.86242
 31
0.0
  0
LINE
  5
1BB
  8
025
 10
283.66542
 20
127.86242
 30
0.0
 11
283.605583
 21
127.937386
 31
0.0
  0
LINE
  5
1BC
  8
025
 10
283.629991
 20
127.834141
 30
0.0
 11
283.321961
 21
127.921996
 31
0.0
  0
LINE
  5
1BD
  8
025
 10
283.217829
 20
129.499601
 30
0.0
 11
283.02422
 21
129.742158
 31
0.0
  0
LINE
  5
1BE
  8
025
 10
283.727594
 20
129.991581
 30
0.0
 11
283.533985
 21
130.234138
 31
0.0
  0
LINE
  5
1BF
  8
025
 10
283.799192
 20
127.694829
 30
0.0
 11
283.629991
 21
127.834141
 31
0.0
  0
LINE
  5
1C0
  8
025
 10
283.605583
 20
127.937386
 30
0.0
 11
283.436382
 21
128.076698
 31
0.0
  0
LINE
  5
1C1
  8
025
 10
283.436382
 20
128.076698
 30
0.0
 11
283.128352
 21
128.164552
 31
0.0
  0
LINE
  5
1C2
  8
025
 10
283.128352
 20
128.164552
 30
0.0
 11
282.835506
 21
128.157023
 31
0.0
  0
LINE
  5
1C3
  8
025
 10
283.029115
 20
127.914466
 30
0.0
 11
282.473795
 21
127.708638
 31
0.0
  0
LINE
  5
1C4
  8
025
 10
283.321961
 20
127.921996
 30
0.0
 11
283.029115
 21
127.914466
 31
0.0
  0
LINE
  5
1C5
  8
025
 10
283.533985
 20
130.234138
 30
0.0
 11
283.242059
 21
129.952397
 31
0.0
  0
LINE
  5
1C6
  8
025
 10
283.242059
 20
129.952397
 30
0.0
 11
283.02422
 21
129.742158
 31
0.0
  0
LINE
  5
1C7
  8
025
 10
283.02422
 20
129.742158
 30
0.0
 11
282.723122
 21
129.514681
 31
0.0
  0
LINE
  5
1C8
  8
025
 10
282.723122
 20
129.514681
 30
0.0
 11
282.637623
 21
129.450087
 31
0.0
  0
LINE
  5
1C9
  8
025
 10
284.399839
 20
128.0291
 30
0.0
 11
284.458956
 21
127.931323
 31
0.0
  0
LINE
  5
1CA
  8
025
 10
284.458956
 20
127.931323
 30
0.0
 11
284.499304
 21
127.86459
 31
0.0
  0
LINE
  5
1CB
  8
025
 10
283.029115
 20
127.914466
 30
0.0
 11
282.835506
 21
128.157023
 31
0.0
  0
LINE
  5
1CC
  8
025
 10
283.321961
 20
127.921996
 30
0.0
 11
283.128352
 21
128.164552
 31
0.0
  0
LINE
  5
1CD
  8
025
 10
283.629991
 20
127.834141
 30
0.0
 11
283.436382
 21
128.076698
 31
0.0
  0
LINE
  5
1CE
  8
025
 10
283.217829
 20
129.499601
 30
0.0
 11
282.692878
 21
129.103005
 31
0.0
  0
LINE
  5
1CF
  8
025
 10
283.727594
 20
129.991581
 30
0.0
 11
283.217829
 21
129.499601
 31
0.0
  0
LINE
  5
1D0
  8
025
 10
284.06816
 20
130.622873
 30
0.0
 11
283.727594
 21
129.991581
 31
0.0
  0
LINE
  5
1D1
  8
025
 10
283.727594
 20
129.991581
 30
0.0
 11
284.06816
 21
130.622873
 31
0.0
  0
LINE
  5
1D2
  8
025
 10
283.217829
 20
129.499601
 30
0.0
 11
283.727594
 21
129.991581
 31
0.0
  0
LINE
  5
1D3
  8
025
 10
282.692878
 20
129.103005
 30
0.0
 11
283.217829
 21
129.499601
 31
0.0
  0
LINE
  5
1D4
  8
025
 10
282.601768
 20
129.675311
 30
0.0
 11
282.692878
 21
129.103005
 31
0.0
  0
LINE
  5
1D5
  8
025
 10
283.126718
 20
130.071907
 30
0.0
 11
282.601768
 21
129.675311
 31
0.0
  0
LINE
  5
1D6
  8
025
 10
283.358824
 20
130.460974
 30
0.0
 11
283.126718
 21
130.071907
 31
0.0
  0
LINE
  5
1D7
  8
025
 10
283.831727
 20
128.413976
 30
0.0
 11
284.154942
 21
128.230737
 31
0.0
  0
LINE
  5
1D8
  8
025
 10
284.154942
 20
128.230737
 30
0.0
 11
284.493343
 21
127.952113
 31
0.0
  0
LINE
  5
1D9
  8
025
 10
284.042154
 20
126.16868
 30
0.0
 11
284.105059
 21
126.697059
 31
0.0
  0
LINE
  5
1DA
  8
025
 10
284.105059
 20
126.697059
 30
0.0
 11
284.013948
 21
127.269364
 31
0.0
  0
LINE
  5
1DB
  8
025
 10
284.013948
 20
127.269364
 30
0.0
 11
283.799192
 21
127.694829
 31
0.0
  0
LINE
  5
1DC
  8
025
 10
283.799192
 20
127.694829
 30
0.0
 11
283.629991
 21
127.834141
 31
0.0
  0
LINE
  5
1DD
  8
025
 10
283.629991
 20
127.834141
 30
0.0
 11
283.321961
 21
127.921996
 31
0.0
  0
LINE
  5
1DE
  8
025
 10
283.321961
 20
127.921996
 30
0.0
 11
283.029115
 21
127.914466
 31
0.0
  0
LINE
  5
1DF
  8
025
 10
283.029115
 20
127.914466
 30
0.0
 11
282.473795
 21
127.708638
 31
0.0
  0
LINE
  5
1E0
  8
025
 10
282.95319
 20
128.391387
 30
0.0
 11
283.384865
 21
128.450374
 31
0.0
  0
LINE
  5
1E1
  8
025
 10
283.384865
 20
128.450374
 30
0.0
 11
283.831727
 21
128.413976
 31
0.0
  0
LINE
  5
1E2
  8
025
 10
283.358824
 20
130.460974
 30
0.0
 11
283.436914
 21
130.893967
 31
0.0
  0
LINE
  5
1E3
  8
025
 10
284.06816
 20
130.622873
 30
0.0
 11
283.874551
 21
130.86543
 31
0.0
  0
LINE
  5
1E4
  8
025
 10
283.874551
 20
130.86543
 30
0.0
 11
283.533985
 21
130.234138
 31
0.0
  0
LINE
  5
1E5
  8
025
 10
284.131064
 20
131.151252
 30
0.0
 11
284.06816
 21
130.622873
 31
0.0
  0
LINE
  5
1E6
  8
025
 10
284.06816
 20
130.622873
 30
0.0
 11
284.131064
 21
131.151252
 31
0.0
  0
LINE
  5
1E7
  8
025
 10
283.436914
 20
130.893967
 30
0.0
 11
283.358824
 21
130.460974
 31
0.0
  0
LINE
  5
1E8
  8
025
 10
284.542696
 20
126.668522
 30
0.0
 11
284.325775
 21
126.18407
 31
0.0
  0
LINE
  5
1E9
  8
025
 10
284.499304
 20
127.86459
 30
0.0
 11
284.620785
 21
127.101515
 31
0.0
  0
LINE
  5
1EA
  8
025
 10
284.692913
 20
127.622033
 30
0.0
 11
284.499304
 21
127.86459
 31
0.0
  0
LINE
  5
1EB
  8
025
 10
284.493343
 20
127.952113
 30
0.0
 11
284.692913
 21
127.622033
 31
0.0
  0
LINE
  5
1EC
  8
025
 10
284.493343
 20
127.952113
 30
0.0
 11
284.692913
 21
127.622033
 31
0.0
  0
LINE
  5
1ED
  8
025
 10
282.007384
 20
132.485382
 30
0.0
 11
282.731905
 21
132.551899
 31
0.0
  0
LINE
  5
1EE
  8
025
 10
282.629407
 20
132.222149
 30
0.0
 11
282.182546
 21
132.258547
 31
0.0
  0
LINE
  5
1EF
  8
025
 10
282.823016
 20
131.979592
 30
0.0
 11
282.376155
 21
132.01599
 31
0.0
  0
LINE
  5
1F0
  8
025
 10
282.731905
 20
132.551899
 30
0.0
 11
282.007384
 21
132.485382
 31
0.0
  0
LINE
  5
1F1
  8
025
 10
282.376155
 20
132.01599
 30
0.0
 11
282.823016
 21
131.979592
 31
0.0
  0
LINE
  5
1F2
  8
025
 10
281.452063
 20
132.279555
 30
0.0
 11
282.007384
 21
132.485382
 31
0.0
  0
LINE
  5
1F3
  8
025
 10
281.750871
 20
132.199561
 30
0.0
 11
281.514223
 21
132.111848
 31
0.0
  0
LINE
  5
1F4
  8
025
 10
281.514223
 20
132.111848
 30
0.0
 11
281.47321
 21
132.096647
 31
0.0
  0
LINE
  5
1F5
  8
025
 10
281.94448
 20
131.957004
 30
0.0
 11
281.750871
 21
132.199561
 31
0.0
  0
LINE
  5
1F6
  8
025
 10
282.376155
 20
132.01599
 30
0.0
 11
282.182546
 21
132.258547
 31
0.0
  0
LINE
  5
1F7
  8
025
 10
282.182546
 20
132.258547
 30
0.0
 11
281.750871
 21
132.199561
 31
0.0
  0
LINE
  5
1F8
  8
025
 10
282.376155
 20
132.01599
 30
0.0
 11
281.94448
 21
131.957004
 31
0.0
  0
LINE
  5
1F9
  8
025
 10
282.007384
 20
132.485382
 30
0.0
 11
281.452063
 21
132.279555
 31
0.0
  0
LINE
  5
1FA
  8
025
 10
281.94448
 20
131.957004
 30
0.0
 11
282.376155
 21
132.01599
 31
0.0
  0
LINE
  5
1FB
  8
025
 10
283.332781
 20
132.471573
 30
0.0
 11
283.825198
 21
132.149023
 31
0.0
  0
LINE
  5
1FC
  8
025
 10
282.731905
 20
132.551899
 30
0.0
 11
283.332781
 21
132.471573
 31
0.0
  0
LINE
  5
1FD
  8
025
 10
282.823016
 20
131.979592
 30
0.0
 11
282.629407
 21
132.222149
 31
0.0
  0
LINE
  5
1FE
  8
025
 10
283.718862
 20
132.218676
 30
0.0
 11
283.768472
 21
132.12039
 31
0.0
  0
LINE
  5
1FF
  8
025
 10
283.768472
 20
132.12039
 30
0.0
 11
283.846344
 21
131.966114
 31
0.0
  0
LINE
  5
200
  8
025
 10
282.952623
 20
132.03891
 30
0.0
 11
282.629407
 21
132.222149
 31
0.0
  0
LINE
  5
201
  8
025
 10
283.332781
 20
132.471573
 30
0.0
 11
282.731905
 21
132.551899
 31
0.0
  0
LINE
  5
202
  8
025
 10
283.825198
 20
132.149023
 30
0.0
 11
283.332781
 21
132.471573
 31
0.0
  0
POLYLINE
  5
203
  8
05
 66
     1
 10
0.0
 20
0.0
 30
0.0
  0
VERTEX
  5
521
  8
05
 10
297.251201
 20
142.782027
 30
0.0
  0
VERTEX
  5
522
  8
05
 10
295.568667
 20
142.034039
 30
0.0
  0
VERTEX
  5
523
  8
05
 10
293.964953
 20
141.0696
 30
0.0
  0
VERTEX
  5
524
  8
05
 10
292.479549
 20
139.91246
 30
0.0
  0
VERTEX
  5
525
  8
05
 10
291.149029
 20
138.59111
 30
0.0
  0
VERTEX
  5
526
  8
05
 10
290.006155
 20
137.138087
 30
0.0
  0
VERTEX
  5
527
  8
05
 10
289.079069
 20
135.589168
 30
0.0
  0
VERTEX
  5
528
  8
05
 10
288.3906
 20
133.982494
 30
0.0
  0
VERTEX
  5
529
  8
05
 10
287.957698
 20
132.357625
 30
0.0
  0
VERTEX
  5
52A
  8
05
 10
287.791024
 20
130.754572
 30
0.0
  0
VERTEX
  5
52B
  8
05
 10
287.894682
 20
129.212807
 30
0.0
  0
SEQEND
  5
52C
  8
05
  0
LINE
  5
204
  8
05
 10
295.481684
 20
133.086727
 30
0.0
 11
287.825028
 21
130.248815
 31
0.0
  0
LINE
  5
205
  8
05
 10
288.745049
 20
123.871287
 30
0.0
 11
287.894682
 21
129.212807
 31
0.0
  0
LINE
  5
206
  8
05
 10
294.496552
 20
136.8408
 30
0.0
 11
294.980575
 21
136.234408
 31
0.0
  0
POLYLINE
  5
207
  8
05
 66
     1
 10
0.0
 20
0.0
 30
0.0
  0
VERTEX
  5
52D
  8
05
 10
294.980575
 20
136.234408
 30
0.0
  0
VERTEX
  5
52E
  8
05
 10
294.371908
 20
136.076303
 30
0.0
  0
VERTEX
  5
52F
  8
05
 10
293.77828
 20
136.054854
 30
0.0
  0
VERTEX
  5
530
  8
05
 10
293.234197
 20
136.171331
 30
0.0
  0
VERTEX
  5
531
  8
05
 10
292.771292
 20
136.418981
 30
0.0
  0
VERTEX
  5
532
  8
05
 10
292.473998
 20
136.706876
 30
0.0
  0
SEQEND
  5
533
  8
05
  0
LINE
  5
208
  8
05
 10
294.490894
 20
136.876339
 30
0.0
 11
292.589332
 21
139.258646
 31
0.0
  0
LINE
  5
209
  8
05
 10
294.490894
 20
136.876339
 30
0.0
 11
292.123418
 21
137.928435
 31
0.0
  0
POLYLINE
  5
20A
  8
05
 66
     1
 10
0.0
 20
0.0
 30
0.0
  0
VERTEX
  5
534
  8
05
 10
292.473998
 20
136.706876
 30
0.0
  0
VERTEX
  5
535
  8
05
 10
292.416482
 20
136.783419
 30
0.0
  0
VERTEX
  5
536
  8
05
 10
292.190402
 20
137.243467
 30
0.0
  0
VERTEX
  5
537
  8
05
 10
292.106198
 20
137.772384
 30
0.0
  0
VERTEX
  5
538
  8
05
 10
292.168768
 20
138.33942
 30
0.0
  0
VERTEX
  5
539
  8
05
 10
292.374467
 20
138.911608
 30
0.0
  0
VERTEX
  5
53A
  8
05
 10
292.711329
 20
139.455689
 30
0.0
  0
VERTEX
  5
53B
  8
05
 10
293.159762
 20
139.940038
 30
0.0
  0
VERTEX
  5
53C
  8
05
 10
293.693686
 20
140.336513
 30
0.0
  0
VERTEX
  5
53D
  8
05
 10
294.28206
 20
140.622086
 30
0.0
  0
SEQEND
  5
53E
  8
05
  0
LINE
  5
20B
  8
05
 10
294.496552
 20
136.8408
 30
0.0
 11
294.490894
 21
136.876339
 31
0.0
  0
LINE
  5
20C
  8
05
 10
292.301234
 20
137.017936
 30
0.0
 11
292.56494
 21
136.87681
 31
0.0
  0
POLYLINE
  5
20D
  8
05
 66
     1
 10
0.0
 20
0.0
 30
0.0
  0
VERTEX
  5
53F
  8
05
 10
292.56494
 20
136.87681
 30
0.0
  0
VERTEX
  5
540
  8
05
 10
292.749926
 20
136.777813
 30
0.0
  0
VERTEX
  5
541
  8
05
 10
293.293994
 20
136.661268
 30
0.0
  0
VERTEX
  5
542
  8
05
 10
293.8877
 20
136.682667
 30
0.0
  0
VERTEX
  5
543
  8
05
 10
294.496552
 20
136.8408
 30
0.0
  0
SEQEND
  5
544
  8
05
  0
LINE
  5
20E
  8
05
 10
294.28206
 20
140.622086
 30
0.0
 11
294.189334
 21
141.204538
 31
0.0
  0
LINE
  5
20F
  8
05
 10
295.481684
 20
133.086727
 30
0.0
 11
294.980575
 21
136.234408
 31
0.0
  0
POLYLINE
  5
210
  8
05
 66
     1
 10
0.0
 20
0.0
 30
0.0
  0
VERTEX
  5
545
  8
05
 10
333.419954
 20
202.104655
 30
0.0
  0
VERTEX
  5
546
  8
05
 10
333.596629
 20
202.135221
 30
0.0
  0
VERTEX
  5
547
  8
05
 10
334.006303
 20
202.090438
 30
0.0
  0
VERTEX
  5
548
  8
05
 10
334.60659
 20
201.919712
 30
0.0
  0
VERTEX
  5
549
  8
05
 10
335.39945
 20
201.603822
 30
0.0
  0
SEQEND
  5
54A
  8
05
  0
LINE
  5
211
  8
035
 10
332.832851
 20
199.809704
 30
0.0
 11
340.268976
 21
196.50512
 31
0.0
  0
POLYLINE
  5
212
  8
05
 66
     1
 10
0.0
 20
0.0
 30
0.0
  0
VERTEX
  5
54B
  8
05
 10
337.819565
 20
198.571864
 30
0.0
  0
VERTEX
  5
54C
  8
05
 10
336.938066
 20
198.999929
 30
0.0
  0
VERTEX
  5
54D
  8
05
 10
336.102368
 20
199.466914
 30
0.0
  0
VERTEX
  5
54E
  8
05
 10
335.353951
 20
199.936333
 30
0.0
  0
VERTEX
  5
54F
  8
05
 10
334.711041
 20
200.386405
 30
0.0
  0
VERTEX
  5
550
  8
05
 10
334.189482
 20
200.797057
 30
0.0
  0
VERTEX
  5
551
  8
05
 10
333.792998
 20
201.156048
 30
0.0
  0
VERTEX
  5
552
  8
05
 10
333.512104
 20
201.463523
 30
0.0
  0
VERTEX
  5
553
  8
05
 10
333.340295
 20
201.722342
 30
0.0
  0
VERTEX
  5
554
  8
05
 10
333.283362
 20
201.930448
 30
0.0
  0
VERTEX
  5
555
  8
05
 10
333.361221
 20
202.075072
 30
0.0
  0
VERTEX
  5
556
  8
05
 10
333.419954
 20
202.104655
 30
0.0
  0
SEQEND
  5
557
  8
05
  0
LINE
  5
213
  8
05
 10
328.652426
 20
211.058522
 30
0.0
 11
336.739826
 21
200.926497
 31
0.0
  0
LINE
  5
214
  8
025
 10
334.46108
 20
146.977534
 30
0.0
 11
334.970845
 21
147.469515
 31
0.0
  0
LINE
  5
215
  8
025
 10
334.558683
 20
149.134975
 30
0.0
 11
334.866713
 21
149.04712
 31
0.0
  0
LINE
  5
216
  8
025
 10
335.26316
 20
144.659774
 30
0.0
 11
334.662284
 21
144.740099
 31
0.0
  0
LINE
  5
217
  8
025
 10
335.041875
 20
148.820285
 30
0.0
 11
334.6102
 21
148.761299
 31
0.0
  0
LINE
  5
218
  8
025
 10
334.75176
 20
146.075148
 30
0.0
 11
334.842871
 21
145.502842
 31
0.0
  0
LINE
  5
219
  8
025
 10
334.82985
 20
146.508142
 30
0.0
 11
334.75176
 21
146.075148
 31
0.0
  0
LINE
  5
21A
  8
025
 10
334.868347
 20
147.139766
 30
0.0
 11
334.636241
 21
146.750699
 31
0.0
  0
LINE
  5
21B
  8
025
 10
334.649262
 20
145.745399
 30
0.0
 11
334.848833
 21
145.415319
 31
0.0
  0
LINE
  5
21C
  8
025
 10
334.803809
 20
148.518742
 30
0.0
 11
334.356947
 21
148.555139
 31
0.0
  0
LINE
  5
21D
  8
025
 10
334.803809
 20
148.518742
 30
0.0
 11
334.6102
 21
148.761299
 31
0.0
  0
LINE
  5
21E
  8
025
 10
334.842871
 20
145.502842
 30
0.0
 11
334.649262
 21
145.745399
 31
0.0
  0
LINE
  5
21F
  8
025
 10
334.82985
 20
146.508142
 30
0.0
 11
334.636241
 21
146.750699
 31
0.0
  0
LINE
  5
220
  8
025
 10
334.558683
 20
149.134975
 30
0.0
 11
334.866713
 21
149.04712
 31
0.0
  0
LINE
  5
221
  8
025
 10
334.803809
 20
148.518742
 30
0.0
 11
334.356947
 21
148.555139
 31
0.0
  0
LINE
  5
222
  8
025
 10
334.970845
 20
147.469515
 30
0.0
 11
334.46108
 21
146.977534
 31
0.0
  0
LINE
  5
223
  8
025
 10
334.75176
 20
146.075148
 30
0.0
 11
334.82985
 21
146.508142
 31
0.0
  0
LINE
  5
224
  8
025
 10
334.842871
 20
145.502842
 30
0.0
 11
334.75176
 21
146.075148
 31
0.0
  0
LINE
  5
225
  8
025
 10
334.855893
 20
144.497543
 30
0.0
 11
334.363476
 21
144.820093
 31
0.0
  0
LINE
  5
226
  8
025
 10
334.855893
 20
144.497543
 30
0.0
 11
334.662284
 21
144.740099
 31
0.0
  0
LINE
  5
227
  8
025
 10
334.363476
 20
144.820093
 30
0.0
 11
334.855893
 21
144.497543
 31
0.0
  0
LINE
  5
228
  8
035
 10
262.635899
 20
188.250054
 30
0.0
 11
281.754838
 21
195.336419
 31
0.0
  0
LINE
  5
229
  8
035
 10
269.563299
 20
176.359078
 30
0.0
 11
271.317206
 21
177.009157
 31
0.0
  0
LINE
  5
22A
  8
05
 10
257.946749
 20
190.912479
 30
0.0
 11
279.044309
 21
198.732212
 31
0.0
  0
LINE
  5
22B
  8
05
 10
263.755024
 20
183.635778
 30
0.0
 11
284.852585
 21
191.455512
 31
0.0
  0
LINE
  5
22C
  8
035
 10
282.334909
 20
191.692739
 30
0.0
 11
257.083087
 21
182.333244
 31
0.0
  0
LINE
  5
22D
  8
05
 10
257.946749
 20
190.912479
 30
0.0
 11
252.332838
 21
182.770948
 31
0.0
  0
LINE
  5
22E
  8
035
 10
260.657277
 20
187.516686
 30
0.0
 11
257.946749
 21
190.912479
 31
0.0
  0
LINE
  5
22F
  8
05
 10
249.766867
 20
171.099376
 30
0.0
 11
232.042998
 21
164.53009
 31
0.0
  0
LINE
  5
230
  8
05
 10
251.852118
 20
165.47339
 30
0.0
 11
234.12825
 21
158.904103
 31
0.0
  0
LINE
  5
231
  8
05
 10
225.920328
 20
155.985176
 30
0.0
 11
215.620542
 21
152.167598
 31
0.0
  0
POLYLINE
  5
232
  8
025
 66
     1
 10
0.0
 20
0.0
 30
0.0
  0
VERTEX
  5
558
  8
025
 10
216.545095
 20
143.527639
 30
0.0
  0
VERTEX
  5
559
  8
025
 10
216.517639
 20
143.589131
 30
0.0
  0
VERTEX
  5
55A
  8
025
 10
215.900823
 20
144.812071
 30
0.0
  0
VERTEX
  5
55B
  8
025
 10
215.272679
 20
145.906142
 30
0.0
  0
VERTEX
  5
55C
  8
025
 10
214.650342
 20
146.8415
 30
0.0
  0
VERTEX
  5
55D
  8
025
 10
214.050788
 20
147.592632
 30
0.0
  0
VERTEX
  5
55E
  8
025
 10
213.49037
 20
148.139048
 30
0.0
  0
VERTEX
  5
55F
  8
025
 10
212.984376
 20
148.465843
 30
0.0
  0
VERTEX
  5
560
  8
025
 10
212.546608
 20
148.564104
 30
0.0
  0
VERTEX
  5
561
  8
025
 10
212.189006
 20
148.43115
 30
0.0
  0
VERTEX
  5
562
  8
025
 10
212.09351
 20
148.340421
 30
0.0
  0
SEQEND
  5
563
  8
025
  0
LINE
  5
233
  8
05
 10
215.289263
 20
151.934174
 30
0.0
 11
212.093363
 21
148.340415
 31
0.0
  0
POLYLINE
  5
234
  8
05
 66
     1
 10
0.0
 20
0.0
 30
0.0
  0
VERTEX
  5
564
  8
05
 10
212.09351
 20
148.340421
 30
0.0
  0
VERTEX
  5
565
  8
05
 10
211.921326
 20
148.070608
 30
0.0
  0
VERTEX
  5
566
  8
05
 10
211.750869
 20
147.492313
 30
0.0
  0
VERTEX
  5
567
  8
05
 10
211.682285
 20
146.712038
 30
0.0
  0
VERTEX
  5
568
  8
05
 10
211.717444
 20
145.751068
 30
0.0
  0
VERTEX
  5
569
  8
05
 10
211.855387
 20
144.635616
 30
0.0
  0
SEQEND
  5
56A
  8
05
  0
POLYLINE
  5
235
  8
025
 66
     1
 10
0.0
 20
0.0
 30
0.0
  0
VERTEX
  5
56B
  8
025
 10
219.482732
 20
148.527569
 30
0.0
  0
VERTEX
  5
56C
  8
025
 10
218.842735
 20
149.55479
 30
0.0
  0
VERTEX
  5
56D
  8
025
 10
218.113413
 20
150.556867
 30
0.0
  0
VERTEX
  5
56E
  8
025
 10
217.419239
 20
151.338168
 30
0.0
  0
VERTEX
  5
56F
  8
025
 10
216.777305
 20
151.879456
 30
0.0
  0
VERTEX
  5
570
  8
025
 10
216.203418
 20
152.167401
 30
0.0
  0
VERTEX
  5
571
  8
025
 10
215.711708
 20
152.194914
 30
0.0
  0
VERTEX
  5
572
  8
025
 10
215.620542
 20
152.167598
 30
0.0
  0
SEQEND
  5
573
  8
025
  0
POLYLINE
  5
236
  8
025
 66
     1
 10
0.0
 20
0.0
 30
0.0
  0
VERTEX
  5
574
  8
025
 10
221.654681
 20
144.117872
 30
0.0
  0
VERTEX
  5
575
  8
025
 10
221.060337
 20
145.494065
 30
0.0
  0
VERTEX
  5
576
  8
025
 10
220.43794
 20
146.778499
 30
0.0
  0
SEQEND
  5
577
  8
025
  0
LINE
  5
237
  8
05
 10
215.620542
 20
152.167598
 30
0.0
 11
215.289263
 21
151.934174
 31
0.0
  0
POLYLINE
  5
238
  8
025
 66
     1
 10
0.0
 20
0.0
 30
0.0
  0
VERTEX
  5
578
  8
025
 10
232.887256
 20
153.3779
 30
0.0
  0
VERTEX
  5
579
  8
025
 10
232.187529
 20
154.500989
 30
0.0
  0
VERTEX
  5
57A
  8
025
 10
231.458208
 20
155.503066
 30
0.0
  0
VERTEX
  5
57B
  8
025
 10
230.764033
 20
156.284367
 30
0.0
  0
VERTEX
  5
57C
  8
025
 10
230.122099
 20
156.825655
 30
0.0
  0
VERTEX
  5
57D
  8
025
 10
229.548212
 20
157.1136
 30
0.0
  0
VERTEX
  5
57E
  8
025
 10
229.056503
 20
157.141113
 30
0.0
  0
VERTEX
  5
57F
  8
025
 10
228.965336
 20
157.113797
 30
0.0
  0
SEQEND
  5
580
  8
025
  0
POLYLINE
  5
239
  8
025
 66
     1
 10
0.0
 20
0.0
 30
0.0
  0
VERTEX
  5
581
  8
025
 10
234.825141
 20
149.467739
 30
0.0
  0
VERTEX
  5
582
  8
025
 10
234.405131
 20
150.440264
 30
0.0
  0
VERTEX
  5
583
  8
025
 10
233.72202
 20
151.849992
 30
0.0
  0
SEQEND
  5
584
  8
025
  0
LINE
  5
23A
  8
05
 10
233.672281
 20
158.858409
 30
0.0
 11
228.965336
 21
157.113797
 31
0.0
  0
POLYLINE
  5
23B
  8
05
 66
     1
 10
0.0
 20
0.0
 30
0.0
  0
VERTEX
  5
585
  8
05
 10
226.782025
 20
155.872608
 30
0.0
  0
VERTEX
  5
586
  8
05
 10
226.503203
 20
155.984979
 30
0.0
  0
VERTEX
  5
587
  8
05
 10
226.011494
 20
156.012492
 30
0.0
  0
VERTEX
  5
588
  8
05
 10
225.920328
 20
155.985176
 30
0.0
  0
SEQEND
  5
589
  8
05
  0
LINE
  5
23C
  8
05
 10
227.714528
 20
155.403914
 30
0.0
 11
226.782025
 21
155.872608
 31
0.0
  0
LINE
  5
23D
  8
05
 10
228.522838
 20
156.105135
 30
0.0
 11
227.254617
 21
155.635074
 31
0.0
  0
LINE
  5
23E
  8
05
 10
228.385167
 20
156.466807
 30
0.0
 11
228.181553
 21
155.978639
 31
0.0
  0
POLYLINE
  5
23F
  8
05
 66
     1
 10
0.0
 20
0.0
 30
0.0
  0
VERTEX
  5
58A
  8
05
 10
228.965336
 20
157.113797
 30
0.0
  0
VERTEX
  5
58B
  8
05
 10
228.659078
 20
156.907516
 30
0.0
  0
VERTEX
  5
58C
  8
05
 10
228.385167
 20
156.466807
 30
0.0
  0
SEQEND
  5
58D
  8
05
  0
POLYLINE
  5
240
  8
05
 66
     1
 10
0.0
 20
0.0
 30
0.0
  0
VERTEX
  5
58E
  8
05
 10
230.467189
 20
162.082431
 30
0.0
  0
VERTEX
  5
58F
  8
05
 10
230.538841
 20
161.722769
 30
0.0
  0
VERTEX
  5
590
  8
05
 10
230.643325
 20
161.333771
 30
0.0
  0
VERTEX
  5
591
  8
05
 10
230.776072
 20
160.93244
 30
0.0
  0
VERTEX
  5
592
  8
05
 10
230.931282
 20
160.536315
 30
0.0
  0
VERTEX
  5
593
  8
05
 10
231.10217
 20
160.16271
 30
0.0
  0
VERTEX
  5
594
  8
05
 10
231.281269
 20
159.827951
 30
0.0
  0
VERTEX
  5
595
  8
05
 10
231.46075
 20
159.54667
 30
0.0
  0
VERTEX
  5
596
  8
05
 10
231.632771
 20
159.33116
 30
0.0
  0
VERTEX
  5
597
  8
05
 10
231.746026
 20
159.223577
 30
0.0
  0
SEQEND
  5
598
  8
05
  0
POLYLINE
  5
241
  8
025
 66
     1
 10
0.0
 20
0.0
 30
0.0
  0
VERTEX
  5
599
  8
025
 10
230.44474
 20
162.736572
 30
0.0
  0
VERTEX
  5
59A
  8
025
 10
230.472602
 20
162.838667
 30
0.0
  0
VERTEX
  5
59B
  8
025
 10
230.5476
 20
162.946383
 30
0.0
  0
VERTEX
  5
59C
  8
025
 10
230.655046
 20
162.971287
 30
0.0
  0
VERTEX
  5
59D
  8
025
 10
230.790244
 20
162.91229
 30
0.0
  0
VERTEX
  5
59E
  8
025
 10
230.947285
 20
162.77197
 30
0.0
  0
VERTEX
  5
59F
  8
025
 10
231.119305
 20
162.556461
 30
0.0
  0
VERTEX
  5
5A0
  8
025
 10
231.298786
 20
162.27518
 30
0.0
  0
VERTEX
  5
5A1
  8
025
 10
231.477885
 20
161.940421
 30
0.0
  0
VERTEX
  5
5A2
  8
025
 10
231.648774
 20
161.566815
 30
0.0
  0
VERTEX
  5
5A3
  8
025
 10
231.803983
 20
161.17069
 30
0.0
  0
VERTEX
  5
5A4
  8
025
 10
231.936731
 20
160.769359
 30
0.0
  0
VERTEX
  5
5A5
  8
025
 10
232.041214
 20
160.380362
 30
0.0
  0
VERTEX
  5
5A6
  8
025
 10
232.112867
 20
160.020699
 30
0.0
  0
SEQEND
  5
5A7
  8
025
  0
POLYLINE
  5
242
  8
025
 66
     1
 10
0.0
 20
0.0
 30
0.0
  0
VERTEX
  5
5A8
  8
025
 10
231.168228
 20
163.906628
 30
0.0
  0
VERTEX
  5
5A9
  8
025
 10
231.26223
 20
163.94129
 30
0.0
  0
VERTEX
  5
5AA
  8
025
 10
231.420468
 20
163.903365
 30
0.0
  0
VERTEX
  5
5AB
  8
025
 10
231.607126
 20
163.76824
 30
0.0
  0
VERTEX
  5
5AC
  8
025
 10
231.815033
 20
163.541106
 30
0.0
  0
VERTEX
  5
5AD
  8
025
 10
232.036197
 20
163.230693
 30
0.0
  0
VERTEX
  5
5AE
  8
025
 10
232.262121
 20
162.848929
 30
0.0
  0
VERTEX
  5
5AF
  8
025
 10
232.484121
 20
162.410485
 30
0.0
  0
VERTEX
  5
5B0
  8
025
 10
232.693666
 20
161.932211
 30
0.0
  0
VERTEX
  5
5B1
  8
025
 10
232.882704
 20
161.432487
 30
0.0
  0
VERTEX
  5
5B2
  8
025
 10
233.043971
 20
160.930516
 30
0.0
  0
VERTEX
  5
5B3
  8
025
 10
233.171267
 20
160.445588
 30
0.0
  0
VERTEX
  5
5B4
  8
025
 10
233.259703
 20
159.996341
 30
0.0
  0
SEQEND
  5
5B5
  8
025
  0
POLYLINE
  5
243
  8
025
 66
     1
 10
0.0
 20
0.0
 30
0.0
  0
VERTEX
  5
5B6
  8
025
 10
232.042998
 20
164.53009
 30
0.0
  0
VERTEX
  5
5B7
  8
025
 10
232.206426
 20
164.52744
 30
0.0
  0
VERTEX
  5
5B8
  8
025
 10
232.38934
 20
164.42554
 30
0.0
  0
VERTEX
  5
5B9
  8
025
 10
232.595965
 20
164.231408
 30
0.0
  0
VERTEX
  5
5BA
  8
025
 10
232.819265
 20
163.951655
 30
0.0
  0
VERTEX
  5
5BB
  8
025
 10
233.051636
 20
163.595806
 30
0.0
  0
VERTEX
  5
5BC
  8
025
 10
233.285164
 20
163.175979
 30
0.0
  0
VERTEX
  5
5BD
  8
025
 10
233.511897
 20
162.706473
 30
0.0
  0
VERTEX
  5
5BE
  8
025
 10
233.724113
 20
162.203274
 30
0.0
  0
VERTEX
  5
5BF
  8
025
 10
233.914587
 20
161.683519
 30
0.0
  0
VERTEX
  5
5C0
  8
025
 10
234.076831
 20
161.164907
 30
0.0
  0
VERTEX
  5
5C1
  8
025
 10
234.205321
 20
160.6651
 30
0.0
  0
VERTEX
  5
5C2
  8
025
 10
234.295681
 20
160.201117
 30
0.0
  0
SEQEND
  5
5C3
  8
025
  0
POLYLINE
  5
244
  8
025
 66
     1
 10
0.0
 20
0.0
 30
0.0
  0
VERTEX
  5
5C4
  8
025
 10
234.12825
 20
158.904103
 30
0.0
  0
VERTEX
  5
5C5
  8
025
 10
234.235621
 20
158.990275
 30
0.0
  0
VERTEX
  5
5C6
  8
025
 10
234.314284
 20
159.172851
 30
0.0
  0
VERTEX
  5
5C7
  8
025
 10
234.351106
 20
159.442068
 30
0.0
  0
VERTEX
  5
5C8
  8
025
 10
234.344834
 20
159.788759
 30
0.0
  0
VERTEX
  5
5C9
  8
025
 10
234.295681
 20
160.201117
 30
0.0
  0
SEQEND
  5
5CA
  8
025
  0
LINE
  5
245
  8
05
 10
234.074231
 20
158.892192
 30
0.0
 11
233.058454
 21
158.806819
 31
0.0
  0
LINE
  5
246
  8
05
 10
234.074231
 20
158.892192
 30
0.0
 11
234.12825
 21
158.904103
 31
0.0
  0
POLYLINE
  5
247
  8
025
 66
     1
 10
0.0
 20
0.0
 30
0.0
  0
VERTEX
  5
5CB
  8
025
 10
233.058454
 20
158.806819
 30
0.0
  0
VERTEX
  5
5CC
  8
025
 10
233.181566
 20
158.867501
 30
0.0
  0
VERTEX
  5
5CD
  8
025
 10
233.266045
 20
159.024559
 30
0.0
  0
VERTEX
  5
5CE
  8
025
 10
233.30802
 20
159.271906
 30
0.0
  0
VERTEX
  5
5CF
  8
025
 10
233.305879
 20
159.600037
 30
0.0
  0
VERTEX
  5
5D0
  8
025
 10
233.259703
 20
159.996341
 30
0.0
  0
SEQEND
  5
5D1
  8
025
  0
POLYLINE
  5
248
  8
05
 66
     1
 10
0.0
 20
0.0
 30
0.0
  0
VERTEX
  5
5D2
  8
05
 10
231.74604
 20
159.223521
 30
0.0
  0
VERTEX
  5
5D3
  8
05
 10
231.871259
 20
159.130074
 30
0.0
  0
VERTEX
  5
5D4
  8
05
 10
232.054684
 20
159.018184
 30
0.0
  0
VERTEX
  5
5D5
  8
05
 10
232.291832
 20
158.911523
 30
0.0
  0
VERTEX
  5
5D6
  8
05
 10
232.607129
 20
158.826814
 30
0.0
  0
VERTEX
  5
5D7
  8
05
 10
232.891749
 20
158.800728
 30
0.0
  0
VERTEX
  5
5D8
  8
05
 10
233.058434
 20
158.806817
 30
0.0
  0
SEQEND
  5
5D9
  8
05
  0
POLYLINE
  5
249
  8
05
 66
     1
 10
0.0
 20
0.0
 30
0.0
  0
VERTEX
  5
5DA
  8
05
 10
231.746026
 20
159.223577
 30
0.0
  0
VERTEX
  5
5DB
  8
05
 10
231.789811
 20
159.190841
 30
0.0
  0
VERTEX
  5
5DC
  8
05
 10
231.925009
 20
159.131844
 30
0.0
  0
VERTEX
  5
5DD
  8
05
 10
232.032455
 20
159.156748
 30
0.0
  0
VERTEX
  5
5DE
  8
05
 10
232.107453
 20
159.264464
 30
0.0
  0
VERTEX
  5
5DF
  8
05
 10
232.146726
 20
159.450286
 30
0.0
  0
VERTEX
  5
5E0
  8
05
 10
232.148557
 20
159.706091
 30
0.0
  0
VERTEX
  5
5E1
  8
05
 10
232.112867
 20
160.020699
 30
0.0
  0
SEQEND
  5
5E2
  8
05
  0
LINE
  5
24A
  8
05
 10
231.994265
 20
164.503917
 30
0.0
 11
231.168228
 21
163.906628
 31
0.0
  0
LINE
  5
24B
  8
05
 10
231.994265
 20
164.503917
 30
0.0
 11
232.042998
 21
164.53009
 31
0.0
  0
POLYLINE
  5
24C
  8
05
 66
     1
 10
0.0
 20
0.0
 30
0.0
  0
VERTEX
  5
5E3
  8
05
 10
230.467189
 20
162.082431
 30
0.0
  0
VERTEX
  5
5E4
  8
05
 10
230.431498
 20
162.39704
 30
0.0
  0
VERTEX
  5
5E5
  8
05
 10
230.433329
 20
162.652845
 30
0.0
  0
VERTEX
  5
5E6
  8
05
 10
230.44474
 20
162.736572
 30
0.0
  0
SEQEND
  5
5E7
  8
05
  0
POLYLINE
  5
24D
  8
05
 66
     1
 10
0.0
 20
0.0
 30
0.0
  0
VERTEX
  5
5E8
  8
05
 10
231.168081
 20
163.906521
 30
0.0
  0
VERTEX
  5
5E9
  8
05
 10
230.900354
 20
163.667963
 30
0.0
  0
VERTEX
  5
5EA
  8
05
 10
230.653117
 20
163.324105
 30
0.0
  0
VERTEX
  5
5EB
  8
05
 10
230.50337
 20
162.973846
 30
0.0
  0
VERTEX
  5
5EC
  8
05
 10
230.444705
 20
162.736642
 30
0.0
  0
SEQEND
  5
5ED
  8
05
  0
LINE
  5
24E
  8
035
 10
264.51372
 20
164.672733
 30
0.0
 11
263.949388
 21
168.217546
 31
0.0
  0
POLYLINE
  5
24F
  8
05
 66
     1
 10
0.0
 20
0.0
 30
0.0
  0
VERTEX
  5
5EE
  8
05
 10
252.727036
 20
166.096958
 30
0.0
  0
VERTEX
  5
5EF
  8
05
 10
252.994762
 20
166.335517
 30
0.0
  0
VERTEX
  5
5F0
  8
05
 10
253.241999
 20
166.679375
 30
0.0
  0
VERTEX
  5
5F1
  8
05
 10
253.391746
 20
167.029634
 30
0.0
  0
VERTEX
  5
5F2
  8
05
 10
253.450411
 20
167.266837
 30
0.0
  0
SEQEND
  5
5F3
  8
05
  0
POLYLINE
  5
250
  8
05
 66
     1
 10
0.0
 20
0.0
 30
0.0
  0
VERTEX
  5
5F4
  8
05
 10
251.900851
 20
165.499563
 30
0.0
  0
VERTEX
  5
5F5
  8
05
 10
251.959489
 20
165.559561
 30
0.0
  0
VERTEX
  5
5F6
  8
05
 10
252.038152
 20
165.742137
 30
0.0
  0
VERTEX
  5
5F7
  8
05
 10
252.074975
 20
166.011355
 30
0.0
  0
VERTEX
  5
5F8
  8
05
 10
252.068703
 20
166.358046
 30
0.0
  0
VERTEX
  5
5F9
  8
05
 10
252.01955
 20
166.770404
 30
0.0
  0
SEQEND
  5
5FA
  8
05
  0
POLYLINE
  5
251
  8
05
 66
     1
 10
0.0
 20
0.0
 30
0.0
  0
VERTEX
  5
5FB
  8
05
 10
252.727036
 20
166.096958
 30
0.0
  0
VERTEX
  5
5FC
  8
05
 10
252.756622
 20
166.122924
 30
0.0
  0
VERTEX
  5
5FD
  8
05
 10
252.841101
 20
166.279982
 30
0.0
  0
VERTEX
  5
5FE
  8
05
 10
252.883076
 20
166.527329
 30
0.0
  0
VERTEX
  5
5FF
  8
05
 10
252.880935
 20
166.855459
 30
0.0
  0
VERTEX
  5
600
  8
05
 10
252.834759
 20
167.251763
 30
0.0
  0
SEQEND
  5
601
  8
05
  0
LINE
  5
252
  8
05
 10
254.563867
 20
149.452807
 30
0.0
 11
247.224122
 21
146.732357
 31
0.0
  0
POLYLINE
  5
253
  8
05
 66
     1
 10
0.0
 20
0.0
 30
0.0
  0
VERTEX
  5
602
  8
05
 10
255.435238
 20
152.5375
 30
0.0
  0
VERTEX
  5
603
  8
05
 10
255.308792
 20
153.172199
 30
0.0
  0
VERTEX
  5
604
  8
05
 10
255.12441
 20
153.858665
 30
0.0
  0
VERTEX
  5
605
  8
05
 10
254.89015
 20
154.566896
 30
0.0
  0
VERTEX
  5
606
  8
05
 10
254.616251
 20
155.26594
 30
0.0
  0
VERTEX
  5
607
  8
05
 10
254.314683
 20
155.925244
 30
0.0
  0
VERTEX
  5
608
  8
05
 10
253.998626
 20
156.515995
 30
0.0
  0
VERTEX
  5
609
  8
05
 10
253.681894
 20
157.012373
 30
0.0
  0
VERTEX
  5
60A
  8
05
 10
253.378329
 20
157.392684
 30
0.0
  0
VERTEX
  5
60B
  8
05
 10
253.101198
 20
157.640307
 30
0.0
  0
VERTEX
  5
60C
  8
05
 10
253.007173
 20
157.696157
 30
0.0
  0
SEQEND
  5
60D
  8
05
  0
POLYLINE
  5
254
  8
025
 66
     1
 10
0.0
 20
0.0
 30
0.0
  0
VERTEX
  5
60E
  8
025
 10
254.831758
 20
151.528029
 30
0.0
  0
VERTEX
  5
60F
  8
025
 10
254.676058
 20
152.318978
 30
0.0
  0
VERTEX
  5
610
  8
025
 10
254.451938
 20
153.172744
 30
0.0
  0
VERTEX
  5
611
  8
025
 10
254.168011
 20
154.056518
 30
0.0
  0
VERTEX
  5
612
  8
025
 10
253.83519
 20
154.936337
 30
0.0
  0
VERTEX
  5
613
  8
025
 10
253.466262
 20
155.778389
 30
0.0
  0
VERTEX
  5
614
  8
025
 10
253.075407
 20
156.550316
 30
0.0
  0
VERTEX
  5
615
  8
025
 10
252.677645
 20
157.222452
 30
0.0
  0
VERTEX
  5
616
  8
025
 10
252.288261
 20
157.768968
 30
0.0
  0
VERTEX
  5
617
  8
025
 10
251.92222
 20
158.168861
 30
0.0
  0
VERTEX
  5
618
  8
025
 10
251.594145
 20
158.406484
 30
0.0
  0
SEQEND
  5
619
  8
025
  0
POLYLINE
  5
255
  8
035
 66
     1
 10
0.0
 20
0.0
 30
0.0
  0
VERTEX
  5
61A
  8
035
 10
247.657954
 20
144.625803
 30
0.0
  0
VERTEX
  5
61B
  8
035
 10
247.378643
 20
146.098591
 30
0.0
  0
VERTEX
  5
61C
  8
035
 10
246.994179
 20
147.675469
 30
0.0
  0
VERTEX
  5
61D
  8
035
 10
246.514027
 20
149.317609
 30
0.0
  0
VERTEX
  5
61E
  8
035
 10
245.950011
 20
150.984577
 30
0.0
  0
VERTEX
  5
61F
  8
035
 10
245.316018
 20
152.635325
 30
0.0
  0
VERTEX
  5
620
  8
035
 10
244.627661
 20
154.229207
 30
0.0
  0
VERTEX
  5
621
  8
035
 10
243.901887
 20
155.726976
 30
0.0
  0
VERTEX
  5
622
  8
035
 10
243.156569
 20
157.091753
 30
0.0
  0
VERTEX
  5
623
  8
035
 10
242.410059
 20
158.289931
 30
0.0
  0
VERTEX
  5
624
  8
035
 10
241.680737
 20
159.292009
 30
0.0
  0
VERTEX
  5
625
  8
035
 10
240.986563
 20
160.07331
 30
0.0
  0
VERTEX
  5
626
  8
035
 10
240.344629
 20
160.614598
 30
0.0
  0
VERTEX
  5
627
  8
035
 10
239.770741
 20
160.902543
 30
0.0
  0
VERTEX
  5
628
  8
035
 10
239.552905
 20
160.914732
 30
0.0
  0
SEQEND
  5
629
  8
035
  0
LINE
  5
256
  8
05
 10
251.227465
 20
158.454386
 30
0.0
 11
243.896341
 21
155.737132
 31
0.0
  0
POLYLINE
  5
257
  8
05
 66
     1
 10
0.0
 20
0.0
 30
0.0
  0
VERTEX
  5
62A
  8
05
 10
251.594145
 20
158.406484
 30
0.0
  0
VERTEX
  5
62B
  8
05
 10
251.314993
 20
158.473535
 30
0.0
  0
VERTEX
  5
62C
  8
05
 10
251.227465
 20
158.454386
 30
0.0
  0
SEQEND
  5
62D
  8
05
  0
LINE
  5
258
  8
05
 10
253.007028
 20
157.696341
 30
0.0
 11
251.594145
 21
158.406484
 31
0.0
  0
LINE
  5
259
  8
05
 10
251.852118
 20
165.47339
 30
0.0
 11
251.900851
 21
165.499563
 31
0.0
  0
LINE
  5
25A
  8
05
 10
252.726888
 20
166.096852
 30
0.0
 11
251.900851
 21
165.499563
 31
0.0
  0
LINE
  5
25B
  8
05
 10
252.726888
 20
166.096852
 30
0.0
 11
252.727036
 21
166.096958
 31
0.0
  0
POLYLINE
  5
25C
  8
05
 66
     1
 10
0.0
 20
0.0
 30
0.0
  0
VERTEX
  5
62E
  8
05
 10
260.32777
 20
161.758908
 30
0.0
  0
VERTEX
  5
62F
  8
05
 10
260.8145
 20
161.075763
 30
0.0
  0
VERTEX
  5
630
  8
05
 10
261.311703
 20
160.235593
 30
0.0
  0
VERTEX
  5
631
  8
05
 10
261.800271
 20
159.270685
 30
0.0
  0
VERTEX
  5
632
  8
05
 10
262.26143
 20
158.218119
 30
0.0
  0
VERTEX
  5
633
  8
05
 10
262.677458
 20
157.118346
 30
0.0
  0
VERTEX
  5
634
  8
05
 10
263.032366
 20
156.013628
 30
0.0
  0
VERTEX
  5
635
  8
05
 10
263.312515
 20
154.946421
 30
0.0
  0
VERTEX
  5
636
  8
05
 10
263.50714
 20
153.957735
 30
0.0
  0
VERTEX
  5
637
  8
05
 10
263.608762
 20
153.085566
 30
0.0
  0
VERTEX
  5
638
  8
05
 10
263.613475
 20
152.36343
 30
0.0
  0
VERTEX
  5
639
  8
05
 10
263.521098
 20
151.819078
 30
0.0
  0
VERTEX
  5
63A
  8
05
 10
263.480925
 20
151.708195
 30
0.0
  0
SEQEND
  5
63B
  8
05
  0
POLYLINE
  5
25D
  8
025
 66
     1
 10
0.0
 20
0.0
 30
0.0
  0
VERTEX
  5
63C
  8
025
 10
260.282121
 20
161.668003
 30
0.0
  0
VERTEX
  5
63D
  8
025
 10
260.166627
 20
161.233561
 30
0.0
  0
VERTEX
  5
63E
  8
025
 10
260.151819
 20
160.606526
 30
0.0
  0
VERTEX
  5
63F
  8
025
 10
260.238437
 20
159.81834
 30
0.0
  0
VERTEX
  5
640
  8
025
 10
260.422139
 20
158.908526
 30
0.0
  0
VERTEX
  5
641
  8
025
 10
260.693714
 20
157.922705
 30
0.0
  0
VERTEX
  5
642
  8
025
 10
261.039542
 20
156.910312
 30
0.0
  0
VERTEX
  5
643
  8
025
 10
261.442284
 20
155.922111
 30
0.0
  0
VERTEX
  5
644
  8
025
 10
261.881743
 20
155.007656
 30
0.0
  0
VERTEX
  5
645
  8
025
 10
262.335884
 20
154.2128
 30
0.0
  0
VERTEX
  5
646
  8
025
 10
262.781934
 20
153.577401
 30
0.0
  0
SEQEND
  5
647
  8
025
  0
POLYLINE
  5
25E
  8
025
 66
     1
 10
0.0
 20
0.0
 30
0.0
  0
VERTEX
  5
648
  8
025
 10
261.846282
 20
152.220479
 30
0.0
  0
VERTEX
  5
649
  8
025
 10
261.359552
 20
152.903624
 30
0.0
  0
VERTEX
  5
64A
  8
025
 10
260.862349
 20
153.743794
 30
0.0
  0
VERTEX
  5
64B
  8
025
 10
260.37378
 20
154.708703
 30
0.0
  0
VERTEX
  5
64C
  8
025
 10
259.912621
 20
155.761268
 30
0.0
  0
VERTEX
  5
64D
  8
025
 10
259.496594
 20
156.861041
 30
0.0
  0
VERTEX
  5
64E
  8
025
 10
259.141686
 20
157.965759
 30
0.0
  0
VERTEX
  5
64F
  8
025
 10
258.861536
 20
159.032966
 30
0.0
  0
VERTEX
  5
650
  8
025
 10
258.666911
 20
160.021652
 30
0.0
  0
VERTEX
  5
651
  8
025
 10
258.565289
 20
160.893822
 30
0.0
  0
VERTEX
  5
652
  8
025
 10
258.560577
 20
161.615958
 30
0.0
  0
VERTEX
  5
653
  8
025
 10
258.652954
 20
162.160309
 30
0.0
  0
VERTEX
  5
654
  8
025
 10
258.838871
 20
162.505956
 30
0.0
  0
VERTEX
  5
655
  8
025
 10
259.111184
 20
162.639617
 30
0.0
  0
VERTEX
  5
656
  8
025
 10
259.460119
 20
162.555806
 30
0.0
  0
SEQEND
  5
657
  8
025
  0
POLYLINE
  5
25F
  8
05
 66
     1
 10
0.0
 20
0.0
 30
0.0
  0
VERTEX
  5
658
  8
05
 10
263.480925
 20
151.708195
 30
0.0
  0
VERTEX
  5
659
  8
05
 10
263.33518
 20
151.473431
 30
0.0
  0
VERTEX
  5
65A
  8
05
 10
263.062868
 20
151.339771
 30
0.0
  0
VERTEX
  5
65B
  8
05
 10
262.714625
 20
151.423233
 30
0.0
  0
VERTEX
  5
65C
  8
05
 10
262.303834
 20
151.720612
 30
0.0
  0
VERTEX
  5
65D
  8
05
 10
261.846282
 20
152.220479
 30
0.0
  0
SEQEND
  5
65E
  8
05
  0
POLYLINE
  5
260
  8
05
 66
     1
 10
0.0
 20
0.0
 30
0.0
  0
VERTEX
  5
65F
  8
05
 10
255.435238
 20
152.5375
 30
0.0
  0
VERTEX
  5
660
  8
05
 10
255.498222
 20
151.982308
 30
0.0
  0
VERTEX
  5
661
  8
05
 10
255.49499
 20
151.530887
 30
0.0
  0
VERTEX
  5
662
  8
05
 10
255.419515
 20
151.187668
 30
0.0
  0
SEQEND
  5
663
  8
05
  0
POLYLINE
  5
261
  8
05
 66
     1
 10
0.0
 20
0.0
 30
0.0
  0
VERTEX
  5
664
  8
05
 10
254.810748
 20
149.728122
 30
0.0
  0
VERTEX
  5
665
  8
05
 10
254.69419
 20
149.540586
 30
0.0
  0
VERTEX
  5
666
  8
05
 10
254.563867
 20
149.452807
 30
0.0
  0
SEQEND
  5
667
  8
05
  0
POLYLINE
  5
262
  8
05
 66
     1
 10
0.0
 20
0.0
 30
0.0
  0
VERTEX
  5
668
  8
05
 10
254.831758
 20
151.528029
 30
0.0
  0
VERTEX
  5
669
  8
05
 10
254.913055
 20
150.830294
 30
0.0
  0
VERTEX
  5
66A
  8
05
 10
254.916825
 20
150.252585
 30
0.0
  0
VERTEX
  5
66B
  8
05
 10
254.842924
 20
149.817104
 30
0.0
  0
VERTEX
  5
66C
  8
05
 10
254.810748
 20
149.728122
 30
0.0
  0
SEQEND
  5
66D
  8
05
  0
LINE
  5
263
  8
05
 10
255.41948
 20
151.18757
 30
0.0
 11
254.810748
 21
149.728122
 31
0.0
  0
POLYLINE
  5
264
  8
05
 66
     1
 10
0.0
 20
0.0
 30
0.0
  0
VERTEX
  5
66E
  8
05
 10
263.609967
 20
152.900969
 30
0.0
  0
VERTEX
  5
66F
  8
05
 10
263.56182
 20
152.902827
 30
0.0
  0
VERTEX
  5
670
  8
05
 10
263.197526
 20
153.133321
 30
0.0
  0
VERTEX
  5
671
  8
05
 10
262.781934
 20
153.577401
 30
0.0
  0
SEQEND
  5
672
  8
05
  0
POLYLINE
  5
265
  8
05
 66
     1
 10
0.0
 20
0.0
 30
0.0
  0
VERTEX
  5
673
  8
05
 10
259.460119
 20
162.555806
 30
0.0
  0
VERTEX
  5
674
  8
05
 10
259.870218
 20
162.258775
 30
0.0
  0
VERTEX
  5
675
  8
05
 10
260.32777
 20
161.758908
 30
0.0
  0
SEQEND
  5
676
  8
05
  0
LINE
  5
266
  8
05
 10
260.346438
 20
161.732707
 30
0.0
 11
260.282121
 21
161.668003
 31
0.0
  0
LINE
  5
267
  8
035
 10
257.851512
 20
175.857063
 30
0.0
 11
252.332838
 21
182.770948
 31
0.0
  0
LINE
  5
268
  8
05
 10
250.836663
 20
171.196661
 30
0.0
 11
249.820885
 21
171.111288
 31
0.0
  0
POLYLINE
  5
269
  8
025
 66
     1
 10
0.0
 20
0.0
 30
0.0
  0
VERTEX
  5
677
  8
025
 10
249.820885
 20
171.111288
 30
0.0
  0
VERTEX
  5
678
  8
025
 10
249.930294
 20
171.096726
 30
0.0
  0
VERTEX
  5
679
  8
025
 10
250.113208
 20
170.994827
 30
0.0
  0
VERTEX
  5
67A
  8
025
 10
250.319834
 20
170.800695
 30
0.0
  0
VERTEX
  5
67B
  8
025
 10
250.543134
 20
170.520941
 30
0.0
  0
VERTEX
  5
67C
  8
025
 10
250.775504
 20
170.165092
 30
0.0
  0
VERTEX
  5
67D
  8
025
 10
251.009032
 20
169.745266
 30
0.0
  0
VERTEX
  5
67E
  8
025
 10
251.235765
 20
169.275759
 30
0.0
  0
VERTEX
  5
67F
  8
025
 10
251.447982
 20
168.77256
 30
0.0
  0
VERTEX
  5
680
  8
025
 10
251.638455
 20
168.252805
 30
0.0
  0
VERTEX
  5
681
  8
025
 10
251.8007
 20
167.734194
 30
0.0
  0
VERTEX
  5
682
  8
025
 10
251.92919
 20
167.234387
 30
0.0
  0
VERTEX
  5
683
  8
025
 10
252.01955
 20
166.770404
 30
0.0
  0
SEQEND
  5
684
  8
025
  0
LINE
  5
26A
  8
05
 10
249.766867
 20
171.099376
 30
0.0
 11
249.820885
 21
171.111288
 31
0.0
  0
POLYLINE
  5
26B
  8
05
 66
     1
 10
0.0
 20
0.0
 30
0.0
  0
VERTEX
  5
685
  8
05
 10
252.149091
 20
170.779902
 30
0.0
  0
VERTEX
  5
686
  8
05
 10
252.262346
 20
170.672319
 30
0.0
  0
VERTEX
  5
687
  8
05
 10
252.434366
 20
170.45681
 30
0.0
  0
VERTEX
  5
688
  8
05
 10
252.613847
 20
170.175529
 30
0.0
  0
VERTEX
  5
689
  8
05
 10
252.792946
 20
169.84077
 30
0.0
  0
VERTEX
  5
68A
  8
05
 10
252.963835
 20
169.467164
 30
0.0
  0
VERTEX
  5
68B
  8
05
 10
253.119044
 20
169.071039
 30
0.0
  0
VERTEX
  5
68C
  8
05
 10
253.251792
 20
168.669708
 30
0.0
  0
VERTEX
  5
68D
  8
05
 10
253.356275
 20
168.280711
 30
0.0
  0
VERTEX
  5
68E
  8
05
 10
253.427928
 20
167.921048
 30
0.0
  0
SEQEND
  5
68F
  8
05
  0
POLYLINE
  5
26C
  8
05
 66
     1
 10
0.0
 20
0.0
 30
0.0
  0
VERTEX
  5
690
  8
05
 10
253.450376
 20
167.266907
 30
0.0
  0
VERTEX
  5
691
  8
05
 10
253.461787
 20
167.350634
 30
0.0
  0
VERTEX
  5
692
  8
05
 10
253.463618
 20
167.60644
 30
0.0
  0
VERTEX
  5
693
  8
05
 10
253.427928
 20
167.921048
 30
0.0
  0
SEQEND
  5
694
  8
05
  0
LINE
  5
26D
  8
05
 10
250.836663
 20
171.196661
 30
0.0
 11
250.836682
 21
171.196663
 31
0.0
  0
POLYLINE
  5
26E
  8
05
 66
     1
 10
0.0
 20
0.0
 30
0.0
  0
VERTEX
  5
695
  8
05
 10
252.149077
 20
170.779958
 30
0.0
  0
VERTEX
  5
696
  8
05
 10
252.023858
 20
170.873405
 30
0.0
  0
VERTEX
  5
697
  8
05
 10
251.840433
 20
170.985295
 30
0.0
  0
VERTEX
  5
698
  8
05
 10
251.603284
 20
171.091956
 30
0.0
  0
VERTEX
  5
699
  8
05
 10
251.287987
 20
171.176666
 30
0.0
  0
VERTEX
  5
69A
  8
05
 10
251.003367
 20
171.202751
 30
0.0
  0
VERTEX
  5
69B
  8
05
 10
250.836682
 20
171.196663
 30
0.0
  0
SEQEND
  5
69C
  8
05
  0
POLYLINE
  5
26F
  8
025
 66
     1
 10
0.0
 20
0.0
 30
0.0
  0
VERTEX
  5
69D
  8
025
 10
250.836682
 20
171.196663
 30
0.0
  0
VERTEX
  5
69E
  8
025
 10
250.995524
 20
171.158788
 30
0.0
  0
VERTEX
  5
69F
  8
025
 10
251.182182
 20
171.023662
 30
0.0
  0
VERTEX
  5
6A0
  8
025
 10
251.390089
 20
170.796528
 30
0.0
  0
VERTEX
  5
6A1
  8
025
 10
251.611253
 20
170.486115
 30
0.0
  0
VERTEX
  5
6A2
  8
025
 10
251.837177
 20
170.104351
 30
0.0
  0
VERTEX
  5
6A3
  8
025
 10
252.059177
 20
169.665908
 30
0.0
  0
VERTEX
  5
6A4
  8
025
 10
252.268722
 20
169.187634
 30
0.0
  0
VERTEX
  5
6A5
  8
025
 10
252.45776
 20
168.687909
 30
0.0
  0
VERTEX
  5
6A6
  8
025
 10
252.619027
 20
168.185938
 30
0.0
  0
VERTEX
  5
6A7
  8
025
 10
252.746323
 20
167.701011
 30
0.0
  0
VERTEX
  5
6A8
  8
025
 10
252.834759
 20
167.251763
 30
0.0
  0
SEQEND
  5
6A9
  8
025
  0
LINE
  5
270
  8
035
 10
269.563299
 20
176.359078
 30
0.0
 11
267.991382
 21
178.328401
 31
0.0
  0
POLYLINE
  5
271
  8
025
 66
     1
 10
0.0
 20
0.0
 30
0.0
  0
VERTEX
  5
6AA
  8
025
 10
261.254868
 20
174.122406
 30
0.0
  0
VERTEX
  5
6AB
  8
025
 10
261.931369
 20
174.982019
 30
0.0
  0
VERTEX
  5
6AC
  8
025
 10
262.59126
 20
175.619354
 30
0.0
  0
VERTEX
  5
6AD
  8
025
 10
263.197753
 20
176.041424
 30
0.0
  0
VERTEX
  5
6AE
  8
025
 10
263.571657
 20
176.21563
 30
0.0
  0
SEQEND
  5
6AF
  8
025
  0
POLYLINE
  5
272
  8
05
 66
     1
 10
0.0
 20
0.0
 30
0.0
  0
VERTEX
  5
6B0
  8
05
 10
262.420081
 20
169.390493
 30
0.0
  0
VERTEX
  5
6B1
  8
05
 10
262.314244
 20
169.379819
 30
0.0
  0
VERTEX
  5
6B2
  8
05
 10
262.114642
 20
169.465463
 30
0.0
  0
VERTEX
  5
6B3
  8
05
 10
261.882322
 20
169.672404
 30
0.0
  0
VERTEX
  5
6B4
  8
05
 10
261.627559
 20
169.991575
 30
0.0
  0
VERTEX
  5
6B5
  8
05
 10
261.361786
 20
170.408652
 30
0.0
  0
VERTEX
  5
6B6
  8
05
 10
261.09679
 20
170.905065
 30
0.0
  0
VERTEX
  5
6B7
  8
05
 10
260.844278
 20
171.458813
 30
0.0
  0
VERTEX
  5
6B8
  8
05
 10
260.615395
 20
172.045403
 30
0.0
  0
VERTEX
  5
6B9
  8
05
 10
260.420237
 20
172.638922
 30
0.0
  0
SEQEND
  5
6BA
  8
05
  0
POLYLINE
  5
273
  8
025
 66
     1
 10
0.0
 20
0.0
 30
0.0
  0
VERTEX
  5
6BB
  8
025
 10
260.420237
 20
172.638922
 30
0.0
  0
VERTEX
  5
6BC
  8
025
 10
260.794907
 20
173.383851
 30
0.0
  0
VERTEX
  5
6BD
  8
025
 10
261.254868
 20
174.122406
 30
0.0
  0
SEQEND
  5
6BE
  8
025
  0
LINE
  5
274
  8
035
 10
260.420237
 20
172.638922
 30
0.0
 11
259.60283
 21
173.662983
 31
0.0
  0
LINE
  5
275
  8
035
 10
267.153843
 20
172.864782
 30
0.0
 11
263.949388
 21
168.217546
 31
0.0
  0
POLYLINE
  5
276
  8
05
 66
     1
 10
0.0
 20
0.0
 30
0.0
  0
VERTEX
  5
6BF
  8
05
 10
263.571657
 20
176.21563
 30
0.0
  0
VERTEX
  5
6C0
  8
05
 10
263.732941
 20
176.267998
 30
0.0
  0
VERTEX
  5
6C1
  8
05
 10
264.180913
 20
176.31958
 30
0.0
  0
VERTEX
  5
6C2
  8
05
 10
264.535648
 20
176.222833
 30
0.0
  0
VERTEX
  5
6C3
  8
05
 10
264.803073
 20
175.999959
 30
0.0
  0
VERTEX
  5
6C4
  8
05
 10
264.98809
 20
175.658174
 30
0.0
  0
VERTEX
  5
6C5
  8
05
 10
265.086483
 20
175.189635
 30
0.0
  0
VERTEX
  5
6C6
  8
05
 10
265.082031
 20
174.583917
 30
0.0
  0
VERTEX
  5
6C7
  8
05
 10
264.954252
 20
173.847701
 30
0.0
  0
VERTEX
  5
6C8
  8
05
 10
264.686579
 20
173.000517
 30
0.0
  0
VERTEX
  5
6C9
  8
05
 10
264.262503
 20
172.064385
 30
0.0
  0
VERTEX
  5
6CA
  8
05
 10
263.674982
 20
171.090447
 30
0.0
  0
SEQEND
  5
6CB
  8
05
  0
POLYLINE
  5
277
  8
05
 66
     1
 10
0.0
 20
0.0
 30
0.0
  0
VERTEX
  5
6CC
  8
05
 10
262.638309
 20
169.860086
 30
0.0
  0
VERTEX
  5
6CD
  8
05
 10
262.581966
 20
169.581651
 30
0.0
  0
VERTEX
  5
6CE
  8
05
 10
262.472337
 20
169.419154
 30
0.0
  0
VERTEX
  5
6CF
  8
05
 10
262.420081
 20
169.390493
 30
0.0
  0
SEQEND
  5
6D0
  8
05
  0
POLYLINE
  5
278
  8
05
 66
     1
 10
0.0
 20
0.0
 30
0.0
  0
VERTEX
  5
6D1
  8
05
 10
263.674982
 20
171.090447
 30
0.0
  0
VERTEX
  5
6D2
  8
05
 10
263.162113
 20
170.418164
 30
0.0
  0
VERTEX
  5
6D3
  8
05
 10
262.638309
 20
169.860086
 30
0.0
  0
SEQEND
  5
6D4
  8
05
  0
LINE
  5
279
  8
05
 10
263.949388
 20
168.217546
 30
0.0
 11
262.638309
 21
169.860086
 31
0.0
  0
LINE
  5
27A
  8
035
 10
269.563299
 20
176.359078
 30
0.0
 11
268.419998
 21
174.701014
 31
0.0
  0
LINE
  5
27B
  8
05
 10
263.755024
 20
183.635778
 30
0.0
 11
260.180834
 21
178.452337
 31
0.0
  0
LINE
  5
27C
  8
035
 10
260.657277
 20
187.516686
 30
0.0
 11
257.083087
 21
182.333244
 31
0.0
  0
LINE
  5
27D
  8
035
 10
260.180834
 20
178.452337
 30
0.0
 11
257.083087
 21
182.333244
 31
0.0
  0
LINE
  5
27E
  8
035
 10
260.657277
 20
187.516686
 30
0.0
 11
261.620013
 21
187.87352
 31
0.0
  0
LINE
  5
27F
  8
035
 10
266.969817
 20
179.608234
 30
0.0
 11
263.755024
 21
183.635778
 31
0.0
  0
LINE
  5
280
  8
05
 10
302.53269
 20
191.380308
 30
0.0
 11
314.14924
 21
176.826906
 31
0.0
  0
POLYLINE
  5
281
  8
05
 66
     1
 10
0.0
 20
0.0
 30
0.0
  0
VERTEX
  5
6D5
  8
05
 10
311.574903
 20
188.3729
 30
0.0
  0
VERTEX
  5
6D6
  8
05
 10
311.418646
 20
189.13516
 30
0.0
  0
VERTEX
  5
6D7
  8
05
 10
311.184269
 20
189.962368
 30
0.0
  0
VERTEX
  5
6D8
  8
05
 10
310.885393
 20
190.80645
 30
0.0
  0
VERTEX
  5
6D9
  8
05
 10
310.539386
 20
191.61835
 30
0.0
  0
VERTEX
  5
6DA
  8
05
 10
310.166358
 20
192.350885
 30
0.0
  0
VERTEX
  5
6DB
  8
05
 10
309.787987
 20
192.961482
 30
0.0
  0
VERTEX
  5
6DC
  8
05
 10
309.426263
 20
193.414655
 30
0.0
  0
VERTEX
  5
6DD
  8
05
 10
309.102209
 20
193.684068
 30
0.0
  0
VERTEX
  5
6DE
  8
05
 10
309.065999
 20
193.703535
 30
0.0
  0
SEQEND
  5
6DF
  8
05
  0
LINE
  5
282
  8
035
 10
311.73529
 20
191.989971
 30
0.0
 11
312.21554
 21
188.973317
 31
0.0
  0
POLYLINE
  5
283
  8
05
 66
     1
 10
0.0
 20
0.0
 30
0.0
  0
VERTEX
  5
6E0
  8
05
 10
309.516876
 20
192.010542
 30
0.0
  0
VERTEX
  5
6E1
  8
05
 10
309.656363
 20
191.341704
 30
0.0
  0
VERTEX
  5
6E2
  8
05
 10
309.868807
 20
190.615135
 30
0.0
  0
VERTEX
  5
6E3
  8
05
 10
310.139731
 20
189.880349
 30
0.0
  0
VERTEX
  5
6E4
  8
05
 10
310.450672
 20
189.187421
 30
0.0
  0
VERTEX
  5
6E5
  8
05
 10
310.78044
 20
188.583573
 30
0.0
  0
VERTEX
  5
6E6
  8
05
 10
311.106561
 20
188.109955
 30
0.0
  0
VERTEX
  5
6E7
  8
05
 10
311.406812
 20
187.798844
 30
0.0
  0
VERTEX
  5
6E8
  8
05
 10
311.642241
 20
187.680719
 30
0.0
  0
SEQEND
  5
6E9
  8
05
  0
POLYLINE
  5
284
  8
05
 66
     1
 10
0.0
 20
0.0
 30
0.0
  0
VERTEX
  5
6EA
  8
05
 10
308.57396
 20
192.132529
 30
0.0
  0
VERTEX
  5
6EB
  8
05
 10
308.730217
 20
191.37027
 30
0.0
  0
VERTEX
  5
6EC
  8
05
 10
308.964594
 20
190.543062
 30
0.0
  0
VERTEX
  5
6ED
  8
05
 10
309.26347
 20
189.69898
 30
0.0
  0
VERTEX
  5
6EE
  8
05
 10
309.609477
 20
188.887079
 30
0.0
  0
VERTEX
  5
6EF
  8
05
 10
309.982505
 20
188.154544
 30
0.0
  0
VERTEX
  5
6F0
  8
05
 10
310.360876
 20
187.543947
 30
0.0
  0
VERTEX
  5
6F1
  8
05
 10
310.7226
 20
187.090774
 30
0.0
  0
VERTEX
  5
6F2
  8
05
 10
311.046654
 20
186.821362
 30
0.0
  0
VERTEX
  5
6F3
  8
05
 10
311.314207
 20
186.751367
 30
0.0
  0
VERTEX
  5
6F4
  8
05
 10
311.509708
 20
186.884857
 30
0.0
  0
VERTEX
  5
6F5
  8
05
 10
311.558438
 20
186.977983
 30
0.0
  0
SEQEND
  5
6F6
  8
05
  0
LINE
  5
285
  8
05
 10
290.66086
 20
184.178811
 30
0.0
 11
284.852585
 21
191.455512
 31
0.0
  0
LINE
  5
286
  8
05
 10
284.846194
 20
161.166133
 30
0.0
 11
293.07481
 21
169.015746
 31
0.0
  0
LINE
  5
287
  8
035
 10
295.96095
 20
150.886654
 30
0.0
 11
286.289264
 21
152.101586
 31
0.0
  0
LINE
  5
288
  8
05
 10
286.289264
 20
152.101586
 30
0.0
 11
284.846194
 21
161.166133
 31
0.0
  0
LINE
  5
289
  8
05
 10
295.96095
 20
150.886654
 30
0.0
 11
286.49806
 21
162.741915
 31
0.0
  0
LINE
  5
28A
  8
035
 10
276.711583
 20
179.008563
 30
0.0
 11
290.66086
 21
184.178811
 31
0.0
  0
LINE
  5
28B
  8
035
 10
273.140467
 20
177.684942
 30
0.0
 11
275.44282
 21
178.5383
 31
0.0
  0
LINE
  5
28C
  8
05
 10
290.66086
 20
184.178811
 30
0.0
 11
293.07481
 21
169.015746
 31
0.0
  0
LINE
  5
28D
  8
05
 10
325.263996
 20
166.547427
 30
0.0
 11
323.820926
 21
175.611974
 31
0.0
  0
LINE
  5
28E
  8
035
 10
325.263996
 20
166.547427
 30
0.0
 11
317.383157
 21
176.42067
 31
0.0
  0
LINE
  5
28F
  8
05
 10
305.41883
 20
173.251216
 30
0.0
 11
306.709082
 21
165.146589
 31
0.0
  0
LINE
  5
290
  8
035
 10
305.41883
 20
173.251216
 30
0.0
 11
314.268145
 21
162.164651
 31
0.0
  0
LINE
  5
291
  8
035
 10
317.03538
 20
158.697814
 30
0.0
 11
319.108819
 21
160.675752
 31
0.0
  0
POLYLINE
  5
292
  8
05
 66
     1
 10
0.0
 20
0.0
 30
0.0
  0
VERTEX
  5
6F7
  8
05
 10
329.222492
 20
148.540931
 30
0.0
  0
VERTEX
  5
6F8
  8
05
 10
328.844477
 20
148.976575
 30
0.0
  0
VERTEX
  5
6F9
  8
05
 10
327.74967
 20
149.922284
 30
0.0
  0
VERTEX
  5
6FA
  8
05
 10
326.460202
 20
150.649645
 30
0.0
  0
VERTEX
  5
6FB
  8
05
 10
325.007825
 20
151.140748
 30
0.0
  0
VERTEX
  5
6FC
  8
05
 10
323.428301
 20
151.383501
 30
0.0
  0
VERTEX
  5
6FD
  8
05
 10
321.760523
 20
151.371926
 30
0.0
  0
VERTEX
  5
6FE
  8
05
 10
320.045557
 20
151.106308
 30
0.0
  0
VERTEX
  5
6FF
  8
05
 10
318.325632
 20
150.593187
 30
0.0
  0
SEQEND
  5
700
  8
05
  0
LINE
  5
293
  8
05
 10
312.016732
 20
152.617349
 30
0.0
 11
310.847478
 21
159.96194
 31
0.0
  0
LINE
  5
294
  8
05
 10
314.187236
 20
155.777837
 30
0.0
 11
318.325632
 21
150.593187
 31
0.0
  0
LINE
  5
295
  8
035
 10
317.03538
 20
158.697814
 30
0.0
 11
318.325632
 21
150.593187
 31
0.0
  0
LINE
  5
296
  8
035
 10
315.35649
 20
148.433246
 30
0.0
 11
314.187236
 21
155.777837
 31
0.0
  0
LINE
  5
297
  8
05
 10
312.506412
 20
151.975419
 30
0.0
 11
314.878125
 21
149.004099
 31
0.0
  0
LINE
  5
298
  8
05
 10
313.193612
 20
147.658818
 30
0.0
 11
314.47204
 21
149.512848
 31
0.0
  0
POLYLINE
  5
299
  8
05
 66
     1
 10
0.0
 20
0.0
 30
0.0
  0
VERTEX
  5
701
  8
05
 10
312.715247
 20
148.229671
 30
0.0
  0
VERTEX
  5
702
  8
05
 10
313.303621
 20
148.515245
 30
0.0
  0
VERTEX
  5
703
  8
05
 10
313.837545
 20
148.911719
 30
0.0
  0
VERTEX
  5
704
  8
05
 10
314.285977
 20
149.396068
 30
0.0
  0
VERTEX
  5
705
  8
05
 10
314.407975
 20
149.593111
 30
0.0
  0
SEQEND
  5
706
  8
05
  0
LINE
  5
29A
  8
05
 10
313.193612
 20
147.658818
 30
0.0
 11
315.565325
 21
144.687499
 31
0.0
  0
LINE
  5
29B
  8
05
 10
313.19927
 20
147.62328
 30
0.0
 11
313.193612
 21
147.658818
 31
0.0
  0
LINE
  5
29C
  8
05
 10
313.216356
 20
145.08199
 30
0.0
 11
312.715247
 21
148.229671
 31
0.0
  0
LINE
  5
29D
  8
05
 10
313.19927
 20
147.62328
 30
0.0
 11
313.179741
 21
147.647746
 31
0.0
  0
LINE
  5
29E
  8
05
 10
313.179741
 20
147.647746
 30
0.0
 11
312.715247
 21
148.229671
 31
0.0
  0
LINE
  5
29F
  8
05
 10
314.872467
 20
149.039638
 30
0.0
 11
314.891996
 21
149.015171
 31
0.0
  0
LINE
  5
2A0
  8
05
 10
314.891996
 20
149.015171
 30
0.0
 11
314.913317
 21
148.98846
 31
0.0
  0
LINE
  5
2A1
  8
05
 10
314.913317
 20
148.98846
 30
0.0
 11
315.35649
 21
148.433246
 31
0.0
  0
LINE
  5
2A2
  8
05
 10
314.913317
 20
148.98846
 30
0.0
 11
314.878125
 21
149.004099
 31
0.0
  0
LINE
  5
2A3
  8
05
 10
315.570983
 20
144.65196
 30
0.0
 11
315.565325
 21
144.687499
 31
0.0
  0
LINE
  5
2A4
  8
05
 10
314.878125
 20
149.004099
 30
0.0
 11
314.872467
 21
149.039638
 31
0.0
  0
LINE
  5
2A5
  8
05
 10
315.570983
 20
144.65196
 30
0.0
 11
316.055005
 21
144.045568
 31
0.0
  0
LINE
  5
2A6
  8
05
 10
317.682463
 20
147.757863
 30
0.0
 11
315.865285
 21
148.565409
 31
0.0
  0
POLYLINE
  5
2A7
  8
05
 66
     1
 10
0.0
 20
0.0
 30
0.0
  0
VERTEX
  5
707
  8
05
 10
315.35649
 20
148.433246
 30
0.0
  0
VERTEX
  5
708
  8
05
 10
315.965157
 20
148.591351
 30
0.0
  0
VERTEX
  5
709
  8
05
 10
316.558785
 20
148.6128
 30
0.0
  0
VERTEX
  5
70A
  8
05
 10
317.102868
 20
148.496323
 30
0.0
  0
VERTEX
  5
70B
  8
05
 10
317.565773
 20
148.248674
 30
0.0
  0
VERTEX
  5
70C
  8
05
 10
317.863067
 20
147.960778
 30
0.0
  0
SEQEND
  5
70D
  8
05
  0
LINE
  5
2A8
  8
05
 10
315.565325
 20
144.687499
 30
0.0
 11
317.682463
 21
147.757863
 31
0.0
  0
POLYLINE
  5
2A9
  8
05
 66
     1
 10
0.0
 20
0.0
 30
0.0
  0
VERTEX
  5
70E
  8
05
 10
315.570983
 20
144.65196
 30
0.0
  0
VERTEX
  5
70F
  8
05
 10
316.159529
 20
144.937638
 30
0.0
  0
VERTEX
  5
710
  8
05
 10
316.693508
 20
145.334212
 30
0.0
  0
VERTEX
  5
711
  8
05
 10
317.141906
 20
145.81861
 30
0.0
  0
VERTEX
  5
712
  8
05
 10
317.47869
 20
146.362673
 30
0.0
  0
VERTEX
  5
713
  8
05
 10
317.684312
 20
146.934787
 30
0.0
  0
VERTEX
  5
714
  8
05
 10
317.746843
 20
147.501716
 30
0.0
  0
VERTEX
  5
715
  8
05
 10
317.662656
 20
148.03053
 30
0.0
  0
VERTEX
  5
716
  8
05
 10
317.551796
 20
148.256152
 30
0.0
  0
SEQEND
  5
717
  8
05
  0
POLYLINE
  5
2AA
  8
05
 66
     1
 10
0.0
 20
0.0
 30
0.0
  0
VERTEX
  5
718
  8
05
 10
317.863067
 20
147.960778
 30
0.0
  0
VERTEX
  5
719
  8
05
 10
317.920583
 20
147.884235
 30
0.0
  0
VERTEX
  5
71A
  8
05
 10
318.146663
 20
147.424187
 30
0.0
  0
VERTEX
  5
71B
  8
05
 10
318.230867
 20
146.89527
 30
0.0
  0
VERTEX
  5
71C
  8
05
 10
318.168297
 20
146.328235
 30
0.0
  0
VERTEX
  5
71D
  8
05
 10
317.962598
 20
145.756046
 30
0.0
  0
VERTEX
  5
71E
  8
05
 10
317.625736
 20
145.211965
 30
0.0
  0
VERTEX
  5
71F
  8
05
 10
317.177303
 20
144.727616
 30
0.0
  0
VERTEX
  5
720
  8
05
 10
316.643379
 20
144.331142
 30
0.0
  0
VERTEX
  5
721
  8
05
 10
316.055005
 20
144.045568
 30
0.0
  0
SEQEND
  5
722
  8
05
  0
LINE
  5
2AB
  8
05
 10
312.506412
 20
151.975419
 30
0.0
 11
312.500755
 21
152.010957
 31
0.0
  0
LINE
  5
2AC
  8
05
 10
312.500755
 20
152.010957
 30
0.0
 11
312.016732
 21
152.617349
 31
0.0
  0
LINE
  5
2AD
  8
05
 10
310.847478
 20
159.96194
 30
0.0
 11
306.709082
 21
165.146589
 31
0.0
  0
LINE
  5
2AE
  8
035
 10
315.662647
 20
160.417596
 30
0.0
 11
317.03538
 21
158.697814
 31
0.0
  0
LINE
  5
2AF
  8
035
 10
327.431146
 20
144.928677
 30
0.0
 11
326.580779
 21
150.270197
 31
0.0
  0
LINE
  5
2B0
  8
05
 10
330.719175
 20
145.085548
 30
0.0
 11
326.580779
 21
150.270197
 31
0.0
  0
LINE
  5
2B1
  8
05
 10
326.580779
 20
150.270197
 30
0.0
 11
326.482066
 21
150.637312
 31
0.0
  0
LINE
  5
2B2
  8
025
 10
334.389482
 20
149.274286
 30
0.0
 11
334.195873
 21
149.516843
 31
0.0
  0
LINE
  5
2B3
  8
025
 10
334.174726
 20
149.699751
 30
0.0
 11
334.389482
 21
149.274286
 31
0.0
  0
LINE
  5
2B4
  8
025
 10
334.174726
 20
149.699751
 30
0.0
 11
334.389482
 21
149.274286
 31
0.0
  0
LINE
  5
2B5
  8
025
 10
333.695331
 20
149.017002
 30
0.0
 11
333.495761
 21
149.347083
 31
0.0
  0
LINE
  5
2B6
  8
025
 10
333.695331
 20
149.017002
 30
0.0
 11
333.495761
 21
149.347083
 31
0.0
  0
POLYLINE
  5
2B7
  8
05
 66
     1
 10
0.0
 20
0.0
 30
0.0
  0
VERTEX
  5
723
  8
05
 10
330.719175
 20
145.085548
 30
0.0
  0
VERTEX
  5
724
  8
05
 10
330.347738
 20
146.528061
 30
0.0
  0
VERTEX
  5
725
  8
05
 10
329.717667
 20
147.835804
 30
0.0
  0
VERTEX
  5
726
  8
05
 10
329.222492
 20
148.540931
 30
0.0
  0
SEQEND
  5
727
  8
05
  0
LINE
  5
2B8
  8
025
 10
334.120514
 20
146.346242
 30
0.0
 11
334.46108
 21
146.977534
 31
0.0
  0
LINE
  5
2B9
  8
025
 10
334.05761
 20
145.817864
 30
0.0
 11
334.120514
 21
146.346242
 31
0.0
  0
LINE
  5
2BA
  8
025
 10
334.148721
 20
145.245558
 30
0.0
 11
334.05761
 21
145.817864
 31
0.0
  0
LINE
  5
2BB
  8
025
 10
334.363476
 20
144.820093
 30
0.0
 11
334.148721
 21
145.245558
 31
0.0
  0
LINE
  5
2BC
  8
025
 10
334.662284
 20
144.740099
 30
0.0
 11
334.416525
 21
144.90108
 31
0.0
  0
LINE
  5
2BD
  8
025
 10
334.416525
 20
144.90108
 30
0.0
 11
334.276202
 21
144.992996
 31
0.0
  0
LINE
  5
2BE
  8
025
 10
334.636241
 20
146.750699
 30
0.0
 11
334.558151
 21
146.317705
 31
0.0
  0
LINE
  5
2BF
  8
025
 10
334.558151
 20
146.317705
 30
0.0
 11
334.649262
 21
145.745399
 31
0.0
  0
LINE
  5
2C0
  8
025
 10
334.6102
 20
148.761299
 30
0.0
 11
334.163338
 21
148.797696
 31
0.0
  0
LINE
  5
2C1
  8
025
 10
334.356947
 20
148.555139
 30
0.0
 11
334.033732
 21
148.738379
 31
0.0
  0
LINE
  5
2C2
  8
025
 10
334.356947
 20
148.555139
 30
0.0
 11
334.163338
 21
148.797696
 31
0.0
  0
LINE
  5
2C3
  8
025
 10
334.033732
 20
148.738379
 30
0.0
 11
333.840123
 21
148.980936
 31
0.0
  0
LINE
  5
2C4
  8
025
 10
334.163338
 20
148.797696
 30
0.0
 11
333.840123
 21
148.980936
 31
0.0
  0
LINE
  5
2C5
  8
025
 10
333.840123
 20
148.980936
 30
0.0
 11
333.736132
 21
149.066557
 31
0.0
  0
LINE
  5
2C6
  8
025
 10
334.75176
 20
146.075148
 30
0.0
 11
334.558151
 21
146.317705
 31
0.0
  0
LINE
  5
2C7
  8
025
 10
334.148721
 20
145.245558
 30
0.0
 11
334.363476
 21
144.820093
 31
0.0
  0
LINE
  5
2C8
  8
025
 10
334.05761
 20
145.817864
 30
0.0
 11
334.148721
 21
145.245558
 31
0.0
  0
LINE
  5
2C9
  8
025
 10
334.120514
 20
146.346242
 30
0.0
 11
334.05761
 21
145.817864
 31
0.0
  0
LINE
  5
2CA
  8
025
 10
334.46108
 20
146.977534
 30
0.0
 11
334.120514
 21
146.346242
 31
0.0
  0
LINE
  5
2CB
  8
025
 10
334.356947
 20
148.555139
 30
0.0
 11
334.033732
 21
148.738379
 31
0.0
  0
LINE
  5
2CC
  8
025
 10
333.736132
 20
149.066557
 30
0.0
 11
333.595226
 21
149.182572
 31
0.0
  0
LINE
  5
2CD
  8
025
 10
334.033732
 20
148.738379
 30
0.0
 11
333.695331
 21
149.017002
 31
0.0
  0
LINE
  5
2CE
  8
025
 10
334.033732
 20
148.738379
 30
0.0
 11
333.695331
 21
149.017002
 31
0.0
  0
LINE
  5
2CF
  8
025
 10
334.389482
 20
149.274286
 30
0.0
 11
334.558683
 21
149.134975
 31
0.0
  0
LINE
  5
2D0
  8
025
 10
334.389482
 20
149.274286
 30
0.0
 11
334.558683
 21
149.134975
 31
0.0
  0
LINE
  5
2D1
  8
025
 10
334.287515
 20
151.761808
 30
0.0
 11
334.68882
 21
152.011563
 31
0.0
  0
LINE
  5
2D2
  8
025
 10
333.901394
 20
151.416668
 30
0.0
 11
334.287515
 21
151.761808
 31
0.0
  0
LINE
  5
2D3
  8
025
 10
334.14652
 20
150.800435
 30
0.0
 11
333.952911
 21
151.042992
 31
0.0
  0
LINE
  5
2D4
  8
025
 10
334.25498
 20
151.042661
 30
0.0
 11
334.061371
 21
151.285217
 31
0.0
  0
LINE
  5
2D5
  8
025
 10
334.50227
 20
151.336343
 30
0.0
 11
334.308661
 21
151.578899
 31
0.0
  0
LINE
  5
2D6
  8
025
 10
334.764745
 20
151.534641
 30
0.0
 11
334.571136
 21
151.777198
 31
0.0
  0
LINE
  5
2D7
  8
025
 10
334.547798
 20
151.923797
 30
0.0
 11
334.571136
 21
151.777198
 31
0.0
  0
LINE
  5
2D8
  8
025
 10
334.083615
 20
150.272057
 30
0.0
 11
334.174726
 21
149.699751
 31
0.0
  0
LINE
  5
2D9
  8
025
 10
334.14652
 20
150.800435
 30
0.0
 11
334.083615
 21
150.272057
 31
0.0
  0
LINE
  5
2DA
  8
025
 10
334.25498
 20
151.042661
 30
0.0
 11
334.14652
 21
150.800435
 31
0.0
  0
LINE
  5
2DB
  8
025
 10
334.50227
 20
151.336343
 30
0.0
 11
334.25498
 21
151.042661
 31
0.0
  0
LINE
  5
2DC
  8
025
 10
334.764745
 20
151.534641
 30
0.0
 11
334.50227
 21
151.336343
 31
0.0
  0
LINE
  5
2DD
  8
025
 10
334.68882
 20
152.011563
 30
0.0
 11
334.764745
 21
151.534641
 31
0.0
  0
LINE
  5
2DE
  8
025
 10
334.571136
 20
151.777198
 30
0.0
 11
334.383172
 21
151.635192
 31
0.0
  0
LINE
  5
2DF
  8
025
 10
334.383172
 20
151.635192
 30
0.0
 11
334.308661
 21
151.578899
 31
0.0
  0
LINE
  5
2E0
  8
025
 10
334.308661
 20
151.578899
 30
0.0
 11
334.061371
 21
151.285217
 31
0.0
  0
LINE
  5
2E1
  8
025
 10
334.061371
 20
151.285217
 30
0.0
 11
333.952911
 21
151.042992
 31
0.0
  0
LINE
  5
2E2
  8
025
 10
333.952911
 20
151.042992
 30
0.0
 11
333.890006
 21
150.514614
 31
0.0
  0
LINE
  5
2E3
  8
025
 10
333.890006
 20
150.514614
 30
0.0
 11
333.981117
 21
149.942307
 31
0.0
  0
LINE
  5
2E4
  8
025
 10
333.981117
 20
149.942307
 30
0.0
 11
334.195873
 21
149.516843
 31
0.0
  0
LINE
  5
2E5
  8
025
 10
334.174726
 20
149.699751
 30
0.0
 11
333.981117
 21
149.942307
 31
0.0
  0
LINE
  5
2E6
  8
025
 10
334.083615
 20
150.272057
 30
0.0
 11
333.890006
 21
150.514614
 31
0.0
  0
LINE
  5
2E7
  8
025
 10
334.25498
 20
151.042661
 30
0.0
 11
334.14652
 21
150.800435
 31
0.0
  0
LINE
  5
2E8
  8
025
 10
334.14652
 20
150.800435
 30
0.0
 11
334.083615
 21
150.272057
 31
0.0
  0
LINE
  5
2E9
  8
025
 10
334.083615
 20
150.272057
 30
0.0
 11
334.174726
 21
149.699751
 31
0.0
  0
LINE
  5
2EA
  8
025
 10
333.901394
 20
151.416668
 30
0.0
 11
334.287515
 21
151.761808
 31
0.0
  0
LINE
  5
2EB
  8
025
 10
334.287515
 20
151.761808
 30
0.0
 11
334.68882
 21
152.011563
 31
0.0
  0
LINE
  5
2EC
  8
025
 10
334.68882
 20
152.011563
 30
0.0
 11
334.764745
 21
151.534641
 31
0.0
  0
LINE
  5
2ED
  8
025
 10
334.764745
 20
151.534641
 30
0.0
 11
334.50227
 21
151.336343
 31
0.0
  0
LINE
  5
2EE
  8
025
 10
334.50227
 20
151.336343
 30
0.0
 11
334.25498
 21
151.042661
 31
0.0
  0
LINE
  5
2EF
  8
025
 10
333.452369
 20
150.543151
 30
0.0
 11
333.669289
 21
151.027602
 31
0.0
  0
LINE
  5
2F0
  8
025
 10
333.37428
 20
150.110157
 30
0.0
 11
333.452369
 21
150.543151
 31
0.0
  0
LINE
  5
2F1
  8
025
 10
333.495761
 20
149.347083
 30
0.0
 11
333.37428
 21
150.110157
 31
0.0
  0
LINE
  5
2F2
  8
025
 10
333.495761
 20
149.347083
 30
0.0
 11
333.37428
 21
150.110157
 31
0.0
  0
LINE
  5
2F3
  8
025
 10
333.37428
 20
150.110157
 30
0.0
 11
333.452369
 21
150.543151
 31
0.0
  0
LINE
  5
2F4
  8
025
 10
333.452369
 20
150.543151
 30
0.0
 11
333.669289
 21
151.027602
 31
0.0
  0
LINE
  5
2F5
  8
025
 10
333.669289
 20
151.027602
 30
0.0
 11
333.901394
 21
151.416668
 31
0.0
  0
LINE
  5
2F6
  8
025
 10
333.669289
 20
151.027602
 30
0.0
 11
333.901394
 21
151.416668
 31
0.0
  0
LINE
  5
2F7
  8
035
 10
320.282207
 20
161.795095
 30
0.0
 11
325.263996
 21
166.547427
 31
0.0
  0
LINE
  5
2F8
  8
05
 10
323.820926
 20
175.611974
 30
0.0
 11
314.14924
 21
176.826906
 31
0.0
  0
LINE
  5
2F9
  8
035
 10
312.383573
 20
187.917825
 30
0.0
 11
314.14924
 21
176.826906
 31
0.0
  0
LINE
  5
2FA
  8
05
 10
305.41883
 20
173.251216
 30
0.0
 11
311.99558
 21
179.525047
 31
0.0
  0
POLYLINE
  5
2FB
  8
05
 66
     1
 10
0.0
 20
0.0
 30
0.0
  0
VERTEX
  5
728
  8
05
 10
311.558438
 20
186.977983
 30
0.0
  0
VERTEX
  5
729
  8
05
 10
311.621796
 20
187.214076
 30
0.0
  0
VERTEX
  5
72A
  8
05
 10
311.643957
 20
187.719889
 30
0.0
  0
VERTEX
  5
72B
  8
05
 10
311.574903
 20
188.3729
 30
0.0
  0
SEQEND
  5
72C
  8
05
  0
LINE
  5
2FC
  8
035
 10
300.11874
 20
206.543373
 30
0.0
 11
302.829268
 21
203.147579
 31
0.0
  0
LINE
  5
2FD
  8
05
 10
321.2163
 20
214.363106
 30
0.0
 11
300.11874
 21
206.543373
 31
0.0
  0
LINE
  5
2FE
  8
05
 10
281.754838
 20
195.336419
 30
0.0
 11
279.044309
 21
198.732212
 31
0.0
  0
LINE
  5
2FF
  8
05
 10
283.055834
 20
190.789553
 30
0.0
 11
282.334909
 21
191.692739
 31
0.0
  0
LINE
  5
300
  8
05
 10
281.754838
 20
195.336419
 30
0.0
 11
282.334909
 21
191.692739
 31
0.0
  0
LINE
  5
301
  8
05
 10
300.11874
 20
206.543373
 30
0.0
 11
302.53269
 21
191.380308
 31
0.0
  0
LINE
  5
302
  8
05
 10
321.2163
 20
214.363106
 30
0.0
 11
328.652426
 21
211.058522
 31
0.0
  0
LINE
  5
303
  8
035
 10
321.2163
 20
214.363106
 30
0.0
 11
323.926829
 21
210.967312
 31
0.0
  0
LINE
  5
304
  8
05
 10
327.024575
 20
207.086405
 30
0.0
 11
305.927015
 21
199.266672
 31
0.0
  0
LINE
  5
305
  8
035
 10
323.926829
 20
210.967312
 30
0.0
 11
307.257916
 21
204.789041
 31
0.0
  0
LINE
  5
306
  8
035
 10
303.40934
 20
199.503899
 30
0.0
 11
328.661162
 21
208.863394
 31
0.0
  0
LINE
  5
307
  8
035
 10
302.829268
 20
203.147579
 30
0.0
 11
303.40934
 21
199.503899
 31
0.0
  0
LINE
  5
308
  8
035
 10
305.927015
 20
199.266672
 30
0.0
 11
311.73529
 21
191.989971
 31
0.0
  0
LINE
  5
309
  8
05
 10
305.927015
 20
199.266672
 30
0.0
 11
306.507087
 21
195.622992
 31
0.0
  0
LINE
  5
30A
  8
035
 10
303.40934
 20
199.503899
 30
0.0
 11
306.507087
 21
195.622992
 31
0.0
  0
POLYLINE
  5
30B
  8
05
 66
     1
 10
0.0
 20
0.0
 30
0.0
  0
VERTEX
  5
72D
  8
05
 10
309.585813
 20
193.214769
 30
0.0
  0
VERTEX
  5
72E
  8
05
 10
309.489179
 20
192.999742
 30
0.0
  0
VERTEX
  5
72F
  8
05
 10
309.459853
 20
192.576068
 30
0.0
  0
VERTEX
  5
730
  8
05
 10
309.516876
 20
192.010542
 30
0.0
  0
SEQEND
  5
731
  8
05
  0
POLYLINE
  5
30C
  8
05
 66
     1
 10
0.0
 20
0.0
 30
0.0
  0
VERTEX
  5
732
  8
05
 10
309.065999
 20
193.703535
 30
0.0
  0
VERTEX
  5
733
  8
05
 10
308.834656
 20
193.754063
 30
0.0
  0
VERTEX
  5
734
  8
05
 10
308.639155
 20
193.620572
 30
0.0
  0
VERTEX
  5
735
  8
05
 10
308.527067
 20
193.291354
 30
0.0
  0
VERTEX
  5
736
  8
05
 10
308.504906
 20
192.785541
 30
0.0
  0
VERTEX
  5
737
  8
05
 10
308.57396
 20
192.132529
 30
0.0
  0
SEQEND
  5
738
  8
05
  0
LINE
  5
30D
  8
035
 10
313.222671
 20
192.541263
 30
0.0
 11
311.73529
 21
191.989971
 31
0.0
  0
LINE
  5
30E
  8
035
 10
316.972234
 20
193.931025
 30
0.0
 11
314.688019
 21
193.084389
 31
0.0
  0
LINE
  5
30F
  8
035
 10
305.0403
 20
203.96709
 30
0.0
 11
302.829268
 21
203.147579
 31
0.0
  0
LINE
  5
310
  8
035
 10
327.024575
 20
207.086405
 30
0.0
 11
332.832851
 21
199.809704
 31
0.0
  0
LINE
  5
311
  8
035
 10
332.832851
 20
199.809704
 30
0.0
 11
319.985167
 21
195.047757
 31
0.0
  0
LINE
  5
312
  8
035
 10
323.926829
 20
210.967312
 30
0.0
 11
328.661162
 21
208.863394
 31
0.0
  0
LINE
  5
313
  8
035
 10
328.661162
 20
208.863394
 30
0.0
 11
331.758909
 21
204.982487
 31
0.0
  0
LINE
  5
314
  8
05
 10
327.024575
 20
207.086405
 30
0.0
 11
331.758909
 21
204.982487
 31
0.0
  0
POLYLINE
  5
315
  8
025
 66
     1
 10
0.0
 20
0.0
 30
0.0
  0
VERTEX
  5
739
  8
025
 10
352.681529
 20
191.423365
 30
0.0
  0
VERTEX
  5
73A
  8
025
 10
352.964585
 20
190.675104
 30
0.0
  0
VERTEX
  5
73B
  8
025
 10
353.248511
 20
189.791331
 30
0.0
  0
VERTEX
  5
73C
  8
025
 10
353.472631
 20
188.937564
 30
0.0
  0
VERTEX
  5
73D
  8
025
 10
353.628331
 20
188.146616
 30
0.0
  0
SEQEND
  5
73E
  8
025
  0
POLYLINE
  5
316
  8
035
 66
     1
 10
0.0
 20
0.0
 30
0.0
  0
VERTEX
  5
73F
  8
035
 10
363.965303
 20
195.786393
 30
0.0
  0
VERTEX
  5
740
  8
035
 10
364.32164
 20
194.858586
 30
0.0
  0
VERTEX
  5
741
  8
035
 10
364.885656
 20
193.191618
 30
0.0
  0
VERTEX
  5
742
  8
035
 10
365.365808
 20
191.549478
 30
0.0
  0
VERTEX
  5
743
  8
035
 10
365.750273
 20
189.9726
 30
0.0
  0
VERTEX
  5
744
  8
035
 10
366.029583
 20
188.499812
 30
0.0
  0
SEQEND
  5
745
  8
035
  0
POLYLINE
  5
317
  8
05
 66
     1
 10
0.0
 20
0.0
 30
0.0
  0
VERTEX
  5
746
  8
05
 10
349.152668
 20
191.988279
 30
0.0
  0
VERTEX
  5
747
  8
05
 10
349.279114
 20
191.35358
 30
0.0
  0
VERTEX
  5
748
  8
05
 10
349.463496
 20
190.667114
 30
0.0
  0
VERTEX
  5
749
  8
05
 10
349.697756
 20
189.958883
 30
0.0
  0
VERTEX
  5
74A
  8
05
 10
349.971655
 20
189.259839
 30
0.0
  0
VERTEX
  5
74B
  8
05
 10
350.273223
 20
188.600535
 30
0.0
  0
VERTEX
  5
74C
  8
05
 10
350.58928
 20
188.009784
 30
0.0
  0
VERTEX
  5
74D
  8
05
 10
350.906012
 20
187.513406
 30
0.0
  0
VERTEX
  5
74E
  8
05
 10
351.209577
 20
187.133095
 30
0.0
  0
VERTEX
  5
74F
  8
05
 10
351.486707
 20
186.885472
 30
0.0
  0
VERTEX
  5
750
  8
05
 10
351.580733
 20
186.829622
 30
0.0
  0
SEQEND
  5
751
  8
05
  0
LINE
  5
318
  8
05
 10
378.667578
 20
188.540603
 30
0.0
 11
388.967363
 21
192.358181
 31
0.0
  0
POLYLINE
  5
319
  8
05
 66
     1
 10
0.0
 20
0.0
 30
0.0
  0
VERTEX
  5
752
  8
05
 10
376.604502
 20
189.022207
 30
0.0
  0
VERTEX
  5
753
  8
05
 10
376.791854
 20
189.747924
 30
0.0
  0
VERTEX
  5
754
  8
05
 10
376.853482
 20
190.638252
 30
0.0
  0
VERTEX
  5
755
  8
05
 10
376.805943
 20
191.716126
 30
0.0
  0
VERTEX
  5
756
  8
05
 10
376.650409
 20
192.955005
 30
0.0
  0
SEQEND
  5
757
  8
05
  0
POLYLINE
  5
31A
  8
025
 66
     1
 10
0.0
 20
0.0
 30
0.0
  0
VERTEX
  5
758
  8
025
 10
362.763357
 20
191.53248
 30
0.0
  0
VERTEX
  5
759
  8
025
 10
362.807477
 20
191.221044
 30
0.0
  0
VERTEX
  5
75A
  8
025
 10
362.840838
 20
190.888369
 30
0.0
  0
VERTEX
  5
75B
  8
025
 10
362.856171
 20
190.545871
 30
0.0
  0
VERTEX
  5
75C
  8
025
 10
362.844761
 20
190.209714
 30
0.0
  0
VERTEX
  5
75D
  8
025
 10
362.796675
 20
189.901457
 30
0.0
  0
VERTEX
  5
75E
  8
025
 10
362.701271
 20
189.648253
 30
0.0
  0
VERTEX
  5
75F
  8
025
 10
362.596414
 20
189.5347
 30
0.0
  0
SEQEND
  5
760
  8
025
  0
POLYLINE
  5
31B
  8
025
 66
     1
 10
0.0
 20
0.0
 30
0.0
  0
VERTEX
  5
761
  8
025
 10
363.706273
 20
191.410492
 30
0.0
  0
VERTEX
  5
762
  8
025
 10
363.756985
 20
191.052554
 30
0.0
  0
VERTEX
  5
763
  8
025
 10
363.795359
 20
190.669985
 30
0.0
  0
VERTEX
  5
764
  8
025
 10
363.813006
 20
190.27611
 30
0.0
  0
VERTEX
  5
765
  8
025
 10
363.799904
 20
189.889519
 30
0.0
  0
VERTEX
  5
766
  8
025
 10
363.744631
 20
189.534998
 30
0.0
  0
VERTEX
  5
767
  8
025
 10
363.63495
 20
189.243768
 30
0.0
  0
VERTEX
  5
768
  8
025
 10
363.459037
 20
189.053161
 30
0.0
  0
VERTEX
  5
769
  8
025
 10
363.212323
 20
189.003542
 30
0.0
  0
VERTEX
  5
76A
  8
025
 10
362.905752
 20
189.117946
 30
0.0
  0
VERTEX
  5
76B
  8
025
 10
362.556719
 20
189.392185
 30
0.0
  0
SEQEND
  5
76C
  8
025
  0
POLYLINE
  5
31C
  8
05
 66
     1
 10
0.0
 20
0.0
 30
0.0
  0
VERTEX
  5
76D
  8
05
 10
376.202739
 20
188.058972
 30
0.0
  0
VERTEX
  5
76E
  8
05
 10
376.404239
 20
188.839491
 30
0.0
  0
VERTEX
  5
76F
  8
05
 10
376.47052
 20
189.797052
 30
0.0
  0
VERTEX
  5
770
  8
05
 10
376.419391
 20
190.956321
 30
0.0
  0
VERTEX
  5
771
  8
05
 10
376.252112
 20
192.288754
 30
0.0
  0
SEQEND
  5
772
  8
05
  0
POLYLINE
  5
31D
  8
025
 66
     1
 10
0.0
 20
0.0
 30
0.0
  0
VERTEX
  5
773
  8
025
 10
349.16839
 20
193.338111
 30
0.0
  0
VERTEX
  5
774
  8
025
 10
349.29457
 20
193.5129
 30
0.0
  0
VERTEX
  5
775
  8
025
 10
349.484181
 20
193.556848
 30
0.0
  0
VERTEX
  5
776
  8
025
 10
349.722765
 20
193.452735
 30
0.0
  0
VERTEX
  5
777
  8
025
 10
349.999896
 20
193.205112
 30
0.0
  0
VERTEX
  5
778
  8
025
 10
350.303461
 20
192.824801
 30
0.0
  0
VERTEX
  5
779
  8
025
 10
350.620193
 20
192.328423
 30
0.0
  0
VERTEX
  5
77A
  8
025
 10
350.93625
 20
191.737673
 30
0.0
  0
VERTEX
  5
77B
  8
025
 10
351.237818
 20
191.078368
 30
0.0
  0
VERTEX
  5
77C
  8
025
 10
351.511717
 20
190.379324
 30
0.0
  0
VERTEX
  5
77D
  8
025
 10
351.745977
 20
189.671093
 30
0.0
  0
VERTEX
  5
77E
  8
025
 10
351.930359
 20
188.984627
 30
0.0
  0
VERTEX
  5
77F
  8
025
 10
352.056805
 20
188.349928
 30
0.0
  0
SEQEND
  5
780
  8
025
  0
POLYLINE
  5
31E
  8
025
 66
     1
 10
0.0
 20
0.0
 30
0.0
  0
VERTEX
  5
781
  8
025
 10
378.667578
 20
188.540603
 30
0.0
  0
VERTEX
  5
782
  8
025
 10
378.973836
 20
188.746884
 30
0.0
  0
VERTEX
  5
783
  8
025
 10
379.267189
 20
189.235839
 30
0.0
  0
VERTEX
  5
784
  8
025
 10
379.449247
 20
189.968113
 30
0.0
  0
VERTEX
  5
785
  8
025
 10
379.515528
 20
190.925673
 30
0.0
  0
VERTEX
  5
786
  8
025
 10
379.4644
 20
192.084942
 30
0.0
  0
VERTEX
  5
787
  8
025
 10
379.297121
 20
193.417376
 30
0.0
  0
SEQEND
  5
788
  8
025
  0
POLYLINE
  5
31F
  8
025
 66
     1
 10
0.0
 20
0.0
 30
0.0
  0
VERTEX
  5
789
  8
025
 10
377.674573
 20
189.017201
 30
0.0
  0
VERTEX
  5
78A
  8
025
 10
377.959327
 20
189.208999
 30
0.0
  0
VERTEX
  5
78B
  8
025
 10
378.232083
 20
189.663623
 30
0.0
  0
VERTEX
  5
78C
  8
025
 10
378.401359
 20
190.344481
 30
0.0
  0
VERTEX
  5
78D
  8
025
 10
378.462986
 20
191.234809
 30
0.0
  0
VERTEX
  5
78E
  8
025
 10
378.415448
 20
192.312683
 30
0.0
  0
VERTEX
  5
78F
  8
025
 10
378.259914
 20
193.551562
 30
0.0
  0
SEQEND
  5
790
  8
025
  0
LINE
  5
320
  8
05
 10
347.709685
 20
149.766816
 30
0.0
 11
340.268976
 21
196.50512
 31
0.0
  0
LINE
  5
321
  8
05
 10
365.40004
 20
183.623039
 30
0.0
 11
375.622569
 21
187.411982
 31
0.0
  0
LINE
  5
322
  8
025
 10
337.259575
 20
148.519849
 30
0.0
 11
339.480858
 21
149.343159
 31
0.0
  0
LINE
  5
323
  8
025
 10
340.354852
 20
149.667102
 30
0.0
 11
340.871146
 21
146.424036
 31
0.0
  0
LINE
  5
324
  8
025
 10
340.208493
 20
149.612855
 30
0.0
 11
340.677536
 21
146.666593
 31
0.0
  0
LINE
  5
325
  8
025
 10
340.871146
 20
146.424036
 30
0.0
 11
340.354852
 21
149.667102
 31
0.0
  0
LINE
  5
326
  8
025
 10
335.714879
 20
149.260477
 30
0.0
 11
336.23983
 21
149.657074
 31
0.0
  0
LINE
  5
327
  8
025
 10
336.137331
 20
149.327324
 30
0.0
 11
335.786656
 21
149.131767
 31
0.0
  0
LINE
  5
328
  8
025
 10
336.71706
 20
149.429907
 30
0.0
 11
336.33094
 21
149.084768
 31
0.0
  0
LINE
  5
329
  8
025
 10
336.33094
 20
149.084768
 30
0.0
 11
336.137331
 21
149.327324
 31
0.0
  0
LINE
  5
32A
  8
025
 10
335.714879
 20
149.260477
 30
0.0
 11
336.23983
 21
149.657074
 31
0.0
  0
LINE
  5
32B
  8
025
 10
336.71706
 20
149.429907
 30
0.0
 11
336.33094
 21
149.084768
 31
0.0
  0
LINE
  5
32C
  8
025
 10
340.354852
 20
149.667102
 30
0.0
 11
336.745267
 21
148.329223
 31
0.0
  0
LINE
  5
32D
  8
025
 10
339.543017
 20
149.175453
 30
0.0
 11
337.321735
 21
148.352143
 31
0.0
  0
LINE
  5
32E
  8
025
 10
339.736627
 20
148.932896
 30
0.0
 11
337.515344
 21
148.109586
 31
0.0
  0
LINE
  5
32F
  8
025
 10
337.515344
 20
148.109586
 30
0.0
 11
339.736627
 21
148.932896
 31
0.0
  0
LINE
  5
330
  8
025
 10
337.328794
 20
147.434366
 30
0.0
 11
337.135185
 21
147.676923
 31
0.0
  0
LINE
  5
331
  8
025
 10
337.515344
 20
148.109586
 30
0.0
 11
337.321735
 21
148.352143
 31
0.0
  0
LINE
  5
332
  8
025
 10
337.528365
 20
147.104286
 30
0.0
 11
337.328794
 21
147.434366
 31
0.0
  0
LINE
  5
333
  8
025
 10
337.619475
 20
146.53198
 30
0.0
 11
337.528365
 21
147.104286
 31
0.0
  0
LINE
  5
334
  8
025
 10
337.541385
 20
146.098986
 30
0.0
 11
337.619475
 21
146.53198
 31
0.0
  0
LINE
  5
335
  8
025
 10
337.30928
 20
145.709919
 30
0.0
 11
337.541385
 21
146.098986
 31
0.0
  0
LINE
  5
336
  8
025
 10
337.515344
 20
148.109586
 30
0.0
 11
338.00776
 21
147.787035
 31
0.0
  0
LINE
  5
337
  8
025
 10
337.901425
 20
147.856689
 30
0.0
 11
337.951035
 21
147.758403
 31
0.0
  0
LINE
  5
338
  8
025
 10
337.951035
 20
147.758403
 30
0.0
 11
338.028907
 21
147.604127
 31
0.0
  0
LINE
  5
339
  8
025
 10
338.028907
 20
147.604127
 30
0.0
 11
338.120017
 21
147.031822
 31
0.0
  0
LINE
  5
33A
  8
025
 10
338.120017
 20
147.031822
 30
0.0
 11
338.057113
 21
146.503443
 31
0.0
  0
LINE
  5
33B
  8
025
 10
338.057113
 20
146.503443
 30
0.0
 11
337.716548
 21
145.872151
 31
0.0
  0
LINE
  5
33C
  8
025
 10
337.716548
 20
145.872151
 30
0.0
 11
337.424621
 21
145.590409
 31
0.0
  0
LINE
  5
33D
  8
025
 10
337.424621
 20
145.590409
 30
0.0
 11
337.206782
 21
145.38017
 31
0.0
  0
LINE
  5
33E
  8
025
 10
337.910157
 20
145.629594
 30
0.0
 11
337.400391
 21
145.137614
 31
0.0
  0
LINE
  5
33F
  8
025
 10
338.250722
 20
146.260887
 30
0.0
 11
337.910157
 21
145.629594
 31
0.0
  0
LINE
  5
340
  8
025
 10
338.313627
 20
146.789265
 30
0.0
 11
338.250722
 21
146.260887
 31
0.0
  0
LINE
  5
341
  8
025
 10
338.222516
 20
147.361571
 30
0.0
 11
338.313627
 21
146.789265
 31
0.0
  0
LINE
  5
342
  8
025
 10
338.00776
 20
147.787035
 30
0.0
 11
338.222516
 21
147.361571
 31
0.0
  0
LINE
  5
343
  8
025
 10
337.400391
 20
145.137614
 30
0.0
 11
337.206782
 21
145.38017
 31
0.0
  0
LINE
  5
344
  8
025
 10
337.910157
 20
145.629594
 30
0.0
 11
337.716548
 21
145.872151
 31
0.0
  0
LINE
  5
345
  8
025
 10
338.250722
 20
146.260887
 30
0.0
 11
338.057113
 21
146.503443
 31
0.0
  0
LINE
  5
346
  8
025
 10
338.313627
 20
146.789265
 30
0.0
 11
338.120017
 21
147.031822
 31
0.0
  0
LINE
  5
347
  8
025
 10
338.222516
 20
147.361571
 30
0.0
 11
338.028907
 21
147.604127
 31
0.0
  0
LINE
  5
348
  8
025
 10
338.00776
 20
147.787035
 30
0.0
 11
337.515344
 21
148.109586
 31
0.0
  0
LINE
  5
349
  8
025
 10
338.222516
 20
147.361571
 30
0.0
 11
338.00776
 21
147.787035
 31
0.0
  0
LINE
  5
34A
  8
025
 10
338.313627
 20
146.789265
 30
0.0
 11
338.222516
 21
147.361571
 31
0.0
  0
LINE
  5
34B
  8
025
 10
338.250722
 20
146.260887
 30
0.0
 11
338.313627
 21
146.789265
 31
0.0
  0
LINE
  5
34C
  8
025
 10
337.910157
 20
145.629594
 30
0.0
 11
338.250722
 21
146.260887
 31
0.0
  0
LINE
  5
34D
  8
025
 10
337.400391
 20
145.137614
 30
0.0
 11
337.910157
 21
145.629594
 31
0.0
  0
LINE
  5
34E
  8
025
 10
337.541385
 20
146.098986
 30
0.0
 11
337.30928
 21
145.709919
 31
0.0
  0
LINE
  5
34F
  8
025
 10
337.619475
 20
146.53198
 30
0.0
 11
337.541385
 21
146.098986
 31
0.0
  0
LINE
  5
350
  8
025
 10
337.528365
 20
147.104286
 30
0.0
 11
337.619475
 21
146.53198
 31
0.0
  0
LINE
  5
351
  8
025
 10
337.328794
 20
147.434366
 30
0.0
 11
337.528365
 21
147.104286
 31
0.0
  0
LINE
  5
352
  8
025
 10
335.042442
 20
145.172762
 30
0.0
 11
334.848833
 21
145.415319
 31
0.0
  0
LINE
  5
353
  8
025
 10
336.851563
 20
147.661533
 30
0.0
 11
336.745267
 21
148.329223
 31
0.0
  0
LINE
  5
354
  8
025
 10
336.521855
 20
145.115025
 30
0.0
 11
336.92316
 21
145.36478
 31
0.0
  0
LINE
  5
355
  8
025
 10
336.244194
 20
145.012111
 30
0.0
 11
336.521855
 21
145.115025
 31
0.0
  0
LINE
  5
356
  8
025
 10
335.812519
 20
144.953125
 30
0.0
 11
336.244194
 21
145.012111
 31
0.0
  0
LINE
  5
357
  8
025
 10
335.365658
 20
144.989523
 30
0.0
 11
335.812519
 21
144.953125
 31
0.0
  0
LINE
  5
358
  8
025
 10
335.042442
 20
145.172762
 30
0.0
 11
335.365658
 21
144.989523
 31
0.0
  0
LINE
  5
359
  8
025
 10
334.970845
 20
147.469515
 30
0.0
 11
335.495795
 21
147.866111
 31
0.0
  0
LINE
  5
35A
  8
025
 10
335.159558
 20
149.05465
 30
0.0
 11
335.714879
 21
149.260477
 31
0.0
  0
LINE
  5
35B
  8
025
 10
334.866713
 20
149.04712
 30
0.0
 11
335.159558
 21
149.05465
 31
0.0
  0
LINE
  5
35C
  8
025
 10
337.0048
 20
145.243832
 30
0.0
 11
336.613292
 21
144.979564
 31
0.0
  0
LINE
  5
35D
  8
025
 10
336.613292
 20
144.979564
 30
0.0
 11
336.543002
 21
144.932118
 31
0.0
  0
LINE
  5
35E
  8
025
 10
336.543002
 20
144.932118
 30
0.0
 11
336.306354
 21
144.844405
 31
0.0
  0
LINE
  5
35F
  8
025
 10
336.306354
 20
144.844405
 30
0.0
 11
335.987681
 21
144.72629
 31
0.0
  0
LINE
  5
360
  8
025
 10
335.987681
 20
144.72629
 30
0.0
 11
335.26316
 21
144.659774
 31
0.0
  0
LINE
  5
361
  8
025
 10
335.786656
 20
149.131767
 30
0.0
 11
335.597196
 21
149.026113
 31
0.0
  0
LINE
  5
362
  8
025
 10
335.597196
 20
149.026113
 30
0.0
 11
335.221718
 21
148.886943
 31
0.0
  0
LINE
  5
363
  8
025
 10
335.221718
 20
148.886943
 30
0.0
 11
335.041875
 21
148.820285
 31
0.0
  0
LINE
  5
364
  8
025
 10
334.842871
 20
145.502842
 30
0.0
 11
335.042442
 21
145.172762
 31
0.0
  0
LINE
  5
365
  8
025
 10
335.061956
 20
146.897209
 30
0.0
 11
334.82985
 21
146.508142
 31
0.0
  0
LINE
  5
366
  8
025
 10
335.586906
 20
147.293805
 30
0.0
 11
335.061956
 21
146.897209
 31
0.0
  0
LINE
  5
367
  8
025
 10
335.495795
 20
147.866111
 30
0.0
 11
335.586906
 21
147.293805
 31
0.0
  0
LINE
  5
368
  8
025
 10
335.357442
 20
147.761586
 30
0.0
 11
335.393297
 21
147.536362
 31
0.0
  0
LINE
  5
369
  8
025
 10
335.393297
 20
147.536362
 30
0.0
 11
335.0922
 21
147.308885
 31
0.0
  0
LINE
  5
36A
  8
025
 10
335.0922
 20
147.308885
 30
0.0
 11
334.868347
 21
147.139766
 31
0.0
  0
LINE
  5
36B
  8
025
 10
335.235484
 20
148.577728
 30
0.0
 11
334.803809
 21
148.518742
 31
0.0
  0
LINE
  5
36C
  8
025
 10
335.790805
 20
148.783556
 30
0.0
 11
335.235484
 21
148.577728
 31
0.0
  0
LINE
  5
36D
  8
025
 10
336.33094
 20
149.084768
 30
0.0
 11
335.790805
 21
148.783556
 31
0.0
  0
LINE
  5
36E
  8
025
 10
335.235484
 20
148.577728
 30
0.0
 11
335.041875
 21
148.820285
 31
0.0
  0
LINE
  5
36F
  8
025
 10
335.790805
 20
148.783556
 30
0.0
 11
335.597196
 21
149.026113
 31
0.0
  0
LINE
  5
370
  8
025
 10
336.909929
 20
147.784147
 30
0.0
 11
336.825657
 21
147.824261
 31
0.0
  0
LINE
  5
371
  8
025
 10
335.061956
 20
146.897209
 30
0.0
 11
334.868347
 21
147.139766
 31
0.0
  0
LINE
  5
372
  8
025
 10
335.586906
 20
147.293805
 30
0.0
 11
335.393297
 21
147.536362
 31
0.0
  0
LINE
  5
373
  8
025
 10
336.736611
 20
144.689561
 30
0.0
 11
336.543002
 21
144.932118
 31
0.0
  0
LINE
  5
374
  8
025
 10
334.866713
 20
149.04712
 30
0.0
 11
335.159558
 21
149.05465
 31
0.0
  0
LINE
  5
375
  8
025
 10
335.159558
 20
149.05465
 30
0.0
 11
335.714879
 21
149.260477
 31
0.0
  0
LINE
  5
376
  8
025
 10
336.745267
 20
148.329223
 30
0.0
 11
336.851563
 21
147.661533
 31
0.0
  0
LINE
  5
377
  8
025
 10
336.33094
 20
149.084768
 30
0.0
 11
335.790805
 21
148.783556
 31
0.0
  0
LINE
  5
378
  8
025
 10
335.790805
 20
148.783556
 30
0.0
 11
335.235484
 21
148.577728
 31
0.0
  0
LINE
  5
379
  8
025
 10
335.235484
 20
148.577728
 30
0.0
 11
334.803809
 21
148.518742
 31
0.0
  0
LINE
  5
37A
  8
025
 10
335.495795
 20
147.866111
 30
0.0
 11
334.970845
 21
147.469515
 31
0.0
  0
LINE
  5
37B
  8
025
 10
335.586906
 20
147.293805
 30
0.0
 11
335.495795
 21
147.866111
 31
0.0
  0
LINE
  5
37C
  8
025
 10
335.061956
 20
146.897209
 30
0.0
 11
335.586906
 21
147.293805
 31
0.0
  0
LINE
  5
37D
  8
025
 10
334.82985
 20
146.508142
 30
0.0
 11
335.061956
 21
146.897209
 31
0.0
  0
LINE
  5
37E
  8
025
 10
335.042442
 20
145.172762
 30
0.0
 11
334.842871
 21
145.502842
 31
0.0
  0
LINE
  5
37F
  8
025
 10
335.365658
 20
144.989523
 30
0.0
 11
335.042442
 21
145.172762
 31
0.0
  0
LINE
  5
380
  8
025
 10
335.812519
 20
144.953125
 30
0.0
 11
335.365658
 21
144.989523
 31
0.0
  0
LINE
  5
381
  8
025
 10
336.244194
 20
145.012111
 30
0.0
 11
335.812519
 21
144.953125
 31
0.0
  0
LINE
  5
382
  8
025
 10
336.521855
 20
145.115025
 30
0.0
 11
336.244194
 21
145.012111
 31
0.0
  0
LINE
  5
383
  8
025
 10
336.92316
 20
145.36478
 30
0.0
 11
336.521855
 21
145.115025
 31
0.0
  0
LINE
  5
384
  8
025
 10
336.745267
 20
148.329223
 30
0.0
 11
337.259575
 21
148.519849
 31
0.0
  0
LINE
  5
385
  8
025
 10
336.92316
 20
145.36478
 30
0.0
 11
337.30928
 21
145.709919
 31
0.0
  0
LINE
  5
386
  8
025
 10
337.328794
 20
147.434366
 30
0.0
 11
336.851563
 21
147.661533
 31
0.0
  0
LINE
  5
387
  8
025
 10
337.206782
 20
145.38017
 30
0.0
 11
337.0048
 21
145.243832
 31
0.0
  0
LINE
  5
388
  8
025
 10
337.400391
 20
145.137614
 30
0.0
 11
336.736611
 21
144.689561
 31
0.0
  0
LINE
  5
389
  8
025
 10
337.135185
 20
147.676923
 30
0.0
 11
336.909929
 21
147.784147
 31
0.0
  0
LINE
  5
38A
  8
025
 10
336.736611
 20
144.689561
 30
0.0
 11
337.400391
 21
145.137614
 31
0.0
  0
LINE
  5
38B
  8
025
 10
337.30928
 20
145.709919
 30
0.0
 11
336.92316
 21
145.36478
 31
0.0
  0
LINE
  5
38C
  8
025
 10
336.851563
 20
147.661533
 30
0.0
 11
337.328794
 21
147.434366
 31
0.0
  0
LINE
  5
38D
  8
025
 10
335.456769
 20
144.417217
 30
0.0
 11
334.855893
 21
144.497543
 31
0.0
  0
LINE
  5
38E
  8
025
 10
336.18129
 20
144.483733
 30
0.0
 11
335.456769
 21
144.417217
 31
0.0
  0
LINE
  5
38F
  8
025
 10
335.456769
 20
144.417217
 30
0.0
 11
336.18129
 21
144.483733
 31
0.0
  0
LINE
  5
390
  8
025
 10
334.855893
 20
144.497543
 30
0.0
 11
335.456769
 21
144.417217
 31
0.0
  0
LINE
  5
391
  8
025
 10
336.736611
 20
144.689561
 30
0.0
 11
336.18129
 21
144.483733
 31
0.0
  0
LINE
  5
392
  8
025
 10
335.456769
 20
144.417217
 30
0.0
 11
335.26316
 21
144.659774
 31
0.0
  0
LINE
  5
393
  8
025
 10
336.18129
 20
144.483733
 30
0.0
 11
335.987681
 21
144.72629
 31
0.0
  0
LINE
  5
394
  8
025
 10
336.18129
 20
144.483733
 30
0.0
 11
336.736611
 21
144.689561
 31
0.0
  0
LINE
  5
395
  8
025
 10
340.871146
 20
146.424036
 30
0.0
 11
340.677536
 21
146.666593
 31
0.0
  0
LINE
  5
396
  8
025
 10
339.736627
 20
148.932896
 30
0.0
 11
339.543017
 21
149.175453
 31
0.0
  0
LINE
  5
397
  8
025
 10
340.176995
 20
146.166752
 30
0.0
 11
339.736627
 21
148.932896
 31
0.0
  0
LINE
  5
398
  8
025
 10
339.736627
 20
148.932896
 30
0.0
 11
340.176995
 21
146.166752
 31
0.0
  0
LINE
  5
399
  8
025
 10
340.677536
 20
146.666593
 30
0.0
 11
340.129744
 21
146.463556
 31
0.0
  0
LINE
  5
39A
  8
025
 10
340.871146
 20
146.424036
 30
0.0
 11
340.176995
 21
146.166752
 31
0.0
  0
LINE
  5
39B
  8
025
 10
340.176995
 20
146.166752
 30
0.0
 11
340.871146
 21
146.424036
 31
0.0
  0
LINE
  5
39C
  8
025
 10
338.745265
 20
153.313044
 30
0.0
 11
339.361327
 21
153.137334
 31
0.0
  0
LINE
  5
39D
  8
025
 10
338.615128
 20
150.436456
 30
0.0
 11
339.001248
 21
150.781596
 31
0.0
  0
LINE
  5
39E
  8
025
 10
339.231189
 20
150.260747
 30
0.0
 11
338.691053
 21
149.959535
 31
0.0
  0
LINE
  5
39F
  8
025
 10
339.020762
 20
152.506042
 30
0.0
 11
338.697546
 21
152.689281
 31
0.0
  0
LINE
  5
3A0
  8
025
 10
338.827153
 20
152.748599
 30
0.0
 11
338.503937
 21
152.931838
 31
0.0
  0
LINE
  5
3A1
  8
025
 10
339.03758
 20
150.503303
 30
0.0
 11
338.686904
 21
150.307746
 31
0.0
  0
LINE
  5
3A2
  8
025
 10
338.615128
 20
150.436456
 30
0.0
 11
339.001248
 21
150.781596
 31
0.0
  0
LINE
  5
3A3
  8
025
 10
339.020762
 20
152.506042
 30
0.0
 11
338.697546
 21
152.689281
 31
0.0
  0
LINE
  5
3A4
  8
025
 10
338.745265
 20
153.313044
 30
0.0
 11
339.361327
 21
153.137334
 31
0.0
  0
LINE
  5
3A5
  8
025
 10
339.231189
 20
150.260747
 30
0.0
 11
338.691053
 21
149.959535
 31
0.0
  0
LINE
  5
3A6
  8
025
 10
338.174759
 20
153.202601
 30
0.0
 11
338.745265
 21
153.313044
 31
0.0
  0
LINE
  5
3A7
  8
025
 10
338.250685
 20
152.725679
 30
0.0
 11
338.174759
 21
153.202601
 31
0.0
  0
LINE
  5
3A8
  8
025
 10
338.337468
 20
150.333543
 30
0.0
 11
338.615128
 21
150.436456
 31
0.0
  0
LINE
  5
3A9
  8
025
 10
337.751777
 20
150.318484
 30
0.0
 11
338.337468
 21
150.333543
 31
0.0
  0
LINE
  5
3AA
  8
025
 10
337.443746
 20
150.406338
 30
0.0
 11
337.751777
 21
150.318484
 31
0.0
  0
LINE
  5
3AB
  8
025
 10
338.697546
 20
152.689281
 30
0.0
 11
338.503937
 21
152.931838
 31
0.0
  0
LINE
  5
3AC
  8
025
 10
337.842888
 20
149.746178
 30
0.0
 11
337.396026
 21
149.782576
 31
0.0
  0
LINE
  5
3AD
  8
025
 10
338.413394
 20
149.856621
 30
0.0
 11
337.842888
 21
149.746178
 31
0.0
  0
LINE
  5
3AE
  8
025
 10
338.691053
 20
149.959535
 30
0.0
 11
338.413394
 21
149.856621
 31
0.0
  0
LINE
  5
3AF
  8
025
 10
338.697546
 20
152.689281
 30
0.0
 11
338.250685
 21
152.725679
 31
0.0
  0
LINE
  5
3B0
  8
025
 10
337.396026
 20
149.782576
 30
0.0
 11
337.202417
 21
150.025133
 31
0.0
  0
LINE
  5
3B1
  8
025
 10
337.074975
 20
150.875731
 30
0.0
 11
337.443746
 21
150.406338
 31
0.0
  0
LINE
  5
3B2
  8
025
 10
337.014235
 20
151.257267
 30
0.0
 11
337.074975
 21
150.875731
 31
0.0
  0
LINE
  5
3B3
  8
025
 10
337.842888
 20
149.746178
 30
0.0
 11
337.649279
 21
149.988735
 31
0.0
  0
LINE
  5
3B4
  8
025
 10
338.413394
 20
149.856621
 30
0.0
 11
338.219784
 21
150.099178
 31
0.0
  0
LINE
  5
3B5
  8
025
 10
338.691053
 20
149.959535
 30
0.0
 11
338.497444
 21
150.202092
 31
0.0
  0
LINE
  5
3B6
  8
025
 10
338.503937
 20
152.931838
 30
0.0
 11
338.214106
 21
152.955445
 31
0.0
  0
LINE
  5
3B7
  8
025
 10
338.686904
 20
150.307746
 30
0.0
 11
338.497444
 21
150.202092
 31
0.0
  0
LINE
  5
3B8
  8
025
 10
338.497444
 20
150.202092
 30
0.0
 11
338.219784
 21
150.099178
 31
0.0
  0
LINE
  5
3B9
  8
025
 10
338.219784
 20
150.099178
 30
0.0
 11
337.649279
 21
149.988735
 31
0.0
  0
LINE
  5
3BA
  8
025
 10
337.649279
 20
149.988735
 30
0.0
 11
337.202417
 21
150.025133
 31
0.0
  0
LINE
  5
3BB
  8
025
 10
337.014235
 20
151.257267
 30
0.0
 11
337.074975
 21
150.875731
 31
0.0
  0
LINE
  5
3BC
  8
025
 10
337.074975
 20
150.875731
 30
0.0
 11
337.443746
 21
150.406338
 31
0.0
  0
LINE
  5
3BD
  8
025
 10
337.443746
 20
150.406338
 30
0.0
 11
337.751777
 21
150.318484
 31
0.0
  0
LINE
  5
3BE
  8
025
 10
337.751777
 20
150.318484
 30
0.0
 11
338.337468
 21
150.333543
 31
0.0
  0
LINE
  5
3BF
  8
025
 10
338.337468
 20
150.333543
 30
0.0
 11
338.615128
 21
150.436456
 31
0.0
  0
LINE
  5
3C0
  8
025
 10
338.697546
 20
152.689281
 30
0.0
 11
338.250685
 21
152.725679
 31
0.0
  0
LINE
  5
3C1
  8
025
 10
338.250685
 20
152.725679
 30
0.0
 11
338.174759
 21
153.202601
 31
0.0
  0
LINE
  5
3C2
  8
025
 10
338.174759
 20
153.202601
 30
0.0
 11
338.745265
 21
153.313044
 31
0.0
  0
LINE
  5
3C3
  8
025
 10
338.691053
 20
149.959535
 30
0.0
 11
338.413394
 21
149.856621
 31
0.0
  0
LINE
  5
3C4
  8
025
 10
338.413394
 20
149.856621
 30
0.0
 11
337.842888
 21
149.746178
 31
0.0
  0
LINE
  5
3C5
  8
025
 10
337.842888
 20
149.746178
 30
0.0
 11
337.396026
 21
149.782576
 31
0.0
  0
LINE
  5
3C6
  8
025
 10
336.519654
 20
150.669903
 30
0.0
 11
336.458913
 21
151.05144
 31
0.0
  0
LINE
  5
3C7
  8
025
 10
336.471935
 20
150.04614
 30
0.0
 11
336.519654
 21
150.669903
 31
0.0
  0
LINE
  5
3C8
  8
025
 10
336.23983
 20
149.657074
 30
0.0
 11
336.471935
 21
150.04614
 31
0.0
  0
LINE
  5
3C9
  8
025
 10
336.918796
 20
150.009742
 30
0.0
 11
336.71706
 21
149.429907
 31
0.0
  0
LINE
  5
3CA
  8
025
 10
336.71706
 20
149.429907
 30
0.0
 11
336.523451
 21
149.672463
 31
0.0
  0
LINE
  5
3CB
  8
025
 10
336.918796
 20
150.009742
 30
0.0
 11
336.725186
 21
150.252299
 31
0.0
  0
LINE
  5
3CC
  8
025
 10
336.725186
 20
150.252299
 30
0.0
 11
336.63386
 21
149.989804
 31
0.0
  0
LINE
  5
3CD
  8
025
 10
336.63386
 20
149.989804
 30
0.0
 11
336.523451
 21
149.672463
 31
0.0
  0
LINE
  5
3CE
  8
025
 10
336.523451
 20
149.672463
 30
0.0
 11
336.358149
 21
149.524706
 31
0.0
  0
LINE
  5
3CF
  8
025
 10
336.358149
 20
149.524706
 30
0.0
 11
336.137331
 21
149.327324
 31
0.0
  0
LINE
  5
3D0
  8
025
 10
336.867877
 20
151.20302
 30
0.0
 11
336.881366
 21
151.118287
 31
0.0
  0
LINE
  5
3D1
  8
025
 10
336.23983
 20
149.657074
 30
0.0
 11
336.471935
 21
150.04614
 31
0.0
  0
LINE
  5
3D2
  8
025
 10
336.471935
 20
150.04614
 30
0.0
 11
336.519654
 21
150.669903
 31
0.0
  0
LINE
  5
3D3
  8
025
 10
336.519654
 20
150.669903
 30
0.0
 11
336.458913
 21
151.05144
 31
0.0
  0
LINE
  5
3D4
  8
025
 10
336.918796
 20
150.009742
 30
0.0
 11
336.71706
 21
149.429907
 31
0.0
  0
LINE
  5
3D5
  8
025
 10
336.458913
 20
151.05144
 30
0.0
 11
337.014235
 21
151.257267
 31
0.0
  0
LINE
  5
3D6
  8
025
 10
337.396026
 20
149.782576
 30
0.0
 11
336.918796
 21
150.009742
 31
0.0
  0
LINE
  5
3D7
  8
025
 10
337.074975
 20
150.875731
 30
0.0
 11
336.881366
 21
151.118287
 31
0.0
  0
LINE
  5
3D8
  8
025
 10
337.202417
 20
150.025133
 30
0.0
 11
336.725186
 21
150.252299
 31
0.0
  0
LINE
  5
3D9
  8
025
 10
336.458913
 20
151.05144
 30
0.0
 11
337.014235
 21
151.257267
 31
0.0
  0
LINE
  5
3DA
  8
025
 10
337.396026
 20
149.782576
 30
0.0
 11
336.918796
 21
150.009742
 31
0.0
  0
LINE
  5
3DB
  8
025
 10
339.020762
 20
152.506042
 30
0.0
 11
338.827153
 21
152.748599
 31
0.0
  0
LINE
  5
3DC
  8
025
 10
339.361327
 20
153.137334
 30
0.0
 11
339.699728
 21
152.858711
 31
0.0
  0
LINE
  5
3DD
  8
025
 10
339.235518
 20
152.080578
 30
0.0
 11
339.020762
 21
152.506042
 31
0.0
  0
LINE
  5
3DE
  8
025
 10
339.296258
 20
151.699041
 30
0.0
 11
339.235518
 21
152.080578
 31
0.0
  0
LINE
  5
3DF
  8
025
 10
339.233353
 20
151.170662
 30
0.0
 11
339.296258
 21
151.699041
 31
0.0
  0
LINE
  5
3E0
  8
025
 10
339.001248
 20
150.781596
 30
0.0
 11
339.233353
 21
151.170662
 31
0.0
  0
LINE
  5
3E1
  8
025
 10
339.72577
 20
150.848112
 30
0.0
 11
339.231189
 21
150.260747
 31
0.0
  0
LINE
  5
3E2
  8
025
 10
339.94269
 20
151.332562
 30
0.0
 11
339.72577
 21
150.848112
 31
0.0
  0
LINE
  5
3E3
  8
025
 10
339.975224
 20
152.05171
 30
0.0
 11
339.94269
 21
151.332562
 31
0.0
  0
LINE
  5
3E4
  8
025
 10
339.944853
 20
152.242478
 30
0.0
 11
339.975224
 21
152.05171
 31
0.0
  0
LINE
  5
3E5
  8
025
 10
339.699728
 20
152.858711
 30
0.0
 11
339.944853
 21
152.242478
 31
0.0
  0
LINE
  5
3E6
  8
025
 10
339.231189
 20
150.260747
 30
0.0
 11
339.03758
 21
150.503303
 31
0.0
  0
LINE
  5
3E7
  8
025
 10
339.72577
 20
150.848112
 30
0.0
 11
339.532161
 21
151.090668
 31
0.0
  0
LINE
  5
3E8
  8
025
 10
339.94269
 20
151.332562
 30
0.0
 11
339.74908
 21
151.575119
 31
0.0
  0
LINE
  5
3E9
  8
025
 10
339.975224
 20
152.05171
 30
0.0
 11
339.781614
 21
152.294267
 31
0.0
  0
LINE
  5
3EA
  8
025
 10
339.944853
 20
152.242478
 30
0.0
 11
339.751244
 21
152.485035
 31
0.0
  0
LINE
  5
3EB
  8
025
 10
339.555301
 20
152.977625
 30
0.0
 11
339.615871
 21
152.825355
 31
0.0
  0
LINE
  5
3EC
  8
025
 10
339.615871
 20
152.825355
 30
0.0
 11
339.751244
 21
152.485035
 31
0.0
  0
LINE
  5
3ED
  8
025
 10
339.751244
 20
152.485035
 30
0.0
 11
339.781614
 21
152.294267
 31
0.0
  0
LINE
  5
3EE
  8
025
 10
339.781614
 20
152.294267
 30
0.0
 11
339.74908
 21
151.575119
 31
0.0
  0
LINE
  5
3EF
  8
025
 10
339.74908
 20
151.575119
 30
0.0
 11
339.532161
 21
151.090668
 31
0.0
  0
LINE
  5
3F0
  8
025
 10
339.532161
 20
151.090668
 30
0.0
 11
339.159621
 21
150.64824
 31
0.0
  0
LINE
  5
3F1
  8
025
 10
339.159621
 20
150.64824
 30
0.0
 11
339.03758
 21
150.503303
 31
0.0
  0
LINE
  5
3F2
  8
025
 10
339.001248
 20
150.781596
 30
0.0
 11
339.233353
 21
151.170662
 31
0.0
  0
LINE
  5
3F3
  8
025
 10
339.233353
 20
151.170662
 30
0.0
 11
339.296258
 21
151.699041
 31
0.0
  0
LINE
  5
3F4
  8
025
 10
339.296258
 20
151.699041
 30
0.0
 11
339.235518
 21
152.080578
 31
0.0
  0
LINE
  5
3F5
  8
025
 10
339.235518
 20
152.080578
 30
0.0
 11
339.020762
 21
152.506042
 31
0.0
  0
LINE
  5
3F6
  8
025
 10
339.361327
 20
153.137334
 30
0.0
 11
339.699728
 21
152.858711
 31
0.0
  0
LINE
  5
3F7
  8
025
 10
339.699728
 20
152.858711
 30
0.0
 11
339.944853
 21
152.242478
 31
0.0
  0
LINE
  5
3F8
  8
025
 10
339.944853
 20
152.242478
 30
0.0
 11
339.975224
 21
152.05171
 31
0.0
  0
LINE
  5
3F9
  8
025
 10
339.975224
 20
152.05171
 30
0.0
 11
339.94269
 21
151.332562
 31
0.0
  0
LINE
  5
3FA
  8
025
 10
339.94269
 20
151.332562
 30
0.0
 11
339.72577
 21
150.848112
 31
0.0
  0
LINE
  5
3FB
  8
025
 10
339.72577
 20
150.848112
 30
0.0
 11
339.231189
 21
150.260747
 31
0.0
  0
LINE
  5
3FC
  8
025
 10
339.480858
 20
149.343159
 30
0.0
 11
340.354852
 21
149.667102
 31
0.0
  0
LINE
  5
3FD
  8
05
 10
347.709685
 20
149.766816
 30
0.0
 11
343.967077
 21
144.339128
 31
0.0
  0
LINE
  5
3FE
  8
05
 10
353.360441
 20
186.071393
 30
0.0
 11
362.495467
 21
189.457257
 31
0.0
  0
POLYLINE
  5
3FF
  8
025
 66
     1
 10
0.0
 20
0.0
 30
0.0
  0
VERTEX
  5
791
  8
025
 10
351.580733
 20
186.829622
 30
0.0
  0
VERTEX
  5
792
  8
025
 10
351.725292
 20
186.781359
 30
0.0
  0
VERTEX
  5
793
  8
025
 10
351.914902
 20
186.825308
 30
0.0
  0
VERTEX
  5
794
  8
025
 10
352.047252
 20
187.015396
 30
0.0
  0
VERTEX
  5
795
  8
025
 10
352.116558
 20
187.343316
 30
0.0
  0
VERTEX
  5
796
  8
025
 10
352.119789
 20
187.794736
 30
0.0
  0
VERTEX
  5
797
  8
025
 10
352.056805
 20
188.349928
 30
0.0
  0
SEQEND
  5
798
  8
025
  0
POLYLINE
  5
400
  8
05
 66
     1
 10
0.0
 20
0.0
 30
0.0
  0
VERTEX
  5
799
  8
05
 10
352.993761
 20
186.119295
 30
0.0
  0
VERTEX
  5
79A
  8
05
 10
353.272913
 20
186.052244
 30
0.0
  0
VERTEX
  5
79B
  8
05
 10
353.360441
 20
186.071393
 30
0.0
  0
SEQEND
  5
79C
  8
05
  0
LINE
  5
401
  8
05
 10
351.580878
 20
186.829438
 30
0.0
 11
352.993761
 21
186.119295
 31
0.0
  0
POLYLINE
  5
402
  8
025
 66
     1
 10
0.0
 20
0.0
 30
0.0
  0
VERTEX
  5
79D
  8
025
 10
353.360441
 20
186.071393
 30
0.0
  0
VERTEX
  5
79E
  8
025
 10
353.490763
 20
186.159173
 30
0.0
  0
VERTEX
  5
79F
  8
025
 10
353.639497
 20
186.43569
 30
0.0
  0
VERTEX
  5
7A0
  8
025
 10
353.713399
 20
186.871171
 30
0.0
  0
VERTEX
  5
7A1
  8
025
 10
353.709629
 20
187.44888
 30
0.0
  0
VERTEX
  5
7A2
  8
025
 10
353.628331
 20
188.146616
 30
0.0
  0
SEQEND
  5
7A3
  8
025
  0
POLYLINE
  5
403
  8
035
 66
     1
 10
0.0
 20
0.0
 30
0.0
  0
VERTEX
  5
7A4
  8
035
 10
365.399847
 20
183.623042
 30
0.0
  0
VERTEX
  5
7A5
  8
035
 10
365.706298
 20
183.82932
 30
0.0
  0
VERTEX
  5
7A6
  8
035
 10
365.999651
 20
184.318275
 30
0.0
  0
VERTEX
  5
7A7
  8
035
 10
366.181709
 20
185.050548
 30
0.0
  0
VERTEX
  5
7A8
  8
035
 10
366.24799
 20
186.008109
 30
0.0
  0
VERTEX
  5
7A9
  8
035
 10
366.196862
 20
187.167378
 30
0.0
  0
VERTEX
  5
7AA
  8
035
 10
366.029583
 20
188.499812
 30
0.0
  0
SEQEND
  5
7AB
  8
035
  0
POLYLINE
  5
404
  8
05
 66
     1
 10
0.0
 20
0.0
 30
0.0
  0
VERTEX
  5
7AC
  8
05
 10
360.691564
 20
188.788647
 30
0.0
  0
VERTEX
  5
7AD
  8
05
 10
361.431336
 20
187.434026
 30
0.0
  0
VERTEX
  5
7AE
  8
05
 10
362.177847
 20
186.235847
 30
0.0
  0
VERTEX
  5
7AF
  8
05
 10
362.907169
 20
185.23377
 30
0.0
  0
VERTEX
  5
7B0
  8
05
 10
363.601343
 20
184.452469
 30
0.0
  0
VERTEX
  5
7B1
  8
05
 10
364.243277
 20
183.911181
 30
0.0
  0
VERTEX
  5
7B2
  8
05
 10
364.817164
 20
183.623236
 30
0.0
  0
VERTEX
  5
7B3
  8
05
 10
365.308874
 20
183.595723
 30
0.0
  0
VERTEX
  5
7B4
  8
05
 10
365.399847
 20
183.623042
 30
0.0
  0
SEQEND
  5
7B5
  8
05
  0
POLYLINE
  5
405
  8
05
 66
     1
 10
0.0
 20
0.0
 30
0.0
  0
VERTEX
  5
7B6
  8
05
 10
362.493996
 20
189.456716
 30
0.0
  0
VERTEX
  5
7B7
  8
05
 10
362.625303
 20
189.478413
 30
0.0
  0
VERTEX
  5
7B8
  8
05
 10
362.66299
 20
189.473223
 30
0.0
  0
SEQEND
  5
7B9
  8
05
  0
LINE
  5
406
  8
05
 10
362.596414
 20
189.5347
 30
0.0
 11
362.548273
 21
189.482567
 31
0.0
  0
LINE
  5
407
  8
05
 10
362.548273
 20
189.482567
 30
0.0
 11
362.496491
 21
189.457639
 31
0.0
  0
LINE
  5
408
  8
05
 10
362.556719
 20
189.392185
 30
0.0
 11
362.496549
 21
189.459015
 31
0.0
  0
LINE
  5
409
  8
05
 10
377.333288
 20
188.890705
 30
0.0
 11
377.805881
 21
188.653171
 31
0.0
  0
POLYLINE
  5
40A
  8
05
 66
     1
 10
0.0
 20
0.0
 30
0.0
  0
VERTEX
  5
7BA
  8
05
 10
377.805881
 20
188.653171
 30
0.0
  0
VERTEX
  5
7BB
  8
05
 10
378.084702
 20
188.5408
 30
0.0
  0
VERTEX
  5
7BC
  8
05
 10
378.576412
 20
188.513287
 30
0.0
  0
VERTEX
  5
7BD
  8
05
 10
378.667578
 20
188.540603
 30
0.0
  0
SEQEND
  5
7BE
  8
05
  0
LINE
  5
40B
  8
05
 10
376.406352
 20
188.54714
 30
0.0
 11
377.674573
 21
189.017201
 31
0.0
  0
POLYLINE
  5
40C
  8
05
 66
     1
 10
0.0
 20
0.0
 30
0.0
  0
VERTEX
  5
7BF
  8
05
 10
375.622569
 20
187.411982
 30
0.0
  0
VERTEX
  5
7C0
  8
05
 10
375.928827
 20
187.618263
 30
0.0
  0
VERTEX
  5
7C1
  8
05
 10
376.202739
 20
188.058972
 30
0.0
  0
SEQEND
  5
7C2
  8
05
  0
LINE
  5
40D
  8
05
 10
376.202739
 20
188.058972
 30
0.0
 11
376.604502
 21
189.022207
 31
0.0
  0
LINE
  5
40E
  8
05
 10
357.559495
 20
204.776749
 30
0.0
 11
367.782024
 21
208.565692
 31
0.0
  0
LINE
  5
40F
  8
05
 10
350.024038
 20
195.072972
 30
0.0
 11
359.159065
 21
198.458836
 31
0.0
  0
POLYLINE
  5
410
  8
025
 66
     1
 10
0.0
 20
0.0
 30
0.0
  0
VERTEX
  5
7C3
  8
025
 10
350.024038
 20
195.072972
 30
0.0
  0
VERTEX
  5
7C4
  8
025
 10
350.111566
 20
195.092121
 30
0.0
  0
VERTEX
  5
7C5
  8
025
 10
350.39016
 20
195.025351
 30
0.0
  0
VERTEX
  5
7C6
  8
025
 10
350.718793
 20
194.787448
 30
0.0
  0
VERTEX
  5
7C7
  8
025
 10
351.084835
 20
194.387554
 30
0.0
  0
VERTEX
  5
7C8
  8
025
 10
351.474219
 20
193.841039
 30
0.0
  0
VERTEX
  5
7C9
  8
025
 10
351.871981
 20
193.168902
 30
0.0
  0
VERTEX
  5
7CA
  8
025
 10
352.248742
 20
192.424811
 30
0.0
  0
SEQEND
  5
7CB
  8
025
  0
POLYLINE
  5
411
  8
05
 66
     1
 10
0.0
 20
0.0
 30
0.0
  0
VERTEX
  5
7CC
  8
05
 10
335.39945
 20
201.603822
 30
0.0
  0
VERTEX
  5
7CD
  8
05
 10
336.070205
 20
201.284357
 30
0.0
  0
VERTEX
  5
7CE
  8
05
 10
336.739826
 20
200.926497
 30
0.0
  0
SEQEND
  5
7CF
  8
05
  0
POLYLINE
  5
412
  8
05
 66
     1
 10
0.0
 20
0.0
 30
0.0
  0
VERTEX
  5
7D0
  8
05
 10
338.957898
 20
198.147661
 30
0.0
  0
VERTEX
  5
7D1
  8
05
 10
338.43741
 20
198.31868
 30
0.0
  0
VERTEX
  5
7D2
  8
05
 10
337.819565
 20
198.571864
 30
0.0
  0
SEQEND
  5
7D3
  8
05
  0
LINE
  5
413
  8
05
 10
337.681375
 20
198.696227
 30
0.0
 11
337.73421
 21
198.613313
 31
0.0
  0
POLYLINE
  5
414
  8
05
 66
     1
 10
0.0
 20
0.0
 30
0.0
  0
VERTEX
  5
7D4
  8
05
 10
336.739826
 20
200.926497
 30
0.0
  0
VERTEX
  5
7D5
  8
05
 10
336.934983
 20
200.332978
 30
0.0
  0
VERTEX
  5
7D6
  8
05
 10
337.163866
 20
199.746387
 30
0.0
  0
VERTEX
  5
7D7
  8
05
 10
337.416378
 20
199.19264
 30
0.0
  0
VERTEX
  5
7D8
  8
05
 10
337.681375
 20
198.696227
 30
0.0
  0
SEQEND
  5
7D9
  8
05
  0
LINE
  5
415
  8
05
 10
338.957898
 20
198.147661
 30
0.0
 11
340.268976
 21
196.50512
 31
0.0
  0
POLYLINE
  5
416
  8
05
 66
     1
 10
0.0
 20
0.0
 30
0.0
  0
VERTEX
  5
7DA
  8
05
 10
349.152668
 20
191.988279
 30
0.0
  0
VERTEX
  5
7DB
  8
05
 10
349.089684
 20
192.543471
 30
0.0
  0
VERTEX
  5
7DC
  8
05
 10
349.092915
 20
192.994892
 30
0.0
  0
VERTEX
  5
7DD
  8
05
 10
349.16839
 20
193.338111
 30
0.0
  0
SEQEND
  5
7DE
  8
05
  0
LINE
  5
417
  8
05
 10
349.168425
 20
193.338209
 30
0.0
 11
349.777158
 21
194.797657
 31
0.0
  0
POLYLINE
  5
418
  8
05
 66
     1
 10
0.0
 20
0.0
 30
0.0
  0
VERTEX
  5
7DF
  8
05
 10
349.777158
 20
194.797657
 30
0.0
  0
VERTEX
  5
7E0
  8
05
 10
349.893716
 20
194.985193
 30
0.0
  0
VERTEX
  5
7E1
  8
05
 10
350.024038
 20
195.072972
 30
0.0
  0
SEQEND
  5
7E2
  8
05
  0
POLYLINE
  5
419
  8
05
 66
     1
 10
0.0
 20
0.0
 30
0.0
  0
VERTEX
  5
7E3
  8
05
 10
356.929952
 20
199.899976
 30
0.0
  0
VERTEX
  5
7E4
  8
05
 10
356.762673
 20
201.23241
 30
0.0
  0
VERTEX
  5
7E5
  8
05
 10
356.711545
 20
202.391679
 30
0.0
  0
VERTEX
  5
7E6
  8
05
 10
356.777826
 20
203.349239
 30
0.0
  0
VERTEX
  5
7E7
  8
05
 10
356.959884
 20
204.081513
 30
0.0
  0
VERTEX
  5
7E8
  8
05
 10
357.253237
 20
204.570468
 30
0.0
  0
VERTEX
  5
7E9
  8
05
 10
357.559688
 20
204.776746
 30
0.0
  0
SEQEND
  5
7EA
  8
05
  0
POLYLINE
  5
41A
  8
035
 66
     1
 10
0.0
 20
0.0
 30
0.0
  0
VERTEX
  5
7EB
  8
035
 10
357.559688
 20
204.776746
 30
0.0
  0
VERTEX
  5
7EC
  8
035
 10
357.650661
 20
204.804065
 30
0.0
  0
VERTEX
  5
7ED
  8
035
 10
358.142371
 20
204.776552
 30
0.0
  0
VERTEX
  5
7EE
  8
035
 10
358.716258
 20
204.488607
 30
0.0
  0
VERTEX
  5
7EF
  8
035
 10
359.358192
 20
203.947319
 30
0.0
  0
VERTEX
  5
7F0
  8
035
 10
360.052366
 20
203.166018
 30
0.0
  0
VERTEX
  5
7F1
  8
035
 10
360.781688
 20
202.16394
 30
0.0
  0
VERTEX
  5
7F2
  8
035
 10
361.435874
 20
201.113947
 30
0.0
  0
SEQEND
  5
7F3
  8
035
  0
POLYLINE
  5
41B
  8
05
 66
     1
 10
0.0
 20
0.0
 30
0.0
  0
VERTEX
  5
7F4
  8
05
 10
356.929952
 20
199.899976
 30
0.0
  0
VERTEX
  5
7F5
  8
05
 10
357.209262
 20
198.427188
 30
0.0
  0
VERTEX
  5
7F6
  8
05
 10
357.363783
 20
197.793422
 30
0.0
  0
SEQEND
  5
7F7
  8
05
  0
POLYLINE
  5
41C
  8
025
 66
     1
 10
0.0
 20
0.0
 30
0.0
  0
VERTEX
  5
7F8
  8
025
 10
359.160535
 20
198.459377
 30
0.0
  0
VERTEX
  5
7F9
  8
025
 10
359.320808
 20
198.476602
 30
0.0
  0
VERTEX
  5
7FA
  8
025
 10
359.587379
 20
198.377072
 30
0.0
  0
VERTEX
  5
7FB
  8
025
 10
359.890853
 20
198.138599
 30
0.0
  0
VERTEX
  5
7FC
  8
025
 10
360.221674
 20
197.771145
 30
0.0
  0
VERTEX
  5
7FD
  8
025
 10
360.571353
 20
197.285048
 30
0.0
  0
VERTEX
  5
7FE
  8
025
 10
360.93127
 20
196.691403
 30
0.0
  0
VERTEX
  5
7FF
  8
025
 10
361.290959
 20
196.005422
 30
0.0
  0
VERTEX
  5
800
  8
025
 10
361.629089
 20
195.269377
 30
0.0
  0
VERTEX
  5
801
  8
025
 10
361.92352
 20
194.543103
 30
0.0
  0
VERTEX
  5
802
  8
025
 10
362.166465
 20
193.866334
 30
0.0
  0
VERTEX
  5
803
  8
025
 10
362.360516
 20
193.255233
 30
0.0
  0
VERTEX
  5
804
  8
025
 10
362.510827
 20
192.717101
 30
0.0
  0
VERTEX
  5
805
  8
025
 10
362.623705
 20
192.253086
 30
0.0
  0
VERTEX
  5
806
  8
025
 10
362.70577
 20
191.860096
 30
0.0
  0
VERTEX
  5
807
  8
025
 10
362.763357
 20
191.53248
 30
0.0
  0
SEQEND
  5
808
  8
025
  0
POLYLINE
  5
41D
  8
025
 66
     1
 10
0.0
 20
0.0
 30
0.0
  0
VERTEX
  5
809
  8
025
 10
359.170216
 20
198.578165
 30
0.0
  0
VERTEX
  5
80A
  8
025
 10
359.214904
 20
198.86479
 30
0.0
  0
VERTEX
  5
80B
  8
025
 10
359.324585
 20
199.15602
 30
0.0
  0
VERTEX
  5
80C
  8
025
 10
359.500498
 20
199.346627
 30
0.0
  0
VERTEX
  5
80D
  8
025
 10
359.747212
 20
199.396246
 30
0.0
  0
VERTEX
  5
80E
  8
025
 10
360.053783
 20
199.281841
 30
0.0
  0
VERTEX
  5
80F
  8
025
 10
360.402816
 20
199.007603
 30
0.0
  0
VERTEX
  5
810
  8
025
 10
360.783313
 20
198.584988
 30
0.0
  0
VERTEX
  5
811
  8
025
 10
361.185507
 20
198.025886
 30
0.0
  0
VERTEX
  5
812
  8
025
 10
361.599474
 20
197.343073
 30
0.0
  0
VERTEX
  5
813
  8
025
 10
362.013166
 20
196.554067
 30
0.0
  0
VERTEX
  5
814
  8
025
 10
362.402032
 20
195.707533
 30
0.0
  0
VERTEX
  5
815
  8
025
 10
362.740614
 20
194.872304
 30
0.0
  0
VERTEX
  5
816
  8
025
 10
363.019975
 20
194.094042
 30
0.0
  0
VERTEX
  5
817
  8
025
 10
363.243109
 20
193.39131
 30
0.0
  0
VERTEX
  5
818
  8
025
 10
363.415942
 20
192.7725
 30
0.0
  0
VERTEX
  5
819
  8
025
 10
363.545732
 20
192.238923
 30
0.0
  0
VERTEX
  5
81A
  8
025
 10
363.640092
 20
191.787021
 30
0.0
  0
VERTEX
  5
81B
  8
025
 10
363.706273
 20
191.410492
 30
0.0
  0
SEQEND
  5
81C
  8
025
  0
POLYLINE
  5
41E
  8
035
 66
     1
 10
0.0
 20
0.0
 30
0.0
  0
VERTEX
  5
81D
  8
035
 10
362.365707
 20
199.410733
 30
0.0
  0
VERTEX
  5
81E
  8
035
 10
362.99929
 20
198.103216
 30
0.0
  0
VERTEX
  5
81F
  8
035
 10
363.297873
 20
197.411851
 30
0.0
  0
SEQEND
  5
820
  8
035
  0
POLYLINE
  5
41F
  8
05
 66
     1
 10
0.0
 20
0.0
 30
0.0
  0
VERTEX
  5
821
  8
05
 10
359.297958
 20
198.558249
 30
0.0
  0
VERTEX
  5
822
  8
05
 10
359.294787
 20
198.553607
 30
0.0
  0
VERTEX
  5
823
  8
05
 10
359.198884
 20
198.476442
 30
0.0
  0
VERTEX
  5
824
  8
05
 10
359.160535
 20
198.459377
 30
0.0
  0
SEQEND
  5
825
  8
05
  0
LINE
  5
420
  8
05
 10
359.157909
 20
198.459466
 30
0.0
 11
359.159631
 21
198.510268
 31
0.0
  0
LINE
  5
421
  8
05
 10
359.159631
 20
198.510268
 30
0.0
 11
359.170216
 21
198.578165
 31
0.0
  0
LINE
  5
422
  8
05
 10
359.15804
 20
198.458454
 30
0.0
 11
359.160535
 21
198.459377
 31
0.0
  0
LINE
  5
423
  8
05
 10
370.827033
 20
209.694313
 30
0.0
 11
381.126819
 21
213.511891
 31
0.0
  0
LINE
  5
424
  8
05
 10
381.530207
 20
213.550768
 30
0.0
 11
386.296322
 21
212.9081
 31
0.0
  0
POLYLINE
  5
425
  8
025
 66
     1
 10
0.0
 20
0.0
 30
0.0
  0
VERTEX
  5
826
  8
025
 10
381.530207
 20
213.550768
 30
0.0
  0
VERTEX
  5
827
  8
025
 10
381.709694
 20
213.511694
 30
0.0
  0
VERTEX
  5
828
  8
025
 10
382.283581
 20
213.223748
 30
0.0
  0
VERTEX
  5
829
  8
025
 10
382.925515
 20
212.682461
 30
0.0
  0
VERTEX
  5
82A
  8
025
 10
383.61969
 20
211.901159
 30
0.0
  0
VERTEX
  5
82B
  8
025
 10
384.349011
 20
210.899082
 30
0.0
  0
VERTEX
  5
82C
  8
025
 10
384.954386
 20
209.927432
 30
0.0
  0
SEQEND
  5
82D
  8
025
  0
POLYLINE
  5
426
  8
025
 66
     1
 10
0.0
 20
0.0
 30
0.0
  0
VERTEX
  5
82E
  8
025
 10
370.384534
 20
208.685651
 30
0.0
  0
VERTEX
  5
82F
  8
025
 10
370.469299
 20
208.711048
 30
0.0
  0
VERTEX
  5
830
  8
025
 10
370.926484
 20
208.685467
 30
0.0
  0
VERTEX
  5
831
  8
025
 10
371.460077
 20
208.41774
 30
0.0
  0
VERTEX
  5
832
  8
025
 10
372.05694
 20
207.914457
 30
0.0
  0
VERTEX
  5
833
  8
025
 10
372.702374
 20
207.188013
 30
0.0
  0
VERTEX
  5
834
  8
025
 10
373.380488
 20
206.256295
 30
0.0
  0
VERTEX
  5
835
  8
025
 10
374.074584
 20
205.142244
 30
0.0
  0
VERTEX
  5
836
  8
025
 10
374.767571
 20
203.873292
 30
0.0
  0
VERTEX
  5
837
  8
025
 10
375.442386
 20
202.480685
 30
0.0
  0
VERTEX
  5
838
  8
025
 10
376.082412
 20
200.998714
 30
0.0
  0
VERTEX
  5
839
  8
025
 10
376.67189
 20
199.463869
 30
0.0
  0
VERTEX
  5
83A
  8
025
 10
377.196305
 20
197.913944
 30
0.0
  0
VERTEX
  5
83B
  8
025
 10
377.642744
 20
196.387103
 30
0.0
  0
VERTEX
  5
83C
  8
025
 10
378.000214
 20
194.920942
 30
0.0
  0
VERTEX
  5
83D
  8
025
 10
378.259914
 20
193.551562
 30
0.0
  0
SEQEND
  5
83E
  8
025
  0
POLYLINE
  5
427
  8
035
 66
     1
 10
0.0
 20
0.0
 30
0.0
  0
VERTEX
  5
83F
  8
035
 10
368.643721
 20
208.453124
 30
0.0
  0
VERTEX
  5
840
  8
035
 10
368.938787
 20
208.277549
 30
0.0
  0
VERTEX
  5
841
  8
035
 10
369.580721
 20
207.736262
 30
0.0
  0
VERTEX
  5
842
  8
035
 10
370.274896
 20
206.95496
 30
0.0
  0
VERTEX
  5
843
  8
035
 10
371.004217
 20
205.952883
 30
0.0
  0
VERTEX
  5
844
  8
035
 10
371.750728
 20
204.754705
 30
0.0
  0
VERTEX
  5
845
  8
035
 10
372.496046
 20
203.389928
 30
0.0
  0
VERTEX
  5
846
  8
035
 10
373.221819
 20
201.892159
 30
0.0
  0
VERTEX
  5
847
  8
035
 10
373.910177
 20
200.298277
 30
0.0
  0
VERTEX
  5
848
  8
035
 10
374.544169
 20
198.647529
 30
0.0
  0
VERTEX
  5
849
  8
035
 10
375.108185
 20
196.980561
 30
0.0
  0
VERTEX
  5
84A
  8
035
 10
375.588337
 20
195.338421
 30
0.0
  0
VERTEX
  5
84B
  8
035
 10
375.972802
 20
193.761543
 30
0.0
  0
VERTEX
  5
84C
  8
035
 10
376.252112
 20
192.288754
 30
0.0
  0
SEQEND
  5
84D
  8
035
  0
POLYLINE
  5
428
  8
05
 66
     1
 10
0.0
 20
0.0
 30
0.0
  0
VERTEX
  5
84E
  8
05
 10
369.576224
 20
207.98443
 30
0.0
  0
VERTEX
  5
84F
  8
05
 10
369.850573
 20
207.821183
 30
0.0
  0
VERTEX
  5
850
  8
05
 10
370.447435
 20
207.3179
 30
0.0
  0
VERTEX
  5
851
  8
05
 10
371.092869
 20
206.591456
 30
0.0
  0
VERTEX
  5
852
  8
05
 10
371.770983
 20
205.659738
 30
0.0
  0
VERTEX
  5
853
  8
05
 10
372.465079
 20
204.545687
 30
0.0
  0
VERTEX
  5
854
  8
05
 10
373.158067
 20
203.276735
 30
0.0
  0
VERTEX
  5
855
  8
05
 10
373.832882
 20
201.884128
 30
0.0
  0
VERTEX
  5
856
  8
05
 10
374.472908
 20
200.402157
 30
0.0
  0
VERTEX
  5
857
  8
05
 10
375.062386
 20
198.867312
 30
0.0
  0
VERTEX
  5
858
  8
05
 10
375.586801
 20
197.317387
 30
0.0
  0
VERTEX
  5
859
  8
05
 10
376.03324
 20
195.790546
 30
0.0
  0
VERTEX
  5
85A
  8
05
 10
376.39071
 20
194.324385
 30
0.0
  0
VERTEX
  5
85B
  8
05
 10
376.650409
 20
192.955005
 30
0.0
  0
SEQEND
  5
85C
  8
05
  0
POLYLINE
  5
429
  8
025
 66
     1
 10
0.0
 20
0.0
 30
0.0
  0
VERTEX
  5
85D
  8
025
 10
377.007711
 20
201.290136
 30
0.0
  0
VERTEX
  5
85E
  8
025
 10
377.589178
 20
199.77615
 30
0.0
  0
VERTEX
  5
85F
  8
025
 10
378.153194
 20
198.109182
 30
0.0
  0
VERTEX
  5
860
  8
025
 10
378.633346
 20
196.467042
 30
0.0
  0
VERTEX
  5
861
  8
025
 10
379.01781
 20
194.890164
 30
0.0
  0
VERTEX
  5
862
  8
025
 10
379.297121
 20
193.417376
 30
0.0
  0
SEQEND
  5
863
  8
025
  0
POLYLINE
  5
42A
  8
025
 66
     1
 10
0.0
 20
0.0
 30
0.0
  0
VERTEX
  5
864
  8
025
 10
370.827033
 20
209.694313
 30
0.0
  0
VERTEX
  5
865
  8
025
 10
370.918199
 20
209.721629
 30
0.0
  0
VERTEX
  5
866
  8
025
 10
371.409909
 20
209.694116
 30
0.0
  0
VERTEX
  5
867
  8
025
 10
371.983796
 20
209.406171
 30
0.0
  0
VERTEX
  5
868
  8
025
 10
372.62573
 20
208.864883
 30
0.0
  0
VERTEX
  5
869
  8
025
 10
373.319904
 20
208.083582
 30
0.0
  0
VERTEX
  5
86A
  8
025
 10
374.049226
 20
207.081504
 30
0.0
  0
VERTEX
  5
86B
  8
025
 10
374.795737
 20
205.883326
 30
0.0
  0
VERTEX
  5
86C
  8
025
 10
374.968987
 20
205.566081
 30
0.0
  0
SEQEND
  5
86D
  8
025
  0
LINE
  5
42B
  8
05
 10
370.04325
 20
208.559155
 30
0.0
 11
370.246864
 21
209.047323
 31
0.0
  0
POLYLINE
  5
42C
  8
05
 66
     1
 10
0.0
 20
0.0
 30
0.0
  0
VERTEX
  5
86E
  8
05
 10
370.246864
 20
209.047323
 30
0.0
  0
VERTEX
  5
86F
  8
05
 10
370.520775
 20
209.488032
 30
0.0
  0
VERTEX
  5
870
  8
05
 10
370.827033
 20
209.694313
 30
0.0
  0
SEQEND
  5
871
  8
05
  0
LINE
  5
42D
  8
05
 10
368.643721
 20
208.453124
 30
0.0
 11
369.576224
 21
207.98443
 31
0.0
  0
POLYLINE
  5
42E
  8
05
 66
     1
 10
0.0
 20
0.0
 30
0.0
  0
VERTEX
  5
872
  8
05
 10
367.782024
 20
208.565692
 30
0.0
  0
VERTEX
  5
873
  8
05
 10
367.87319
 20
208.593008
 30
0.0
  0
VERTEX
  5
874
  8
05
 10
368.3649
 20
208.565495
 30
0.0
  0
VERTEX
  5
875
  8
05
 10
368.643721
 20
208.453124
 30
0.0
  0
SEQEND
  5
876
  8
05
  0
LINE
  5
42F
  8
05
 10
369.116314
 20
208.21559
 30
0.0
 11
370.384534
 21
208.685651
 31
0.0
  0
POLYLINE
  5
430
  8
025
 66
     1
 10
0.0
 20
0.0
 30
0.0
  0
VERTEX
  5
877
  8
025
 10
375.623504
 20
204.348401
 30
0.0
  0
VERTEX
  5
878
  8
025
 10
376.266828
 20
203.02078
 30
0.0
  0
VERTEX
  5
879
  8
025
 10
376.637271
 20
202.163025
 30
0.0
  0
SEQEND
  5
87A
  8
025
  0
POLYLINE
  5
431
  8
025
 66
     1
 10
0.0
 20
0.0
 30
0.0
  0
VERTEX
  5
87B
  8
025
 10
387.705896
 20
204.070387
 30
0.0
  0
VERTEX
  5
87C
  8
025
 10
387.888964
 20
203.593727
 30
0.0
  0
VERTEX
  5
87D
  8
025
 10
388.45298
 20
201.92676
 30
0.0
  0
VERTEX
  5
87E
  8
025
 10
388.933131
 20
200.28462
 30
0.0
  0
VERTEX
  5
87F
  8
025
 10
389.317596
 20
198.707742
 30
0.0
  0
VERTEX
  5
880
  8
025
 10
389.596907
 20
197.234953
 30
0.0
  0
SEQEND
  5
881
  8
025
  0
POLYLINE
  5
432
  8
05
 66
     1
 10
0.0
 20
0.0
 30
0.0
  0
VERTEX
  5
882
  8
05
 10
386.296209
 20
212.908007
 30
0.0
  0
VERTEX
  5
883
  8
05
 10
386.601163
 20
212.816267
 30
0.0
  0
VERTEX
  5
884
  8
05
 10
387.107158
 20
212.489471
 30
0.0
  0
VERTEX
  5
885
  8
05
 10
387.667575
 20
211.943055
 30
0.0
  0
VERTEX
  5
886
  8
05
 10
388.26713
 20
211.191924
 30
0.0
  0
VERTEX
  5
887
  8
05
 10
388.889467
 20
210.256565
 30
0.0
  0
VERTEX
  5
888
  8
05
 10
389.51761
 20
209.162495
 30
0.0
  0
VERTEX
  5
889
  8
05
 10
390.134427
 20
207.939555
 30
0.0
  0
VERTEX
  5
88A
  8
05
 10
390.723091
 20
206.621105
 30
0.0
  0
VERTEX
  5
88B
  8
05
 10
391.267545
 20
205.243107
 30
0.0
  0
VERTEX
  5
88C
  8
05
 10
391.752939
 20
203.843152
 30
0.0
  0
VERTEX
  5
88D
  8
05
 10
392.166031
 20
202.459425
 30
0.0
  0
VERTEX
  5
88E
  8
05
 10
392.495554
 20
201.129671
 30
0.0
  0
VERTEX
  5
88F
  8
05
 10
392.732518
 20
199.890163
 30
0.0
  0
SEQEND
  5
890
  8
05
  0
LINE
  5
433
  8
05
 10
389.298643
 20
192.591605
 30
0.0
 11
392.494542
 21
196.185364
 31
0.0
  0
POLYLINE
  5
434
  8
025
 66
     1
 10
0.0
 20
0.0
 30
0.0
  0
VERTEX
  5
891
  8
025
 10
389.298643
 20
192.591605
 30
0.0
  0
VERTEX
  5
892
  8
025
 10
389.566974
 20
193.053417
 30
0.0
  0
VERTEX
  5
893
  8
025
 10
389.749033
 20
193.78569
 30
0.0
  0
VERTEX
  5
894
  8
025
 10
389.815314
 20
194.743251
 30
0.0
  0
VERTEX
  5
895
  8
025
 10
389.764185
 20
195.90252
 30
0.0
  0
VERTEX
  5
896
  8
025
 10
389.596907
 20
197.234953
 30
0.0
  0
SEQEND
  5
897
  8
025
  0
LINE
  5
435
  8
05
 10
388.967363
 20
192.358181
 30
0.0
 11
389.298643
 21
192.591605
 31
0.0
  0
POLYLINE
  5
436
  8
05
 66
     1
 10
0.0
 20
0.0
 30
0.0
  0
VERTEX
  5
898
  8
05
 10
392.494395
 20
196.185358
 30
0.0
  0
VERTEX
  5
899
  8
05
 10
392.666579
 20
196.455171
 30
0.0
  0
VERTEX
  5
89A
  8
05
 10
392.837036
 20
197.033466
 30
0.0
  0
VERTEX
  5
89B
  8
05
 10
392.905621
 20
197.813741
 30
0.0
  0
VERTEX
  5
89C
  8
05
 10
392.870462
 20
198.774711
 30
0.0
  0
VERTEX
  5
89D
  8
05
 10
392.732518
 20
199.890163
 30
0.0
  0
SEQEND
  5
89E
  8
05
  0
POLYLINE
  5
437
  8
025
 66
     1
 10
0.0
 20
0.0
 30
0.0
  0
VERTEX
  5
89F
  8
025
 10
385.969012
 20
208.071621
 30
0.0
  0
VERTEX
  5
8A0
  8
025
 10
386.566614
 20
206.838358
 30
0.0
  0
VERTEX
  5
8A1
  8
025
 10
387.089622
 20
205.62734
 30
0.0
  0
SEQEND
  5
8A2
  8
025
  0
POLYLINE
  5
438
  8
05
 66
     1
 10
0.0
 20
0.0
 30
0.0
  0
VERTEX
  5
8A3
  8
05
 10
381.126819
 20
213.511891
 30
0.0
  0
VERTEX
  5
8A4
  8
05
 10
381.217985
 20
213.539206
 30
0.0
  0
VERTEX
  5
8A5
  8
05
 10
381.530207
 20
213.550768
 30
0.0
  0
SEQEND
  5
8A6
  8
05
  0
ENDSEC
  0
EOF
