  0
SECTION
  2
HEADER
  9
$ACADVER
  1
AC1009
  9
$INSBASE
 10
0.0
 20
0.0
 30
0.0
  9
$EXTMIN
 10
0.0
 20
0.0
 30
0.0
  9
$EXTMAX
 10
210.0
 20
297.0
 30
0.0
  9
$LIMMIN
 10
0.0
 20
0.0
  9
$LIMMAX
 10
210.0
 20
297.0
  9
$ORTHOMODE
 70
     1
  9
$REGENMODE
 70
     1
  9
$FILLMODE
 70
     1
  9
$QTEXTMODE
 70
     0
  9
$MIRRTEXT
 70
     0
  9
$DRAGMODE
 70
     2
  9
$LTSCALE
 40
19.359999999999999
  9
$OSMODE
 70
    37
  9
$ATTMODE
 70
     1
  9
$TEXTSIZE
 40
0.2
  9
$TRACEWID
 40
0.05
  9
$TEXTSTYLE
  7
STANDARD
  9
$CLAYER
  8
0
  9
$CELTYPE
  6
BYLAYER
  9
$CECOLOR
 62
   256
  9
$DIMSCALE
 40
1.0
  9
$DIMASZ
 40
3.5
  9
$DIMEXO
 40
2.2000000000000002
  9
$DIMDLI
 40
13.375999999999999
  9
$DIMRND
 40
0.0
  9
$DIMDLE
 40
0.0
  9
$DIMEXE
 40
6.3360000000000003
  9
$DIMTP
 40
0.0
  9
$DIMTM
 40
0.0
  9
$DIMTXT
 40
3.9776785713999989
  9
$DIMCEN
 40
3.1680000000000001
  9
$DIMTSZ
 40
0.0
  9
$DIMTOL
 70
     0
  9
$DIMLIM
 70
     0
  9
$DIMTIH
 70
     1
  9
$DIMTOH
 70
     1
  9
$DIMSE1
 70
     0
  9
$DIMSE2
 70
     0
  9
$DIMTAD
 70
     0
  9
$DIMZIN
 70
     0
  9
$DIMBLK
  1

  9
$DIMASO
 70
     1
  9
$DIMSHO
 70
     1
  9
$DIMPOST
  1

  9
$DIMAPOST
  1

  9
$DIMALT
 70
     0
  9
$DIMALTD
 70
     2
  9
$DIMALTF
 40
25.399999999999999
  9
$DIMLFAC
 40
1.0
  9
$DIMTOFL
 70
     0
  9
$DIMTVP
 40
0.0
  9
$DIMTIX
 70
     0
  9
$DIMSOXD
 70
     0
  9
$DIMSAH
 70
     0
  9
$DIMBLK1
  1

  9
$DIMBLK2
  1

  9
$DIMSTYLE
  2
STANDARD
  9
$DIMCLRD
 70
     0
  9
$DIMCLRE
 70
     0
  9
$DIMCLRT
 70
     0
  9
$DIMTFAC
 40
1.0
  9
$DIMGAP
 40
0.09
  9
$LUNITS
 70
     2
  9
$LUPREC
 70
     4
  9
$SKETCHINC
 40
0.1
  9
$FILLETRAD
 40
0.0
  9
$AUNITS
 70
     0
  9
$AUPREC
 70
     0
  9
$MENU
  1
.
  9
$ELEVATION
 40
0.0
  9
$PELEVATION
 40
0.0
  9
$THICKNESS
 40
0.0
  9
$LIMCHECK
 70
     0
  9
$BLIPMODE
 70
     0
  9
$CHAMFERA
 40
0.0
  9
$CHAMFERB
 40
0.0
  9
$SKPOLY
 70
     0
  9
$TDCREATE
 40
2453837.5583884139
  9
$TDUPDATE
 40
2453837.570954063
  9
$TDINDWG
 40
0.0062597917
  9
$TDUSRTIMER
 40
0.0062594213
  9
$USRTIMER
 70
     1
  9
$ANGBASE
 50
0.0
  9
$ANGDIR
 70
     0
  9
$PDMODE
 70
     0
  9
$PDSIZE
 40
0.0
  9
$PLINEWID
 40
0.0
  9
$COORDS
 70
     2
  9
$SPLFRAME
 70
     0
  9
$SPLINETYPE
 70
     6
  9
$SPLINESEGS
 70
     8
  9
$ATTDIA
 70
     0
  9
$ATTREQ
 70
     1
  9
$HANDLING
 70
     1
  9
$HANDSEED
  5
62C
  9
$SURFTAB1
 70
     6
  9
$SURFTAB2
 70
     6
  9
$SURFTYPE
 70
     6
  9
$SURFU
 70
     6
  9
$SURFV
 70
     6
  9
$UCSNAME
  2

  9
$UCSORG
 10
0.0
 20
0.0
 30
0.0
  9
$UCSXDIR
 10
1.0
 20
0.0
 30
0.0
  9
$UCSYDIR
 10
0.0
 20
1.0
 30
0.0
  9
$PUCSNAME
  2

  9
$PUCSORG
 10
0.0
 20
0.0
 30
0.0
  9
$PUCSXDIR
 10
1.0
 20
0.0
 30
0.0
  9
$PUCSYDIR
 10
0.0
 20
1.0
 30
0.0
  9
$USERI1
 70
     0
  9
$USERI2
 70
     0
  9
$USERI3
 70
     0
  9
$USERI4
 70
     0
  9
$USERI5
 70
     0
  9
$USERR1
 40
0.0
  9
$USERR2
 40
0.0
  9
$USERR3
 40
0.0
  9
$USERR4
 40
0.0
  9
$USERR5
 40
0.0
  9
$WORLDVIEW
 70
     1
  9
$SHADEDGE
 70
     3
  9
$SHADEDIF
 70
    70
  9
$TILEMODE
 70
     1
  9
$MAXACTVP
 70
    64
  9
$PLIMCHECK
 70
     0
  9
$PEXTMIN
 10
1.0000000000000000E+020
 20
1.0000000000000000E+020
 30
1.0000000000000000E+020
  9
$PEXTMAX
 10
-1.0000000000000000E+020
 20
-1.0000000000000000E+020
 30
-1.0000000000000000E+020
  9
$PLIMMIN
 10
0.0
 20
0.0
  9
$PLIMMAX
 10
12.0
 20
9.0
  9
$UNITMODE
 70
     0
  9
$VISRETAIN
 70
     1
  9
$PLINEGEN
 70
     0
  9
$PSLTSCALE
 70
     1
  0
ENDSEC
  0
SECTION
  2
TABLES
  0
TABLE
  2
VPORT
 70
     2
  0
VPORT
  2
*ACTIVE
 70
     0
 10
0.0
 20
0.0
 11
1.0
 21
1.0
 12
120.7253270453371
 22
148.50000069150701
 13
0.0
 23
0.0
 14
1.0
 24
1.0
 15
0.0
 25
0.0
 16
0.0
 26
0.0
 36
1.0
 17
0.0
 27
0.0
 37
0.0
 40
298.61499909433832
 41
1.259192825112107
 42
50.0
 43
0.0
 44
0.0
 50
0.0
 51
0.0
 71
     0
 72
   100
 73
     1
 74
     1
 75
     0
 76
     0
 77
     0
 78
     0
  0
ENDTAB
  0
TABLE
  2
LTYPE
 70
     6
  0
LTYPE
  2
CONTINUOUS
 70
     0
  3
Solid line
 72
    65
 73
     0
 40
0.0
  0
LTYPE
  2
CENTER
 70
     0
  3
____ _ ____ _ ____ _ ____ _ ____ _ ____ _ ____
 72
    65
 73
     4
 40
0.6
 49
0.375
 49
-0.075
 49
0.075
 49
-0.075
  0
LTYPE
  2
HIDDEN
 70
     0
  3
- - - - - - - - - - - - - - - - - - - -
 72
    65
 73
     2
 40
0.2
 49
0.1
 49
-0.1
  0
LTYPE
  2
PHANTOM
 70
     0
  3
_____ _ _ _____ _ _ _____ _ _ _____
 72
    65
 73
     6
 40
0.8
 49
0.45
 49
-0.05
 49
0.1
 49
-0.05
 49
0.1
 49
-0.05
  0
LTYPE
  2
DOT
 70
     0
  3
. . . . . . . . . . . . . . . . . . . .
 72
    65
 73
     2
 40
0.2
 49
0.1
 49
-0.1
  0
LTYPE
  2
DASHED
 70
     0
  3
- - - - - - - - - - - - - - - - - - - -
 72
    65
 73
     2
 40
0.2
 49
0.1
 49
-0.1
  0
ENDTAB
  0
TABLE
  2
LAYER
 70
    13
  0
LAYER
  2
0
 70
     0
 62
     7
  6
CONTINUOUS
  0
LAYER
  2
DEFAULT_1
 70
     0
 62
     7
  6
CENTER
  0
LAYER
  2
DEFAULT_2
 70
     0
 62
     8
  6
HIDDEN
  0
LAYER
  2
DEFAULT_3
 70
     0
 62
     7
  6
PHANTOM
  0
LAYER
  2
010
 70
     0
 62
     7
  6
CONTINUOUS
  0
LAYER
  2
025
 70
     0
 62
     7
  6
CONTINUOUS
  0
LAYER
  2
035
 70
     0
 62
     7
  6
CONTINUOUS
  0
LAYER
  2
05
 70
     0
 62
     7
  6
CONTINUOUS
  0
LAYER
  2
07
 70
     0
 62
     7
  6
CONTINUOUS
  0
LAYER
  2
BEM1
 70
     0
 62
     7
  6
CONTINUOUS
  0
LAYER
  2
DEFPOINTS
 70
     0
 62
     7
  6
CONTINUOUS
  0
LAYER
  2
MITTE
 70
     0
 62
     7
  6
CONTINUOUS
  0
LAYER
  2
RAHMEN
 70
     0
 62
     7
  6
CONTINUOUS
  0
ENDTAB
  0
TABLE
  2
STYLE
 70
     1
  0
STYLE
  2
STANDARD
 70
     0
 40
0.0
 41
0.8
 50
0.0
 71
     0
 42
0.2
  3
txt
  4

  0
ENDTAB
  0
TABLE
  2
VIEW
 70
     0
  0
ENDTAB
  0
TABLE
  2
UCS
 70
     0
  0
ENDTAB
  0
TABLE
  2
APPID
 70
     2
  0
APPID
  2
ACAD
 70
     0
  0
APPID
  2
ACAD_EXEMPT_FROM_CAD_STANDARDS
 70
     0
  0
ENDTAB
  0
TABLE
  2
DIMSTYLE
 70
     1
  0
DIMSTYLE
  2
STANDARD
 70
     0
  3

  4

  5

  6

  7

 40
1.0
 41
0.18
 42
0.0625
 43
0.38
 44
0.18
 45
0.0
 46
0.0
 47
0.0
 48
0.0
140
0.18
141
0.09
142
0.0
143
25.399999999999999
144
1.0
145
0.0
146
1.0
147
0.09
 71
     0
 72
     0
 73
     1
 74
     1
 75
     0
 76
     0
 77
     0
 78
     0
170
     0
171
     2
172
     0
173
     0
174
     0
175
     0
176
     0
177
     0
178
     0
  0
ENDTAB
  0
ENDSEC
  0
SECTION
  2
BLOCKS
  0
BLOCK
  8
0
  2
$MODEL_SPACE
 70
     0
 10
0.0
 20
0.0
 30
0.0
  3
$MODEL_SPACE
  1

  0
ENDBLK
  5
603
  8
0
  0
BLOCK
 67
     1
  8
0
  2
$PAPER_SPACE
 70
     0
 10
0.0
 20
0.0
 30
0.0
  3
$PAPER_SPACE
  1

  0
ENDBLK
  5
5FF
 67
     1
  8
0
  0
ENDSEC
  0
SECTION
  2
ENTITIES
  0
LINE
  5
21D
  8
0
  6
CONTINUOUS
 62
     7
 10
0.0
 20
0.0
 30
0.0
 11
210.0
 21
0.0
 31
0.0
  0
LINE
  5
21E
  8
0
  6
CONTINUOUS
 62
     7
 10
210.0
 20
0.0
 30
0.0
 11
210.0
 21
297.0
 31
0.0
  0
LINE
  5
21F
  8
0
  6
CONTINUOUS
 62
     7
 10
0.0
 20
297.0
 30
0.0
 11
210.0
 21
297.0
 31
0.0
  0
LINE
  5
220
  8
0
  6
CONTINUOUS
 62
     7
 10
0.0
 20
0.0
 30
0.0
 11
0.0
 21
297.0
 31
0.0
  0
LINE
  5
221
  8
010
  6
CONTINUOUS
 62
     7
 10
103.3528866501283
 20
251.9020373152311
 30
0.0
 11
103.8974356501283
 21
251.9020373152311
 31
0.0
  0
LINE
  5
222
  8
010
  6
CONTINUOUS
 62
     7
 10
103.4791586501283
 20
250.40245731523109
 30
0.0
 11
103.8579756501283
 21
250.40245731523109
 31
0.0
  0
LINE
  5
223
  8
010
  6
CONTINUOUS
 62
     7
 10
103.56202465012829
 20
248.90287831523111
 30
0.0
 11
103.8579756501283
 21
248.90287831523111
 31
0.0
  0
LINE
  5
224
  8
010
  6
CONTINUOUS
 62
     7
 10
103.2700206501284
 20
247.4032993152311
 30
0.0
 11
103.81456965012831
 21
247.4032993152311
 31
0.0
  0
LINE
  5
225
  8
010
  6
CONTINUOUS
 62
     7
 10
102.5952546501283
 20
245.90371931523109
 30
0.0
 11
103.6054306501283
 21
245.90371931523109
 31
0.0
  0
LINE
  5
226
  8
010
  6
CONTINUOUS
 62
     7
 10
94.17296065012836
 20
248.90287831523111
 30
0.0
 11
95.030768650128309
 21
248.90287831523111
 31
0.0
  0
LINE
  5
227
  8
010
  6
CONTINUOUS
 62
     7
 10
94.17296065012836
 20
250.40245731523109
 30
0.0
 11
95.492450650128347
 21
250.40245731523109
 31
0.0
  0
LINE
  5
228
  8
010
  6
CONTINUOUS
 62
     7
 10
94.17296065012836
 20
251.9020373152311
 30
0.0
 11
95.954132650128344
 21
251.9020373152311
 31
0.0
  0
LINE
  5
229
  8
010
  6
CONTINUOUS
 62
     7
 10
94.172960650128388
 20
253.40161631523111
 30
0.0
 11
96.206677650128384
 21
253.40161631523111
 31
0.0
  0
LINE
  5
22A
  8
010
  6
CONTINUOUS
 62
     7
 10
94.172960650128388
 20
254.90119631523109
 30
0.0
 11
96.668359650128409
 21
254.90119631523109
 31
0.0
  0
LINE
  5
22B
  8
010
  6
CONTINUOUS
 62
     7
 10
94.172960650128388
 20
256.40077531523099
 30
0.0
 11
96.920903650128409
 21
256.40077531523099
 31
0.0
  0
LINE
  5
22C
  8
010
  6
CONTINUOUS
 62
     7
 10
94.172960650128388
 20
257.90035531523108
 30
0.0
 11
96.964309650128371
 21
257.90035531523108
 31
0.0
  0
LINE
  5
22D
  8
010
  6
CONTINUOUS
 62
     7
 10
94.172960650128388
 20
259.39993431523112
 30
0.0
 11
97.003769650128405
 21
259.39993431523112
 31
0.0
  0
LINE
  5
22E
  8
MITTE
  6
CENTER
 62
     4
 10
99.171559650128387
 20
262.55960731523112
 30
0.0
 11
99.171559650128316
 21
104.2384543152311
 31
0.0
  0
LINE
  5
22F
  8
RAHMEN
  6
CONTINUOUS
 62
     2
 10
205.0
 20
5.0
 30
0.0
 11
205.0
 21
292.0
 31
0.0
  0
LINE
  5
230
  8
RAHMEN
  6
CONTINUOUS
 62
     2
 10
205.0
 20
292.0
 30
0.0
 11
5.0
 21
292.0
 31
0.0
  0
LINE
  5
231
  8
RAHMEN
  6
CONTINUOUS
 62
     2
 10
5.0
 20
292.0
 30
0.0
 11
5.0
 21
5.0
 31
0.0
  0
LINE
  5
232
  8
RAHMEN
  6
CONTINUOUS
 62
     2
 10
5.0
 20
5.0
 30
0.0
 11
205.0
 21
5.0
 31
0.0
  0
LINE
  5
233
  8
05
  6
CONTINUOUS
 62
     2
 10
154.0
 20
5.0
 30
0.0
 11
154.0
 21
51.0
 31
0.0
  0
LINE
  5
234
  8
05
  6
CONTINUOUS
 62
     2
 10
188.0
 20
14.0
 30
0.0
 11
188.0
 21
51.0
 31
0.0
  0
LINE
  5
235
  8
05
  6
CONTINUOUS
 62
     2
 10
173.0
 20
31.0
 30
0.0
 11
173.0
 21
51.0
 31
0.0
  0
LINE
  5
236
  8
05
  6
CONTINUOUS
 62
     2
 10
72.0
 20
46.0
 30
0.0
 11
113.0
 21
46.0
 31
0.0
  0
LINE
  5
237
  8
05
  6
CONTINUOUS
 62
     2
 10
60.0
 20
5.0
 30
0.0
 11
60.0
 21
51.0
 31
0.0
  0
LINE
  5
238
  8
05
  6
CONTINUOUS
 62
     2
 10
47.0
 20
5.0
 30
0.0
 11
47.0
 21
51.0
 31
0.0
  0
LINE
  5
239
  8
05
  6
CONTINUOUS
 62
     2
 10
5.0
 20
11.0
 30
0.0
 11
72.0
 21
11.0
 31
0.0
  0
LINE
  5
23A
  8
05
  6
CONTINUOUS
 62
     2
 10
72.0
 20
38.0
 30
0.0
 11
113.0
 21
38.0
 31
0.0
  0
LINE
  5
23B
  8
05
  6
CONTINUOUS
 62
     2
 10
14.0
 20
5.0
 30
0.0
 11
14.0
 21
51.0
 31
0.0
  0
LINE
  5
23C
  8
05
  6
CONTINUOUS
 62
     2
 10
72.0
 20
5.0
 30
0.0
 11
72.0
 21
51.0
 31
0.0
  0
LINE
  5
23D
  8
05
  6
CONTINUOUS
 62
     2
 10
113.0
 20
31.0
 30
0.0
 11
113.0
 21
51.0
 31
0.0
  0
LINE
  5
23E
  8
05
  6
CONTINUOUS
 62
     2
 10
136.0
 20
31.0
 30
0.0
 11
136.0
 21
51.0
 31
0.0
  0
LINE
  5
23F
  8
05
  6
CONTINUOUS
 62
     2
 10
205.0
 20
5.0
 30
0.0
 11
205.0
 21
51.0
 31
0.0
  0
LINE
  5
240
  8
05
  6
CONTINUOUS
 62
     2
 10
5.0
 20
51.0
 30
0.0
 11
5.0
 21
5.0
 31
0.0
  0
LINE
  5
241
  8
05
  6
CONTINUOUS
 62
     2
 10
205.0
 20
14.0
 30
0.0
 11
72.0
 21
14.0
 31
0.0
  0
LINE
  5
242
  8
05
  6
CONTINUOUS
 62
     2
 10
205.0
 20
23.0
 30
0.0
 11
154.0
 21
23.0
 31
0.0
  0
LINE
  5
243
  8
05
  6
CONTINUOUS
 62
     2
 10
205.0
 20
31.0
 30
0.0
 11
72.0
 21
31.0
 31
0.0
  0
LINE
  5
244
  8
05
  6
CONTINUOUS
 62
     2
 10
205.0
 20
36.0
 30
0.0
 11
154.0
 21
36.0
 31
0.0
  0
LINE
  5
245
  8
05
  6
CONTINUOUS
 62
     2
 10
205.0
 20
41.0
 30
0.0
 11
154.0
 21
41.0
 31
0.0
  0
LINE
  5
246
  8
05
  6
CONTINUOUS
 62
     2
 10
205.0
 20
46.0
 30
0.0
 11
154.0
 21
46.0
 31
0.0
  0
LINE
  5
247
  8
05
  6
CONTINUOUS
 62
     2
 10
205.0
 20
51.0
 30
0.0
 11
5.0
 21
51.0
 31
0.0
  0
LINE
  5
248
  8
05
  6
CONTINUOUS
 62
     2
 10
104.1701576501284
 20
261.69928931523111
 30
0.0
 11
104.1701576501283
 21
246.70349531523109
 31
0.0
  0
LINE
  5
249
  8
05
  6
CONTINUOUS
 62
     2
 10
94.17296065012836
 20
246.70349531523109
 30
0.0
 11
94.172960650128388
 21
261.69928931523111
 31
0.0
  0
ARC
  5
24A
  8
07
  6
CONTINUOUS
 62
     2
 10
116.1667926501284
 20
259.69985031523112
 30
0.0
 40
1.9994389999999991
 50
0.0
 51
90.0
  0
ARC
  5
24B
  8
07
  6
CONTINUOUS
 62
     2
 10
82.176325650128376
 20
259.69985031523112
 30
0.0
 40
1.9994389999999991
 50
90.0
 51
180.0
  0
LINE
  5
24C
  8
07
  6
CONTINUOUS
 62
     2
 10
80.176886650128353
 20
172.72424331523109
 30
0.0
 11
80.176886650128395
 21
259.69985031523112
 31
0.0
  0
ARC
  5
24D
  8
05
  6
CONTINUOUS
 62
     2
 10
99.171559650128358
 20
238.70573831523109
 30
0.0
 40
3.9988790000000001
 50
180.0
 51
0.0
  0
LINE
  5
24E
  8
05
  6
CONTINUOUS
 62
     2
 10
103.17043765012841
 20
243.7043363152311
 30
0.0
 11
103.17043765012841
 21
238.7057353152311
 31
0.0
  0
LINE
  5
24F
  8
05
  6
CONTINUOUS
 62
     2
 10
95.172680650128314
 20
238.70573431523101
 30
0.0
 11
95.172680650128314
 21
243.7043363152311
 31
0.0
  0
ARC
  5
250
  8
05
  6
CONTINUOUS
 62
     2
 10
99.171559650128358
 20
246.70349531523109
 30
0.0
 40
4.9985980000000003
 50
180.0
 51
0.0
  0
LINE
  5
251
  8
07
  6
CONTINUOUS
 62
     2
 10
118.1662316501284
 20
259.69985031523112
 30
0.0
 11
118.1662316501283
 21
172.72424331523109
 31
0.0
  0
LINE
  5
252
  8
07
  6
CONTINUOUS
 62
     2
 10
82.176325650128376
 20
261.69928931523111
 30
0.0
 11
116.1667926501284
 21
261.69928931523111
 31
0.0
  0
LINE
  5
271
  8
07
  6
CONTINUOUS
 62
     2
 10
81.177645498528335
 20
171.72348601223109
 30
0.0
 11
117.2049640409283
 21
171.72348601223109
 31
0.0
  0
LINE
  5
273
  8
07
  6
CONTINUOUS
 62
     2
 10
82.378556116628346
 20
171.72348601223109
 30
0.0
 11
82.378556116628346
 21
167.11999530963109
 31
0.0
  0
ARC
  5
274
  8
07
  6
CONTINUOUS
 62
     2
 10
81.177645498528335
 20
172.7242448606311
 30
0.0
 40
1.0007588484000001
 50
180.0
 51
270.0
  0
LINE
  5
276
  8
07
  6
CONTINUOUS
 62
     2
 10
116.00405342282831
 20
171.72348601223109
 30
0.0
 11
116.00405342282831
 21
167.11999530963109
 31
0.0
  0
ARC
  5
277
  8
07
  6
CONTINUOUS
 62
     2
 10
117.2049640409283
 20
172.7242448606311
 30
0.0
 40
1.0007588484000001
 50
270.0
 51
0.0
  0
LINE
  5
278
  8
RAHMEN
  6
CONTINUOUS
 62
     7
 10
210.0
 20
0.0
 30
0.0
 11
210.0
 21
297.0
 31
0.0
  0
LINE
  5
279
  8
RAHMEN
  6
CONTINUOUS
 62
     7
 10
210.0
 20
297.0
 30
0.0
 11
0.0
 21
297.0
 31
0.0
  0
LINE
  5
27A
  8
RAHMEN
  6
CONTINUOUS
 62
     7
 10
0.0
 20
297.0
 30
0.0
 11
0.0
 21
0.0
 31
0.0
  0
LINE
  5
27B
  8
RAHMEN
  6
CONTINUOUS
 62
     7
 10
0.0
 20
0.0
 30
0.0
 11
210.0
 21
0.0
 31
0.0
  0
LINE
  5
27C
  8
05
  6
CONTINUOUS
 62
     7
 10
97.576127000000014
 20
8.208952
 30
0.0
 11
97.859480000000005
 21
8.4923040000000007
 31
0.0
  0
LINE
  5
27D
  8
05
  6
CONTINUOUS
 62
     7
 10
99.620268999999993
 20
10.253094000000001
 30
0.0
 11
100.060247
 21
10.693072000000001
 31
0.0
  0
LINE
  5
27E
  8
05
  6
CONTINUOUS
 62
     7
 10
98.502415000000013
 20
9.1352399999999996
 30
0.0
 11
98.792393000000004
 21
9.4252179999999992
 31
0.0
  0
LINE
  5
27F
  8
05
  6
CONTINUOUS
 62
     7
 10
97.257929000000004
 20
8.208952
 30
0.0
 11
97.950115999999994
 21
8.9011390000000006
 31
0.0
  0
LINE
  5
280
  8
05
  6
CONTINUOUS
 62
     7
 10
99.302070999999998
 20
10.253094000000001
 30
0.0
 11
99.742048999999994
 21
10.693072000000001
 31
0.0
  0
LINE
  5
281
  8
05
  6
CONTINUOUS
 62
     7
 10
98.184217000000004
 20
9.1352399999999996
 30
0.0
 11
98.474194999999995
 21
9.4252179999999992
 31
0.0
  0
LINE
  5
282
  8
05
  6
CONTINUOUS
 62
     7
 10
96.939730999999995
 20
8.208952
 30
0.0
 11
98.155996999999985
 21
9.4252179999999992
 31
0.0
  0
LINE
  5
283
  8
05
  6
CONTINUOUS
 62
     7
 10
98.983873000000017
 20
10.253094000000001
 30
0.0
 11
99.423851000000013
 21
10.693072000000001
 31
0.0
  0
LINE
  5
284
  8
05
  6
CONTINUOUS
 62
     7
 10
96.621532999999985
 20
8.208952
 30
0.0
 11
98.131389000000013
 21
9.7188079999999992
 31
0.0
  0
LINE
  5
285
  8
05
  6
CONTINUOUS
 62
     7
 10
98.665674999999993
 20
10.253094000000001
 30
0.0
 11
99.105653000000004
 21
10.693072000000001
 31
0.0
  0
LINE
  5
286
  8
05
  6
CONTINUOUS
 62
     7
 10
96.303335000000004
 20
8.208952
 30
0.0
 11
98.222025000000016
 21
10.127642
 31
0.0
  0
LINE
  5
287
  8
05
  6
CONTINUOUS
 62
     7
 10
98.347477000000012
 20
10.253094000000001
 30
0.0
 11
98.787454999999994
 21
10.693072000000001
 31
0.0
  0
LINE
  5
288
  8
05
  6
CONTINUOUS
 62
     7
 10
96.118365999999995
 20
8.3421810000000001
 30
0.0
 11
98.469256999999985
 21
10.693072000000001
 31
0.0
  0
LINE
  5
289
  8
05
  6
CONTINUOUS
 62
     7
 10
96.209002000000012
 20
8.7510150000000007
 30
0.0
 11
98.151059000000004
 21
10.693072000000001
 31
0.0
  0
LINE
  5
28A
  8
05
  6
CONTINUOUS
 62
     7
 10
96.299638999999985
 20
9.1598500000000005
 30
0.0
 11
97.832860999999994
 21
10.693072000000001
 31
0.0
  0
LINE
  5
28B
  8
05
  6
CONTINUOUS
 62
     7
 10
96.390275000000003
 20
9.5686839999999993
 30
0.0
 11
97.514663000000013
 21
10.693072000000001
 31
0.0
  0
LINE
  5
28C
  8
05
  6
CONTINUOUS
 62
     7
 10
96.48091100000002
 20
9.9775189999999991
 30
0.0
 11
97.196465000000003
 21
10.693072000000001
 31
0.0
  0
LINE
  5
28D
  8
05
  6
CONTINUOUS
 62
     7
 10
96.571548000000007
 20
10.386353
 30
0.0
 11
96.878266999999994
 21
10.693072000000001
 31
0.0
  0
LINE
  5
28E
  8
05
  6
CONTINUOUS
 62
     7
 10
95.939038999999994
 20
10.072042
 30
0.0
 11
95.963998999999987
 21
10.097002
 31
0.0
  0
LINE
  5
28F
  8
05
  6
CONTINUOUS
 62
     7
 10
93.757751000000013
 20
8.208952
 30
0.0
 11
93.960080000000005
 21
8.4112819999999981
 31
0.0
  0
LINE
  5
290
  8
05
  6
CONTINUOUS
 62
     7
 10
95.620840999999984
 20
10.072042
 30
0.0
 11
96.054636000000002
 21
10.505837
 31
0.0
  0
LINE
  5
291
  8
05
  6
CONTINUOUS
 62
     7
 10
93.439553000000004
 20
8.208952
 30
0.0
 11
94.050717000000006
 21
8.8201160000000005
 31
0.0
  0
LINE
  5
292
  8
05
  6
CONTINUOUS
 62
     7
 10
95.302643000000003
 20
10.072042
 30
0.0
 11
95.923672999999994
 21
10.693072000000001
 31
0.0
  0
LINE
  5
293
  8
05
  6
CONTINUOUS
 62
     7
 10
93.121354999999994
 20
8.208952
 30
0.0
 11
94.141352999999995
 21
9.2289510000000003
 31
0.0
  0
LINE
  5
294
  8
05
  6
CONTINUOUS
 62
     7
 10
94.984444999999994
 20
10.072042
 30
0.0
 11
95.605474000000001
 21
10.693072000000001
 31
0.0
  0
LINE
  5
295
  8
05
  6
CONTINUOUS
 62
     7
 10
92.803156999999999
 20
8.208952
 30
0.0
 11
94.231989999999996
 21
9.6377849999999992
 31
0.0
  0
LINE
  5
296
  8
05
  6
CONTINUOUS
 62
     7
 10
94.666246000000015
 20
10.072042
 30
0.0
 11
95.287276000000006
 21
10.693072000000001
 31
0.0
  0
LINE
  5
297
  8
05
  6
CONTINUOUS
 62
     7
 10
92.484958999999989
 20
8.208952
 30
0.0
 11
94.322625999999985
 21
10.046620000000001
 31
0.0
  0
LINE
  5
298
  8
05
  6
CONTINUOUS
 62
     7
 10
94.348048000000006
 20
10.072042
 30
0.0
 11
94.969077999999996
 21
10.693072000000001
 31
0.0
  0
LINE
  5
299
  8
05
  6
CONTINUOUS
 62
     7
 10
92.218965999999995
 20
8.261158
 30
0.0
 11
94.650879999999987
 21
10.693072000000001
 31
0.0
  0
LINE
  5
29A
  8
05
  6
CONTINUOUS
 62
     7
 10
92.309602999999996
 20
8.6699920000000006
 30
0.0
 11
94.332682000000005
 21
10.693072000000001
 31
0.0
  0
LINE
  5
29B
  8
05
  6
CONTINUOUS
 62
     7
 10
92.400239000000013
 20
9.0788270000000004
 30
0.0
 11
94.014483999999996
 21
10.693072000000001
 31
0.0
  0
LINE
  5
29C
  8
05
  6
CONTINUOUS
 62
     7
 10
92.490876000000014
 20
9.4876609999999992
 30
0.0
 11
93.696286000000001
 21
10.693072000000001
 31
0.0
  0
LINE
  5
29D
  8
05
  6
CONTINUOUS
 62
     7
 10
92.581512000000004
 20
9.8964960000000008
 30
0.0
 11
93.378088000000005
 21
10.693072000000001
 31
0.0
  0
LINE
  5
29E
  8
05
  6
CONTINUOUS
 62
     7
 10
92.438860000000005
 20
10.072042
 30
0.0
 11
93.059889999999996
 21
10.693072000000001
 31
0.0
  0
LINE
  5
29F
  8
05
  6
CONTINUOUS
 62
     7
 10
92.120661999999996
 20
10.072042
 30
0.0
 11
92.741692000000015
 21
10.693072000000001
 31
0.0
  0
LINE
  5
2A0
  8
05
  6
CONTINUOUS
 62
     7
 10
91.802463999999986
 20
10.072042
 30
0.0
 11
92.423494000000005
 21
10.693072000000001
 31
0.0
  0
LINE
  5
2A1
  8
05
  6
CONTINUOUS
 62
     7
 10
89.88837599999998
 20
8.4761520000000008
 30
0.0
 11
90.368538999999998
 21
8.956315
 31
0.0
  0
LINE
  5
2A2
  8
05
  6
CONTINUOUS
 62
     7
 10
91.484266000000005
 20
10.072042
 30
0.0
 11
92.105295999999996
 21
10.693072000000001
 31
0.0
  0
LINE
  5
2A3
  8
05
  6
CONTINUOUS
 62
     7
 10
89.405466000000004
 20
8.3114399999999993
 30
0.0
 11
90.459174999999988
 21
9.3651490000000006
 31
0.0
  0
LINE
  5
2A4
  8
05
  6
CONTINUOUS
 62
     7
 10
91.166067999999996
 20
10.072042
 30
0.0
 11
91.787098
 21
10.693072000000001
 31
0.0
  0
LINE
  5
2A5
  8
05
  6
CONTINUOUS
 62
     7
 10
89.002768999999986
 20
8.2269410000000001
 30
0.0
 11
90.549811000000005
 21
9.7739840000000004
 31
0.0
  0
LINE
  5
2A6
  8
05
  6
CONTINUOUS
 62
     7
 10
91.130516
 20
10.354687999999999
 30
0.0
 11
91.468900000000005
 21
10.693072000000001
 31
0.0
  0
LINE
  5
2A7
  8
05
  6
CONTINUOUS
 62
     7
 10
88.636859000000001
 20
8.1792300000000004
 30
0.0
 11
90.640448000000006
 21
10.182817999999999
 31
0.0
  0
LINE
  5
2A8
  8
05
  6
CONTINUOUS
 62
     7
 10
88.289410999999987
 20
8.1499790000000001
 30
0.0
 11
90.731083999999996
 21
10.591652
 31
0.0
  0
LINE
  5
2A9
  8
05
  6
CONTINUOUS
 62
     7
 10
87.955890999999994
 20
8.1346570000000007
 30
0.0
 11
90.514306000000005
 21
10.693072000000001
 31
0.0
  0
LINE
  5
2AA
  8
05
  6
CONTINUOUS
 62
     7
 10
87.634687999999983
 20
8.1316520000000008
 30
0.0
 11
88.335119000000006
 21
8.832084
 31
0.0
  0
LINE
  5
2AB
  8
05
  6
CONTINUOUS
 62
     7
 10
88.723606000000004
 20
9.2205700000000004
 30
0.0
 11
90.196107999999995
 21
10.693072000000001
 31
0.0
  0
LINE
  5
2AC
  8
05
  6
CONTINUOUS
 62
     7
 10
87.324517999999969
 20
8.1396809999999977
 30
0.0
 11
87.944468999999998
 21
8.7596310000000006
 31
0.0
  0
LINE
  5
2AD
  8
05
  6
CONTINUOUS
 62
     7
 10
88.814241999999965
 20
9.6294039999999992
 30
0.0
 11
89.877909999999986
 21
10.693072000000001
 31
0.0
  0
LINE
  5
2AE
  8
05
  6
CONTINUOUS
 62
     7
 10
87.024343000000002
 20
8.1577029999999962
 30
0.0
 11
87.623311999999999
 21
8.7566729999999993
 31
0.0
  0
LINE
  5
2AF
  8
05
  6
CONTINUOUS
 62
     7
 10
88.904877999999982
 20
10.038239000000001
 30
0.0
 11
89.559710999999965
 21
10.693072000000001
 31
0.0
  0
LINE
  5
2B0
  8
05
  6
CONTINUOUS
 62
     7
 10
86.733305999999985
 20
8.1848639999999993
 30
0.0
 11
87.340799000000004
 21
8.7923570000000009
 31
0.0
  0
LINE
  5
2B1
  8
05
  6
CONTINUOUS
 62
     7
 10
88.995514999999983
 20
10.447073
 30
0.0
 11
89.241512999999998
 21
10.693072000000001
 31
0.0
  0
LINE
  5
2B2
  8
05
  6
CONTINUOUS
 62
     7
 10
86.452006999999981
 20
8.2217640000000003
 30
0.0
 11
87.097228999999999
 21
8.8669849999999961
 31
0.0
  0
LINE
  5
2B3
  8
05
  6
CONTINUOUS
 62
     7
 10
86.184171000000006
 20
8.2721250000000008
 30
0.0
 11
86.902409000000006
 21
8.9903630000000003
 31
0.0
  0
LINE
  5
2B4
  8
05
  6
CONTINUOUS
 62
     7
 10
85.928757999999988
 20
8.3349100000000007
 30
0.0
 11
86.844836000000001
 21
9.2509890000000006
 31
0.0
  0
LINE
  5
2B5
  8
05
  6
CONTINUOUS
 62
     7
 10
85.687320999999983
 20
8.4116710000000001
 30
0.0
 11
86.935473000000002
 21
9.6598229999999994
 31
0.0
  0
LINE
  5
2B6
  8
05
  6
CONTINUOUS
 62
     7
 10
85.466718
 20
8.5092669999999977
 30
0.0
 11
87.026109000000005
 21
10.068657999999999
 31
0.0
  0
LINE
  5
2B7
  8
05
  6
CONTINUOUS
 62
     7
 10
85.265102999999982
 20
8.6258499999999998
 30
0.0
 11
87.116744999999995
 21
10.477492
 31
0.0
  0
LINE
  5
2B8
  8
05
  6
CONTINUOUS
 62
     7
 10
85.101893999999987
 20
8.7808390000000003
 30
0.0
 11
87.014127000000002
 21
10.693072000000001
 31
0.0
  0
LINE
  5
2B9
  8
05
  6
CONTINUOUS
 62
     7
 10
85.109247999999965
 20
9.1063910000000003
 30
0.0
 11
86.695929000000007
 21
10.693072000000001
 31
0.0
  0
LINE
  5
2BA
  8
05
  6
CONTINUOUS
 62
     7
 10
83.893611000000007
 20
8.208952
 30
0.0
 11
84.202477999999999
 21
8.5178189999999976
 31
0.0
  0
LINE
  5
2BB
  8
05
  6
CONTINUOUS
 62
     7
 10
85.199884999999981
 20
9.5152260000000002
 30
0.0
 11
86.377730999999983
 21
10.693072000000001
 31
0.0
  0
LINE
  5
2BC
  8
05
  6
CONTINUOUS
 62
     7
 10
83.575412999999983
 20
8.208952
 30
0.0
 11
84.015392000000006
 21
8.6489309999999993
 31
0.0
  0
LINE
  5
2BD
  8
05
  6
CONTINUOUS
 62
     7
 10
85.290520999999984
 20
9.9240600000000008
 30
0.0
 11
86.059533000000016
 21
10.693072000000001
 31
0.0
  0
LINE
  5
2BE
  8
05
  6
CONTINUOUS
 62
     7
 10
83.257215000000002
 20
8.208952
 30
0.0
 11
83.697193999999996
 21
8.6489309999999993
 31
0.0
  0
LINE
  5
2BF
  8
05
  6
CONTINUOUS
 62
     7
 10
85.381157999999985
 20
10.332895000000001
 30
0.0
 11
85.741335000000007
 21
10.693072000000001
 31
0.0
  0
LINE
  5
2C0
  8
05
  6
CONTINUOUS
 62
     7
 10
82.939017000000007
 20
8.208952
 30
0.0
 11
83.378996000000001
 21
8.6489309999999993
 31
0.0
  0
LINE
  5
2C1
  8
05
  6
CONTINUOUS
 62
     7
 10
84.036088000000007
 20
9.3060229999999997
 30
0.0
 11
84.175165000000007
 21
9.4451000000000001
 31
0.0
  0
LINE
  5
2C2
  8
05
  6
CONTINUOUS
 62
     7
 10
82.620818999999983
 20
8.208952
 30
0.0
 11
83.060796999999965
 21
8.6489309999999993
 31
0.0
  0
LINE
  5
2C3
  8
05
  6
CONTINUOUS
 62
     7
 10
83.717889999999969
 20
9.3060229999999997
 30
0.0
 11
84.007868000000002
 21
9.5960009999999993
 31
0.0
  0
LINE
  5
2C4
  8
05
  6
CONTINUOUS
 62
     7
 10
82.302621000000002
 20
8.208952
 30
0.0
 11
82.742598999999998
 21
8.6489309999999993
 31
0.0
  0
LINE
  5
2C5
  8
05
  6
CONTINUOUS
 62
     7
 10
84.346761999999998
 20
10.253094000000001
 30
0.0
 11
84.655659999999983
 21
10.561991000000001
 31
0.0
  0
LINE
  5
2C6
  8
05
  6
CONTINUOUS
 62
     7
 10
83.399692000000002
 20
9.3060229999999997
 30
0.0
 11
83.689670000000007
 21
9.5960009999999993
 31
0.0
  0
LINE
  5
2C7
  8
05
  6
CONTINUOUS
 62
     7
 10
81.984423000000007
 20
8.208952
 30
0.0
 11
82.424401000000003
 21
8.6489309999999993
 31
0.0
  0
LINE
  5
2C8
  8
05
  6
CONTINUOUS
 62
     7
 10
84.028564000000003
 20
10.253094000000001
 30
0.0
 11
84.468542999999983
 21
10.693072000000001
 31
0.0
  0
LINE
  5
2C9
  8
05
  6
CONTINUOUS
 62
     7
 10
83.081494000000006
 20
9.3060229999999997
 30
0.0
 11
83.371471999999983
 21
9.5960009999999993
 31
0.0
  0
LINE
  5
2CA
  8
05
  6
CONTINUOUS
 62
     7
 10
81.666224999999983
 20
8.208952
 30
0.0
 11
82.106202999999979
 21
8.6489309999999993
 31
0.0
  0
LINE
  5
2CB
  8
05
  6
CONTINUOUS
 62
     7
 10
83.710365999999979
 20
10.253094000000001
 30
0.0
 11
84.150345000000002
 21
10.693072000000001
 31
0.0
  0
LINE
  5
2CC
  8
05
  6
CONTINUOUS
 62
     7
 10
82.763295999999983
 20
9.3060229999999997
 30
0.0
 11
83.053274000000016
 21
9.5960009999999993
 31
0.0
  0
LINE
  5
2CD
  8
05
  6
CONTINUOUS
 62
     7
 10
81.348026999999988
 20
8.208952
 30
0.0
 11
81.788004999999984
 21
8.6489309999999993
 31
0.0
  0
LINE
  5
2CE
  8
05
  6
CONTINUOUS
 62
     7
 10
83.392167999999998
 20
10.253094000000001
 30
0.0
 11
83.832147000000006
 21
10.693072000000001
 31
0.0
  0
LINE
  5
2CF
  8
05
  6
CONTINUOUS
 62
     7
 10
82.445097000000004
 20
9.3060229999999997
 30
0.0
 11
82.735076000000007
 21
9.5960009999999993
 31
0.0
  0
LINE
  5
2D0
  8
05
  6
CONTINUOUS
 62
     7
 10
81.029829000000007
 20
8.208952
 30
0.0
 11
81.469807000000003
 21
8.6489309999999993
 31
0.0
  0
LINE
  5
2D1
  8
05
  6
CONTINUOUS
 62
     7
 10
83.073969999999989
 20
10.253094000000001
 30
0.0
 11
83.513947999999985
 21
10.693072000000001
 31
0.0
  0
LINE
  5
2D2
  8
05
  6
CONTINUOUS
 62
     7
 10
82.126898999999995
 20
9.3060229999999997
 30
0.0
 11
82.416877999999997
 21
9.5960009999999993
 31
0.0
  0
LINE
  5
2D3
  8
05
  6
CONTINUOUS
 62
     7
 10
80.711630999999969
 20
8.208952
 30
0.0
 11
81.318693999999965
 21
8.8160159999999976
 31
0.0
  0
LINE
  5
2D4
  8
05
  6
CONTINUOUS
 62
     7
 10
82.755771999999979
 20
10.253094000000001
 30
0.0
 11
83.195750000000004
 21
10.693072000000001
 31
0.0
  0
LINE
  5
2D5
  8
05
  6
CONTINUOUS
 62
     7
 10
81.808700999999985
 20
9.3060229999999997
 30
0.0
 11
82.098680000000002
 21
9.5960009999999993
 31
0.0
  0
LINE
  5
2D6
  8
05
  6
CONTINUOUS
 62
     7
 10
80.393433000000002
 20
8.208952
 30
0.0
 11
81.40933099999998
 21
9.2248499999999982
 31
0.0
  0
LINE
  5
2D7
  8
05
  6
CONTINUOUS
 62
     7
 10
82.437573999999984
 20
10.253094000000001
 30
0.0
 11
82.877551999999966
 21
10.693072000000001
 31
0.0
  0
LINE
  5
2D8
  8
05
  6
CONTINUOUS
 62
     7
 10
81.490503000000004
 20
9.3060229999999997
 30
0.0
 11
81.780482000000006
 21
9.5960009999999993
 31
0.0
  0
LINE
  5
2D9
  8
05
  6
CONTINUOUS
 62
     7
 10
80.075235000000006
 20
8.208952
 30
0.0
 11
81.499966999999998
 21
9.6336849999999998
 31
0.0
  0
LINE
  5
2DA
  8
05
  6
CONTINUOUS
 62
     7
 10
82.119376000000003
 20
10.253094000000001
 30
0.0
 11
82.559353999999999
 21
10.693072000000001
 31
0.0
  0
LINE
  5
2DB
  8
05
  6
CONTINUOUS
 62
     7
 10
79.757036999999983
 20
8.208952
 30
0.0
 11
81.590603000000002
 21
10.042519
 31
0.0
  0
LINE
  5
2DC
  8
05
  6
CONTINUOUS
 62
     7
 10
81.801177999999965
 20
10.253094000000001
 30
0.0
 11
82.241156000000004
 21
10.693072000000001
 31
0.0
  0
LINE
  5
2DD
  8
05
  6
CONTINUOUS
 62
     7
 10
79.48694399999998
 20
8.2570569999999979
 30
0.0
 11
81.92295799999998
 21
10.693072000000001
 31
0.0
  0
LINE
  5
2DE
  8
05
  6
CONTINUOUS
 62
     7
 10
79.577579999999998
 20
8.6658919999999977
 30
0.0
 11
81.604759999999999
 21
10.693072000000001
 31
0.0
  0
LINE
  5
2DF
  8
05
  6
CONTINUOUS
 62
     7
 10
79.668216999999999
 20
9.0747260000000001
 30
0.0
 11
81.286561999999989
 21
10.693072000000001
 31
0.0
  0
LINE
  5
2E0
  8
05
  6
CONTINUOUS
 62
     7
 10
78.484244000000004
 20
8.208952
 30
0.0
 11
78.661704999999984
 21
8.3864129999999992
 31
0.0
  0
LINE
  5
2E1
  8
05
  6
CONTINUOUS
 62
     7
 10
79.758853000000002
 20
9.4835609999999981
 30
0.0
 11
80.968363999999994
 21
10.693072000000001
 31
0.0
  0
LINE
  5
2E2
  8
05
  6
CONTINUOUS
 62
     7
 10
78.16604599999998
 20
8.208952
 30
0.0
 11
78.752341000000001
 21
8.7952469999999998
 31
0.0
  0
LINE
  5
2E3
  8
05
  6
CONTINUOUS
 62
     7
 10
79.849489000000005
 20
9.8923950000000005
 30
0.0
 11
80.650165999999984
 21
10.693072000000001
 31
0.0
  0
LINE
  5
2E4
  8
05
  6
CONTINUOUS
 62
     7
 10
77.847847999999999
 20
8.208952
 30
0.0
 11
78.842978000000002
 21
9.2040819999999997
 31
0.0
  0
LINE
  5
2E5
  8
05
  6
CONTINUOUS
 62
     7
 10
79.940126000000006
 20
10.30123
 30
0.0
 11
80.331968000000003
 21
10.693072000000001
 31
0.0
  0
LINE
  5
2E6
  8
05
  6
CONTINUOUS
 62
     7
 10
77.529650000000004
 20
8.208952
 30
0.0
 11
78.933614000000006
 21
9.6129160000000002
 31
0.0
  0
LINE
  5
2E7
  8
05
  6
CONTINUOUS
 62
     7
 10
77.21145199999998
 20
8.208952
 30
0.0
 11
79.024251000000007
 21
10.021751
 31
0.0
  0
LINE
  5
2E8
  8
05
  6
CONTINUOUS
 62
     7
 10
76.893253999999999
 20
8.208952
 30
0.0
 11
79.114886999999982
 21
10.430585000000001
 31
0.0
  0
LINE
  5
2E9
  8
05
  6
CONTINUOUS
 62
     7
 10
76.625533000000004
 20
8.2594290000000008
 30
0.0
 11
79.059175999999979
 21
10.693072000000001
 31
0.0
  0
LINE
  5
2EA
  8
05
  6
CONTINUOUS
 62
     7
 10
76.458022
 20
8.4101169999999978
 30
0.0
 11
78.740977999999998
 21
10.693072000000001
 31
0.0
  0
LINE
  5
2EB
  8
05
  6
CONTINUOUS
 62
     7
 10
76.290512000000007
 20
8.5608039999999992
 30
0.0
 11
78.422780000000003
 21
10.693072000000001
 31
0.0
  0
LINE
  5
2EC
  8
05
  6
CONTINUOUS
 62
     7
 10
76.123001999999985
 20
8.7114919999999998
 30
0.0
 11
77.103081000000003
 21
9.6915709999999997
 31
0.0
  0
LINE
  5
2ED
  8
05
  6
CONTINUOUS
 62
     7
 10
77.283136999999982
 20
9.8716270000000002
 30
0.0
 11
78.104581999999979
 21
10.693072000000001
 31
0.0
  0
LINE
  5
2EE
  8
05
  6
CONTINUOUS
 62
     7
 10
75.955490999999981
 20
8.8621800000000004
 30
0.0
 11
76.916307000000003
 21
9.8229950000000006
 31
0.0
  0
LINE
  5
2EF
  8
05
  6
CONTINUOUS
 62
     7
 10
77.373773
 20
10.280462
 30
0.0
 11
77.786383999999998
 21
10.693072000000001
 31
0.0
  0
LINE
  5
2F0
  8
05
  6
CONTINUOUS
 62
     7
 10
75.787981000000002
 20
9.0128679999999992
 30
0.0
 11
76.729532000000006
 21
9.9544189999999997
 31
0.0
  0
LINE
  5
2F1
  8
05
  6
CONTINUOUS
 62
     7
 10
77.464410000000001
 20
10.689296000000001
 30
0.0
 11
77.468186000000003
 21
10.693072000000001
 31
0.0
  0
LINE
  5
2F2
  8
05
  6
CONTINUOUS
 62
     7
 10
74.665868000000003
 20
8.208952
 30
0.0
 11
74.862046000000007
 21
8.4051310000000008
 31
0.0
  0
LINE
  5
2F3
  8
05
  6
CONTINUOUS
 62
     7
 10
75.620470999999981
 20
9.1635550000000006
 30
0.0
 11
76.542758000000006
 21
10.085842
 31
0.0
  0
LINE
  5
2F4
  8
05
  6
CONTINUOUS
 62
     7
 10
74.347669999999979
 20
8.208952
 30
0.0
 11
74.952682999999979
 21
8.8139649999999978
 31
0.0
  0
LINE
  5
2F5
  8
05
  6
CONTINUOUS
 62
     7
 10
75.452960000000004
 20
9.3142429999999994
 30
0.0
 11
76.355982999999981
 21
10.217266
 31
0.0
  0
LINE
  5
2F6
  8
05
  6
CONTINUOUS
 62
     7
 10
74.029471999999984
 20
8.208952
 30
0.0
 11
75.043318999999983
 21
9.2227999999999994
 31
0.0
  0
LINE
  5
2F7
  8
05
  6
CONTINUOUS
 62
     7
 10
75.285449999999983
 20
9.4649309999999982
 30
0.0
 11
76.169208999999981
 21
10.34869
 31
0.0
  0
LINE
  5
2F8
  8
05
  6
CONTINUOUS
 62
     7
 10
73.711274000000003
 20
8.208952
 30
0.0
 11
75.982434999999981
 21
10.480112999999999
 31
0.0
  0
LINE
  5
2F9
  8
05
  6
CONTINUOUS
 62
     7
 10
73.393075999999965
 20
8.208952
 30
0.0
 11
75.795659999999984
 21
10.611537
 31
0.0
  0
LINE
  5
2FA
  8
05
  6
CONTINUOUS
 62
     7
 10
73.120931999999982
 20
8.2550070000000009
 30
0.0
 11
75.558997000000005
 21
10.693072000000001
 31
0.0
  0
LINE
  5
2FB
  8
05
  6
CONTINUOUS
 62
     7
 10
73.211568999999983
 20
8.6638420000000007
 30
0.0
 11
75.240798999999981
 21
10.693072000000001
 31
0.0
  0
LINE
  5
2FC
  8
05
  6
CONTINUOUS
 62
     7
 10
73.302205000000001
 20
9.0726759999999995
 30
0.0
 11
74.922601
 21
10.693072000000001
 31
0.0
  0
LINE
  5
2FD
  8
05
  6
CONTINUOUS
 62
     7
 10
73.392842000000002
 20
9.4815109999999994
 30
0.0
 11
74.604403000000005
 21
10.693072000000001
 31
0.0
  0
LINE
  5
2FE
  8
05
  6
CONTINUOUS
 62
     7
 10
73.483478000000005
 20
9.8903449999999982
 30
0.0
 11
74.286204999999981
 21
10.693072000000001
 31
0.0
  0
LINE
  5
2FF
  8
05
  6
CONTINUOUS
 62
     7
 10
73.574115000000006
 20
10.29918
 30
0.0
 11
73.968007
 21
10.693072000000001
 31
0.0
  0
LINE
  5
300
  8
05
  6
CONTINUOUS
 62
     7
 10
98.820612999999994
 20
9.1352399999999996
 30
0.0
 11
99.110591000000014
 21
9.4252179999999992
 31
0.0
  0
LINE
  5
301
  8
05
  6
CONTINUOUS
 62
     7
 10
99.866659999999996
 20
10.181286999999999
 30
0.0
 11
100.378445
 21
10.693072000000001
 31
0.0
  0
LINE
  5
302
  8
05
  6
CONTINUOUS
 62
     7
 10
99.138811000000004
 20
9.1352399999999996
 30
0.0
 11
99.429241000000005
 21
9.4256700000000002
 31
0.0
  0
LINE
  5
303
  8
05
  6
CONTINUOUS
 62
     7
 10
99.946738999999994
 20
9.9431670000000008
 30
0.0
 11
100.69664299999999
 21
10.693072000000001
 31
0.0
  0
LINE
  5
304
  8
05
  6
CONTINUOUS
 62
     7
 10
99.456255999999996
 20
9.1344860000000008
 30
0.0
 11
101.01467100000001
 21
10.692902
 31
0.0
  0
LINE
  5
305
  8
05
  6
CONTINUOUS
 62
     7
 10
99.630516
 20
8.9905480000000004
 30
0.0
 11
101.29894299999999
 21
10.658975999999999
 31
0.0
  0
LINE
  5
306
  8
05
  6
CONTINUOUS
 62
     7
 10
99.613000000000014
 20
8.6548350000000003
 30
0.0
 11
101.535113
 21
10.576948
 31
0.0
  0
LINE
  5
307
  8
05
  6
CONTINUOUS
 62
     7
 10
99.605261000000013
 20
8.3288969999999978
 30
0.0
 11
101.725075
 21
10.448710999999999
 31
0.0
  0
LINE
  5
308
  8
05
  6
CONTINUOUS
 62
     7
 10
99.803514000000007
 20
8.208952
 30
0.0
 11
101.8509
 21
10.256338
 31
0.0
  0
LINE
  5
309
  8
05
  6
CONTINUOUS
 62
     7
 10
100.121712
 20
8.208952
 30
0.0
 11
101.22121300000001
 21
9.3084530000000001
 31
0.0
  0
LINE
  5
30A
  8
05
  6
CONTINUOUS
 62
     7
 10
101.26608299999999
 20
9.3533229999999996
 30
0.0
 11
101.83422899999999
 21
9.9214690000000001
 31
0.0
  0
LINE
  5
30B
  8
05
  6
CONTINUOUS
 62
     7
 10
100.43991
 20
8.208952
 30
0.0
 11
101.345758
 21
9.1148000000000007
 31
0.0
  0
LINE
  5
30C
  8
05
  6
CONTINUOUS
 62
     7
 10
102.629233
 20
10.398275
 30
0.0
 11
102.92403
 21
10.693072000000001
 31
0.0
  0
LINE
  5
30D
  8
05
  6
CONTINUOUS
 62
     7
 10
100.75810799999999
 20
8.208952
 30
0.0
 11
101.329942
 21
8.7807860000000009
 31
0.0
  0
LINE
  5
30E
  8
05
  6
CONTINUOUS
 62
     7
 10
102.538596
 20
9.9894400000000001
 30
0.0
 11
103.242228
 21
10.693072000000001
 31
0.0
  0
LINE
  5
30F
  8
05
  6
CONTINUOUS
 62
     7
 10
101.076306
 20
8.208952
 30
0.0
 11
101.307193
 21
8.4398389999999992
 31
0.0
  0
LINE
  5
310
  8
05
  6
CONTINUOUS
 62
     7
 10
102.44795999999999
 20
9.5806059999999995
 30
0.0
 11
103.56042600000001
 21
10.693072000000001
 31
0.0
  0
LINE
  5
311
  8
05
  6
CONTINUOUS
 62
     7
 10
102.35732299999999
 20
9.1717720000000007
 30
0.0
 11
103.878624
 21
10.693072000000001
 31
0.0
  0
LINE
  5
312
  8
05
  6
CONTINUOUS
 62
     7
 10
102.266687
 20
8.7629370000000009
 30
0.0
 11
104.196822
 21
10.693072000000001
 31
0.0
  0
LINE
  5
313
  8
05
  6
CONTINUOUS
 62
     7
 10
102.176051
 20
8.3541030000000003
 30
0.0
 11
104.370347
 21
10.548399
 31
0.0
  0
LINE
  5
314
  8
05
  6
CONTINUOUS
 62
     7
 10
102.349098
 20
8.208952
 30
0.0
 11
104.27970999999999
 21
10.139564
 31
0.0
  0
LINE
  5
315
  8
05
  6
CONTINUOUS
 62
     7
 10
102.66729599999999
 20
8.208952
 30
0.0
 11
104.18907400000001
 21
9.7307299999999994
 31
0.0
  0
LINE
  5
316
  8
05
  6
CONTINUOUS
 62
     7
 10
102.985494
 20
8.208952
 30
0.0
 11
104.098437
 21
9.3218949999999996
 31
0.0
  0
LINE
  5
317
  8
05
  6
CONTINUOUS
 62
     7
 10
105.395067
 20
10.618525
 30
0.0
 11
105.46961400000001
 21
10.693072000000001
 31
0.0
  0
LINE
  5
318
  8
05
  6
CONTINUOUS
 62
     7
 10
103.303692
 20
8.208952
 30
0.0
 11
104.007801
 21
8.9130610000000008
 31
0.0
  0
LINE
  5
319
  8
05
  6
CONTINUOUS
 62
     7
 10
105.30443
 20
10.20969
 30
0.0
 11
105.787812
 21
10.693072000000001
 31
0.0
  0
LINE
  5
31A
  8
05
  6
CONTINUOUS
 62
     7
 10
103.62188999999999
 20
8.208952
 30
0.0
 11
103.917164
 21
8.5042259999999992
 31
0.0
  0
LINE
  5
31B
  8
05
  6
CONTINUOUS
 62
     7
 10
105.21379399999999
 20
9.8008559999999996
 30
0.0
 11
106.10601
 21
10.693072000000001
 31
0.0
  0
LINE
  5
31C
  8
05
  6
CONTINUOUS
 62
     7
 10
105.123158
 20
9.3920209999999997
 30
0.0
 11
106.42420799999999
 21
10.693072000000001
 31
0.0
  0
LINE
  5
31D
  8
05
  6
CONTINUOUS
 62
     7
 10
105.032521
 20
8.9831869999999991
 30
0.0
 11
106.742406
 21
10.693072000000001
 31
0.0
  0
LINE
  5
31E
  8
05
  6
CONTINUOUS
 62
     7
 10
104.941885
 20
8.5743519999999975
 30
0.0
 11
107.03644
 21
10.668908
 31
0.0
  0
LINE
  5
31F
  8
05
  6
CONTINUOUS
 62
     7
 10
104.894683
 20
8.208952
 30
0.0
 11
106.945804
 21
10.260073
 31
0.0
  0
LINE
  5
320
  8
05
  6
CONTINUOUS
 62
     7
 10
105.212881
 20
8.208952
 30
0.0
 11
106.85771800000001
 21
9.8537890000000008
 31
0.0
  0
LINE
  5
321
  8
05
  6
CONTINUOUS
 62
     7
 10
105.53107900000001
 20
8.208952
 30
0.0
 11
107.41219599999999
 21
10.090070000000001
 31
0.0
  0
LINE
  5
322
  8
05
  6
CONTINUOUS
 62
     7
 10
105.849277
 20
8.208952
 30
0.0
 11
107.966675
 21
10.326351000000001
 31
0.0
  0
LINE
  5
323
  8
05
  6
CONTINUOUS
 62
     7
 10
106.167475
 20
8.208952
 30
0.0
 11
106.583258
 21
8.6247349999999976
 31
0.0
  0
LINE
  5
324
  8
05
  6
CONTINUOUS
 62
     7
 10
106.90712499999999
 20
8.9486019999999993
 30
0.0
 11
108.521154
 21
10.562631
 31
0.0
  0
LINE
  5
325
  8
05
  6
CONTINUOUS
 62
     7
 10
106.48567300000001
 20
8.208952
 30
0.0
 11
106.492621
 21
8.2159010000000006
 31
0.0
  0
LINE
  5
326
  8
05
  6
CONTINUOUS
 62
     7
 10
107.38713
 20
9.1104090000000006
 30
0.0
 11
108.969793
 21
10.693072000000001
 31
0.0
  0
LINE
  5
327
  8
05
  6
CONTINUOUS
 62
     7
 10
107.545159
 20
8.9502400000000009
 30
0.0
 11
109.28799100000001
 21
10.693072000000001
 31
0.0
  0
LINE
  5
328
  8
05
  6
CONTINUOUS
 62
     7
 10
107.703188
 20
8.7900709999999975
 30
0.0
 11
109.606189
 21
10.693072000000001
 31
0.0
  0
LINE
  5
329
  8
05
  6
CONTINUOUS
 62
     7
 10
107.861217
 20
8.6299019999999977
 30
0.0
 11
109.033479
 21
9.8021650000000005
 31
0.0
  0
LINE
  5
32A
  8
05
  6
CONTINUOUS
 62
     7
 10
109.12504
 20
9.8937250000000017
 30
0.0
 11
109.924387
 21
10.693072000000001
 31
0.0
  0
LINE
  5
32B
  8
05
  6
CONTINUOUS
 62
     7
 10
108.019246
 20
8.4697329999999962
 30
0.0
 11
109.191508
 21
9.6419949999999996
 31
0.0
  0
LINE
  5
32C
  8
05
  6
CONTINUOUS
 62
     7
 10
109.679519
 20
10.130006
 30
0.0
 11
110.24258500000001
 21
10.693072000000001
 31
0.0
  0
LINE
  5
32D
  8
05
  6
CONTINUOUS
 62
     7
 10
108.17727499999999
 20
8.3095639999999982
 30
0.0
 11
109.349537
 21
9.4818260000000016
 31
0.0
  0
LINE
  5
32E
  8
05
  6
CONTINUOUS
 62
     7
 10
110.233998
 20
10.366287
 30
0.0
 11
110.560783
 21
10.693072000000001
 31
0.0
  0
LINE
  5
32F
  8
05
  6
CONTINUOUS
 62
     7
 10
108.39486100000001
 20
8.208952
 30
0.0
 11
109.507566
 21
9.3216570000000001
 31
0.0
  0
LINE
  5
330
  8
05
  6
CONTINUOUS
 62
     7
 10
110.788476
 20
10.602567000000001
 30
0.0
 11
110.878981
 21
10.693072000000001
 31
0.0
  0
LINE
  5
331
  8
05
  6
CONTINUOUS
 62
     7
 10
108.713059
 20
8.208952
 30
0.0
 11
109.665595
 21
9.1614880000000003
 31
0.0
  0
LINE
  5
332
  8
05
  6
CONTINUOUS
 62
     7
 10
109.031257
 20
8.208952
 30
0.0
 11
109.823624
 21
9.0013190000000005
 31
0.0
  0
LINE
  5
333
  8
05
  6
CONTINUOUS
 62
     7
 10
109.34945500000001
 20
8.208952
 30
0.0
 11
109.98165299999999
 21
8.8411500000000007
 31
0.0
  0
LINE
  5
334
  8
05
  6
CONTINUOUS
 62
     7
 10
109.667653
 20
8.208952
 30
0.0
 11
110.13968199999999
 21
8.6809809999999992
 31
0.0
  0
LINE
  5
335
  8
05
  6
CONTINUOUS
 62
     7
 10
109.985851
 20
8.208952
 30
0.0
 11
110.29771100000001
 21
8.5208119999999976
 31
0.0
  0
LINE
  5
336
  8
05
  6
CONTINUOUS
 62
     7
 10
110.30405
 20
8.208952
 30
0.0
 11
110.45574000000001
 21
8.3606429999999978
 31
0.0
  0
LINE
  5
337
  8
05
  6
CONTINUOUS
 62
     7
 10
115.30770099999999
 20
10.667020000000001
 30
0.0
 11
115.33448199999999
 21
10.693801000000001
 31
0.0
  0
LINE
  5
338
  8
05
  6
CONTINUOUS
 62
     7
 10
114.35310699999999
 20
9.3942270000000008
 30
0.0
 11
115.65268
 21
10.693801000000001
 31
0.0
  0
LINE
  5
339
  8
05
  6
CONTINUOUS
 62
     7
 10
113.48603
 20
8.208952
 30
0.0
 11
115.970879
 21
10.693801000000001
 31
0.0
  0
LINE
  5
33A
  8
05
  6
CONTINUOUS
 62
     7
 10
113.80422799999999
 20
8.208952
 30
0.0
 11
116.28907700000001
 21
10.693801000000001
 31
0.0
  0
LINE
  5
33B
  8
05
  6
CONTINUOUS
 62
     7
 10
114.122426
 20
8.208952
 30
0.0
 11
116.607275
 21
10.693801000000001
 31
0.0
  0
LINE
  5
33C
  8
05
  6
CONTINUOUS
 62
     7
 10
114.440624
 20
8.208952
 30
0.0
 11
116.925473
 21
10.693801000000001
 31
0.0
  0
LINE
  5
33D
  8
05
  6
CONTINUOUS
 62
     7
 10
114.758822
 20
8.208952
 30
0.0
 11
116.284682
 21
9.7348119999999998
 31
0.0
  0
LINE
  5
33E
  8
05
  6
CONTINUOUS
 62
     7
 10
116.828596
 20
10.278726000000001
 30
0.0
 11
117.24367100000001
 21
10.693801000000001
 31
0.0
  0
LINE
  5
33F
  8
05
  6
CONTINUOUS
 62
     7
 10
115.07702
 20
8.208952
 30
0.0
 11
115.330088
 21
8.4620200000000008
 31
0.0
  0
LINE
  5
340
  8
05
  6
CONTINUOUS
 62
     7
 10
116.892236
 20
10.024168
 30
0.0
 11
117.561869
 21
10.693801000000001
 31
0.0
  0
LINE
  5
341
  8
05
  6
CONTINUOUS
 62
     7
 10
115.557052
 20
8.6889839999999978
 30
0.0
 11
115.93024
 21
9.0621709999999993
 31
0.0
  0
LINE
  5
342
  8
05
  6
CONTINUOUS
 62
     7
 10
115.87524999999999
 20
8.6889839999999978
 30
0.0
 11
116.24843799999999
 21
9.0621709999999993
 31
0.0
  0
LINE
  5
343
  8
05
  6
CONTINUOUS
 62
     7
 10
116.955876
 20
9.7696100000000001
 30
0.0
 11
117.880067
 21
10.693801000000001
 31
0.0
  0
LINE
  5
344
  8
05
  6
CONTINUOUS
 62
     7
 10
116.193448
 20
8.6889839999999978
 30
0.0
 11
116.566636
 21
9.0621709999999993
 31
0.0
  0
LINE
  5
345
  8
05
  6
CONTINUOUS
 62
     7
 10
117.019515
 20
9.5150509999999997
 30
0.0
 11
118.19826500000001
 21
10.693801000000001
 31
0.0
  0
LINE
  5
346
  8
05
  6
CONTINUOUS
 62
     7
 10
116.511646
 20
8.6889839999999978
 30
0.0
 11
116.884834
 21
9.0621709999999993
 31
0.0
  0
LINE
  5
347
  8
05
  6
CONTINUOUS
 62
     7
 10
117.083155
 20
9.2604930000000003
 30
0.0
 11
118.329286
 21
10.506622999999999
 31
0.0
  0
LINE
  5
348
  8
05
  6
CONTINUOUS
 62
     7
 10
116.82984399999999
 20
8.6889839999999978
 30
0.0
 11
118.39292500000001
 21
10.252065
 31
0.0
  0
LINE
  5
349
  8
05
  6
CONTINUOUS
 62
     7
 10
117.148042
 20
8.6889839999999978
 30
0.0
 11
118.456565
 21
9.9975059999999996
 31
0.0
  0
LINE
  5
34A
  8
05
  6
CONTINUOUS
 62
     7
 10
117.274074
 20
8.4968170000000001
 30
0.0
 11
118.52020400000001
 21
9.7429480000000002
 31
0.0
  0
LINE
  5
34B
  8
05
  6
CONTINUOUS
 62
     7
 10
117.33771299999999
 20
8.2422590000000007
 30
0.0
 11
118.583844
 21
9.4883900000000008
 31
0.0
  0
LINE
  5
34C
  8
05
  6
CONTINUOUS
 62
     7
 10
117.62260499999999
 20
8.208952
 30
0.0
 11
118.64748400000001
 21
9.2338310000000003
 31
0.0
  0
LINE
  5
34D
  8
05
  6
CONTINUOUS
 62
     7
 10
117.940803
 20
8.208952
 30
0.0
 11
118.711123
 21
8.9792729999999992
 31
0.0
  0
LINE
  5
34E
  8
05
  6
CONTINUOUS
 62
     7
 10
119.86403300000001
 20
10.132182
 30
0.0
 11
120.24405400000001
 21
10.512203
 31
0.0
  0
LINE
  5
34F
  8
05
  6
CONTINUOUS
 62
     7
 10
118.259001
 20
8.208952
 30
0.0
 11
118.77476299999999
 21
8.7247140000000005
 31
0.0
  0
LINE
  5
350
  8
05
  6
CONTINUOUS
 62
     7
 10
119.79591499999999
 20
9.7458659999999995
 30
0.0
 11
120.61858599999999
 21
10.568536999999999
 31
0.0
  0
LINE
  5
351
  8
05
  6
CONTINUOUS
 62
     7
 10
118.57719899999999
 20
8.208952
 30
0.0
 11
118.838402
 21
8.4701559999999976
 31
0.0
  0
LINE
  5
352
  8
05
  6
CONTINUOUS
 62
     7
 10
119.727797
 20
9.3595500000000005
 30
0.0
 11
120.981303
 21
10.613056
 31
0.0
  0
LINE
  5
353
  8
05
  6
CONTINUOUS
 62
     7
 10
118.895397
 20
8.208952
 30
0.0
 11
118.90204199999999
 21
8.2155970000000007
 31
0.0
  0
LINE
  5
354
  8
05
  6
CONTINUOUS
 62
     7
 10
119.659679
 20
8.9732339999999962
 30
0.0
 11
121.333358
 21
10.646913
 31
0.0
  0
LINE
  5
355
  8
05
  6
CONTINUOUS
 62
     7
 10
119.61527700000001
 20
8.6106339999999992
 30
0.0
 11
121.67571
 21
10.671067000000001
 31
0.0
  0
LINE
  5
356
  8
05
  6
CONTINUOUS
 62
     7
 10
119.737894
 20
8.4150530000000003
 30
0.0
 11
122.009165
 21
10.686324000000001
 31
0.0
  0
LINE
  5
357
  8
05
  6
CONTINUOUS
 62
     7
 10
119.983951
 20
8.3429129999999976
 30
0.0
 11
121.340819
 21
9.6997800000000005
 31
0.0
  0
LINE
  5
358
  8
05
  6
CONTINUOUS
 62
     7
 10
121.88271
 20
10.241671
 30
0.0
 11
122.33440899999999
 21
10.69337
 31
0.0
  0
LINE
  5
359
  8
05
  6
CONTINUOUS
 62
     7
 10
120.265203
 20
8.3059659999999962
 30
0.0
 11
121.272701
 21
9.3134639999999997
 31
0.0
  0
LINE
  5
35A
  8
05
  6
CONTINUOUS
 62
     7
 10
122.219219
 20
10.259982000000001
 30
0.0
 11
122.65203200000001
 21
10.692795
 31
0.0
  0
LINE
  5
35B
  8
05
  6
CONTINUOUS
 62
     7
 10
120.551822
 20
8.2743870000000008
 30
0.0
 11
121.225094
 21
8.9476589999999998
 31
0.0
  0
LINE
  5
35C
  8
05
  6
CONTINUOUS
 62
     7
 10
122.526321
 20
10.248886000000001
 30
0.0
 11
122.96254500000001
 21
10.68511
 31
0.0
  0
LINE
  5
35D
  8
05
  6
CONTINUOUS
 62
     7
 10
120.844088
 20
8.2484549999999999
 30
0.0
 11
121.343872
 21
8.7482389999999999
 31
0.0
  0
LINE
  5
35E
  8
05
  6
CONTINUOUS
 62
     7
 10
122.81042100000001
 20
10.214788
 30
0.0
 11
123.266395
 21
10.670762
 31
0.0
  0
LINE
  5
35F
  8
05
  6
CONTINUOUS
 62
     7
 10
121.142312
 20
8.2284810000000004
 30
0.0
 11
121.58830399999999
 21
8.6744730000000008
 31
0.0
  0
LINE
  5
360
  8
05
  6
CONTINUOUS
 62
     7
 10
123.02599499999999
 20
10.112164
 30
0.0
 11
123.563973
 21
10.650142000000001
 31
0.0
  0
LINE
  5
361
  8
05
  6
CONTINUOUS
 62
     7
 10
121.44684700000001
 20
8.2148179999999993
 30
0.0
 11
121.883622
 21
8.6515930000000001
 31
0.0
  0
LINE
  5
362
  8
05
  6
CONTINUOUS
 62
     7
 10
123.196022
 20
9.9639930000000003
 30
0.0
 11
123.855628
 21
10.623599
 31
0.0
  0
LINE
  5
363
  8
05
  6
CONTINUOUS
 62
     7
 10
122.353782
 20
9.1217520000000007
 30
0.0
 11
122.533406
 21
9.3013759999999994
 31
0.0
  0
LINE
  5
364
  8
05
  6
CONTINUOUS
 62
     7
 10
121.75809
 20
8.2078620000000004
 30
0.0
 11
122.20483299999999
 21
8.6546050000000001
 31
0.0
  0
LINE
  5
365
  8
05
  6
CONTINUOUS
 62
     7
 10
123.51421999999999
 20
9.9639930000000003
 30
0.0
 11
124.141667
 21
10.59144
 31
0.0
  0
LINE
  5
366
  8
05
  6
CONTINUOUS
 62
     7
 10
122.62887600000001
 20
9.0786490000000004
 30
0.0
 11
122.85160399999999
 21
9.3013759999999994
 31
0.0
  0
LINE
  5
367
  8
05
  6
CONTINUOUS
 62
     7
 10
122.076493
 20
8.2080680000000008
 30
0.0
 11
122.560393
 21
8.6919669999999982
 31
0.0
  0
LINE
  5
368
  8
05
  6
CONTINUOUS
 62
     7
 10
123.832418
 20
9.9639930000000003
 30
0.0
 11
124.42236699999999
 21
10.553941
 31
0.0
  0
LINE
  5
369
  8
05
  6
CONTINUOUS
 62
     7
 10
122.947074
 20
9.0786490000000004
 30
0.0
 11
123.169802
 21
9.3013759999999994
 31
0.0
  0
LINE
  5
36A
  8
05
  6
CONTINUOUS
 62
     7
 10
122.402575
 20
8.2159519999999961
 30
0.0
 11
123.488
 21
9.3013759999999994
 31
0.0
  0
LINE
  5
36B
  8
05
  6
CONTINUOUS
 62
     7
 10
124.150616
 20
9.9639930000000003
 30
0.0
 11
124.63874199999999
 21
10.452118
 31
0.0
  0
LINE
  5
36C
  8
05
  6
CONTINUOUS
 62
     7
 10
122.736936
 20
8.2321150000000003
 30
0.0
 11
123.80619799999999
 21
9.3013759999999994
 31
0.0
  0
LINE
  5
36D
  8
05
  6
CONTINUOUS
 62
     7
 10
124.46881399999999
 20
9.9639930000000003
 30
0.0
 11
124.719549
 21
10.214727999999999
 31
0.0
  0
LINE
  5
36E
  8
05
  6
CONTINUOUS
 62
     7
 10
123.031972
 20
8.208952
 30
0.0
 11
124.124396
 21
9.3013759999999994
 31
0.0
  0
LINE
  5
36F
  8
05
  6
CONTINUOUS
 62
     7
 10
123.35017000000001
 20
8.208952
 30
0.0
 11
124.442594
 21
9.3013759999999994
 31
0.0
  0
LINE
  5
370
  8
05
  6
CONTINUOUS
 62
     7
 10
123.668368
 20
8.208952
 30
0.0
 11
124.51664700000001
 21
9.0572320000000008
 31
0.0
  0
LINE
  5
371
  8
05
  6
CONTINUOUS
 62
     7
 10
123.986566
 20
8.208952
 30
0.0
 11
124.44852899999999
 21
8.6709160000000001
 31
0.0
  0
LINE
  5
372
  8
05
  6
CONTINUOUS
 62
     7
 10
124.30476400000001
 20
8.208952
 30
0.0
 11
124.380411
 21
8.2845999999999975
 31
0.0
  0
LINE
  5
373
  8
05
  6
CONTINUOUS
 62
     7
 10
99.896145000000004
 20
8.208952
 30
0.0
 11
99.602536999999998
 21
8.5025600000000008
 31
0.0
  0
LINE
  5
374
  8
05
  6
CONTINUOUS
 62
     7
 10
98.177644000000015
 20
9.9274530000000016
 30
0.0
 11
97.412024999999986
 21
10.693072000000001
 31
0.0
  0
LINE
  5
375
  8
05
  6
CONTINUOUS
 62
     7
 10
98.969857000000005
 20
9.1352399999999996
 30
0.0
 11
98.679879000000014
 21
9.4252179999999992
 31
0.0
  0
LINE
  5
376
  8
05
  6
CONTINUOUS
 62
     7
 10
98.651658999999995
 20
9.1352399999999996
 30
0.0
 11
98.361681000000004
 21
9.4252179999999992
 31
0.0
  0
LINE
  5
377
  8
05
  6
CONTINUOUS
 62
     7
 10
98.119902999999994
 20
9.6669959999999993
 30
0.0
 11
97.093827000000005
 21
10.693072000000001
 31
0.0
  0
LINE
  5
378
  8
05
  6
CONTINUOUS
 62
     7
 10
98.333460999999986
 20
9.1352399999999996
 30
0.0
 11
96.775628999999995
 21
10.693072000000001
 31
0.0
  0
LINE
  5
379
  8
05
  6
CONTINUOUS
 62
     7
 10
98.015263000000004
 20
9.1352399999999996
 30
0.0
 11
96.606498000000016
 21
10.544005
 31
0.0
  0
LINE
  5
37A
  8
05
  6
CONTINUOUS
 62
     7
 10
97.946676999999994
 20
8.8856280000000005
 30
0.0
 11
96.548756999999995
 21
10.283548
 31
0.0
  0
LINE
  5
37B
  8
05
  6
CONTINUOUS
 62
     7
 10
97.888936000000015
 20
8.6251709999999981
 30
0.0
 11
96.491015000000004
 21
10.023092
 31
0.0
  0
LINE
  5
37C
  8
05
  6
CONTINUOUS
 62
     7
 10
96.046222000000014
 20
10.467885000000001
 30
0.0
 11
95.821034999999995
 21
10.693072000000001
 31
0.0
  0
LINE
  5
37D
  8
05
  6
CONTINUOUS
 62
     7
 10
97.831193999999996
 20
8.3647150000000003
 30
0.0
 11
96.433273000000014
 21
9.7626360000000005
 31
0.0
  0
LINE
  5
37E
  8
05
  6
CONTINUOUS
 62
     7
 10
95.988479999999996
 20
10.207428999999999
 30
0.0
 11
95.502836999999985
 21
10.693072000000001
 31
0.0
  0
LINE
  5
37F
  8
05
  6
CONTINUOUS
 62
     7
 10
97.668758000000011
 20
8.208952
 30
0.0
 11
96.375530999999995
 21
9.5021789999999982
 31
0.0
  0
LINE
  5
380
  8
05
  6
CONTINUOUS
 62
     7
 10
95.805668999999995
 20
10.072042
 30
0.0
 11
95.184639000000004
 21
10.693072000000001
 31
0.0
  0
LINE
  5
381
  8
05
  6
CONTINUOUS
 62
     7
 10
97.350560000000002
 20
8.208952
 30
0.0
 11
96.317789000000005
 21
9.2417230000000004
 31
0.0
  0
LINE
  5
382
  8
05
  6
CONTINUOUS
 62
     7
 10
95.487470999999985
 20
10.072042
 30
0.0
 11
94.866440999999995
 21
10.693072000000001
 31
0.0
  0
LINE
  5
383
  8
05
  6
CONTINUOUS
 62
     7
 10
97.032362000000006
 20
8.208952
 30
0.0
 11
96.260047999999998
 21
8.9812670000000008
 31
0.0
  0
LINE
  5
384
  8
05
  6
CONTINUOUS
 62
     7
 10
95.169273000000004
 20
10.072042
 30
0.0
 11
94.548243000000014
 21
10.693072000000001
 31
0.0
  0
LINE
  5
385
  8
05
  6
CONTINUOUS
 62
     7
 10
96.714163999999997
 20
8.208952
 30
0.0
 11
96.202305999999993
 21
8.7208109999999976
 31
0.0
  0
LINE
  5
386
  8
05
  6
CONTINUOUS
 62
     7
 10
94.851074999999994
 20
10.072042
 30
0.0
 11
94.230045000000004
 21
10.693072000000001
 31
0.0
  0
LINE
  5
387
  8
05
  6
CONTINUOUS
 62
     7
 10
96.395966000000001
 20
8.208952
 30
0.0
 11
96.144564000000017
 21
8.4603540000000006
 31
0.0
  0
LINE
  5
388
  8
05
  6
CONTINUOUS
 62
     7
 10
94.532876000000016
 20
10.072042
 30
0.0
 11
93.911846999999995
 21
10.693072000000001
 31
0.0
  0
LINE
  5
389
  8
05
  6
CONTINUOUS
 62
     7
 10
94.307651000000007
 20
9.9790700000000001
 30
0.0
 11
93.593647999999988
 21
10.693072000000001
 31
0.0
  0
LINE
  5
38A
  8
05
  6
CONTINUOUS
 62
     7
 10
94.249909000000002
 20
9.7186140000000005
 30
0.0
 11
93.275450000000006
 21
10.693072000000001
 31
0.0
  0
LINE
  5
38B
  8
05
  6
CONTINUOUS
 62
     7
 10
94.192166999999969
 20
9.4581569999999981
 30
0.0
 11
92.957251999999997
 21
10.693072000000001
 31
0.0
  0
LINE
  5
38C
  8
05
  6
CONTINUOUS
 62
     7
 10
94.134424999999993
 20
9.1977010000000003
 30
0.0
 11
92.639054000000002
 21
10.693072000000001
 31
0.0
  0
LINE
  5
38D
  8
05
  6
CONTINUOUS
 62
     7
 10
94.076683000000003
 20
8.9372450000000008
 30
0.0
 11
92.320856000000006
 21
10.693072000000001
 31
0.0
  0
LINE
  5
38E
  8
05
  6
CONTINUOUS
 62
     7
 10
94.018941999999996
 20
8.6767880000000002
 30
0.0
 11
92.002657999999997
 21
10.693072000000001
 31
0.0
  0
LINE
  5
38F
  8
05
  6
CONTINUOUS
 62
     7
 10
93.961200000000005
 20
8.4163320000000006
 30
0.0
 11
92.563278999999994
 21
9.8142530000000008
 31
0.0
  0
LINE
  5
390
  8
05
  6
CONTINUOUS
 62
     7
 10
92.305490000000006
 20
10.072042
 30
0.0
 11
91.684460000000016
 21
10.693072000000001
 31
0.0
  0
LINE
  5
391
  8
05
  6
CONTINUOUS
 62
     7
 10
93.850381999999996
 20
8.208952
 30
0.0
 11
92.505537000000004
 21
9.5537969999999994
 31
0.0
  0
LINE
  5
392
  8
05
  6
CONTINUOUS
 62
     7
 10
91.987291999999997
 20
10.072042
 30
0.0
 11
91.366262000000006
 21
10.693072000000001
 31
0.0
  0
LINE
  5
393
  8
05
  6
CONTINUOUS
 62
     7
 10
93.532184000000015
 20
8.208952
 30
0.0
 11
92.447795999999997
 21
9.2933400000000006
 31
0.0
  0
LINE
  5
394
  8
05
  6
CONTINUOUS
 62
     7
 10
91.669093999999987
 20
10.072042
 30
0.0
 11
91.176958999999997
 21
10.564177000000001
 31
0.0
  0
LINE
  5
395
  8
05
  6
CONTINUOUS
 62
     7
 10
93.213986000000006
 20
8.208952
 30
0.0
 11
92.390054000000006
 21
9.0328839999999992
 31
0.0
  0
LINE
  5
396
  8
05
  6
CONTINUOUS
 62
     7
 10
90.749267000000003
 20
10.673671000000001
 30
0.0
 11
90.729866000000001
 21
10.693072000000001
 31
0.0
  0
LINE
  5
397
  8
05
  6
CONTINUOUS
 62
     7
 10
91.350896000000006
 20
10.072042
 30
0.0
 11
91.119217000000006
 21
10.303720999999999
 31
0.0
  0
LINE
  5
398
  8
05
  6
CONTINUOUS
 62
     7
 10
92.895787999999996
 20
8.208952
 30
0.0
 11
92.332312000000002
 21
8.7724279999999961
 31
0.0
  0
LINE
  5
399
  8
05
  6
CONTINUOUS
 62
     7
 10
90.691524999999984
 20
10.413214
 30
0.0
 11
90.411668000000006
 21
10.693072000000001
 31
0.0
  0
LINE
  5
39A
  8
05
  6
CONTINUOUS
 62
     7
 10
92.577590000000001
 20
8.208952
 30
0.0
 11
92.274569999999997
 21
8.5119710000000008
 31
0.0
  0
LINE
  5
39B
  8
05
  6
CONTINUOUS
 62
     7
 10
90.633784000000006
 20
10.152758
 30
0.0
 11
90.093469999999996
 21
10.693072000000001
 31
0.0
  0
LINE
  5
39C
  8
05
  6
CONTINUOUS
 62
     7
 10
92.259392000000005
 20
8.208952
 30
0.0
 11
92.216829000000004
 21
8.2515149999999977
 31
0.0
  0
LINE
  5
39D
  8
05
  6
CONTINUOUS
 62
     7
 10
90.576042000000001
 20
9.8923020000000008
 30
0.0
 11
89.775272000000001
 21
10.693072000000001
 31
0.0
  0
LINE
  5
39E
  8
05
  6
CONTINUOUS
 62
     7
 10
90.518299999999996
 20
9.6318459999999995
 30
0.0
 11
89.457074000000006
 21
10.693072000000001
 31
0.0
  0
LINE
  5
39F
  8
05
  6
CONTINUOUS
 62
     7
 10
90.460558000000006
 20
9.3713890000000006
 30
0.0
 11
89.138875999999982
 21
10.693072000000001
 31
0.0
  0
LINE
  5
3A0
  8
05
  6
CONTINUOUS
 62
     7
 10
90.402816999999985
 20
9.1109329999999993
 30
0.0
 11
89.008427999999967
 21
10.505322
 31
0.0
  0
LINE
  5
3A1
  8
05
  6
CONTINUOUS
 62
     7
 10
90.345074999999994
 20
8.8504769999999962
 30
0.0
 11
88.950686000000005
 21
10.244865000000001
 31
0.0
  0
LINE
  5
3A2
  8
05
  6
CONTINUOUS
 62
     7
 10
90.213808000000014
 20
8.6635449999999992
 30
0.0
 11
88.892944999999983
 21
9.9844089999999994
 31
0.0
  0
LINE
  5
3A3
  8
05
  6
CONTINUOUS
 62
     7
 10
90.017448000000002
 20
8.5417070000000006
 30
0.0
 11
88.835203000000007
 21
9.7239529999999998
 31
0.0
  0
LINE
  5
3A4
  8
05
  6
CONTINUOUS
 62
     7
 10
89.802651999999981
 20
8.4383049999999962
 30
0.0
 11
88.777461000000017
 21
9.4634959999999992
 31
0.0
  0
LINE
  5
3A5
  8
05
  6
CONTINUOUS
 62
     7
 10
89.567172999999997
 20
8.3555860000000006
 30
0.0
 11
88.719718999999998
 21
9.2030399999999997
 31
0.0
  0
LINE
  5
3A6
  8
05
  6
CONTINUOUS
 62
     7
 10
89.315183000000005
 20
8.2893790000000003
 30
0.0
 11
88.618712000000016
 21
8.9858499999999992
 31
0.0
  0
LINE
  5
3A7
  8
05
  6
CONTINUOUS
 62
     7
 10
87.118618999999981
 20
10.485943000000001
 30
0.0
 11
86.911488999999989
 21
10.693072000000001
 31
0.0
  0
LINE
  5
3A8
  8
05
  6
CONTINUOUS
 62
     7
 10
89.051143999999979
 20
8.2352190000000007
 30
0.0
 11
88.422175999999965
 21
8.8641880000000004
 31
0.0
  0
LINE
  5
3A9
  8
05
  6
CONTINUOUS
 62
     7
 10
87.060877000000005
 20
10.225486
 30
0.0
 11
86.593290999999994
 21
10.693072000000001
 31
0.0
  0
LINE
  5
3AA
  8
05
  6
CONTINUOUS
 62
     7
 10
88.773669999999967
 20
8.1944949999999999
 30
0.0
 11
88.177403999999981
 21
8.7907609999999998
 31
0.0
  0
LINE
  5
3AB
  8
05
  6
CONTINUOUS
 62
     7
 10
87.003135
 20
9.9650300000000005
 30
0.0
 11
86.275092999999984
 21
10.693072000000001
 31
0.0
  0
LINE
  5
3AC
  8
05
  6
CONTINUOUS
 62
     7
 10
88.485181999999995
 20
8.1647850000000002
 30
0.0
 11
87.893834999999967
 21
8.7561319999999991
 31
0.0
  0
LINE
  5
3AD
  8
05
  6
CONTINUOUS
 62
     7
 10
86.945392999999981
 20
9.7045739999999991
 30
0.0
 11
85.956895000000003
 21
10.693072000000001
 31
0.0
  0
LINE
  5
3AE
  8
05
  6
CONTINUOUS
 62
     7
 10
88.187779000000006
 20
8.1439900000000005
 30
0.0
 11
87.571275000000014
 21
8.7604950000000006
 31
0.0
  0
LINE
  5
3AF
  8
05
  6
CONTINUOUS
 62
     7
 10
86.887652000000003
 20
9.4441170000000003
 30
0.0
 11
85.638696999999965
 21
10.693072000000001
 31
0.0
  0
LINE
  5
3B0
  8
05
  6
CONTINUOUS
 62
     7
 10
87.880650000000017
 20
8.1329209999999978
 30
0.0
 11
87.176649999999981
 21
8.8369210000000002
 31
0.0
  0
LINE
  5
3B1
  8
05
  6
CONTINUOUS
 62
     7
 10
86.829909999999984
 20
9.1836610000000007
 30
0.0
 11
85.435509999999994
 21
10.578061
 31
0.0
  0
LINE
  5
3B2
  8
05
  6
CONTINUOUS
 62
     7
 10
87.562816999999981
 20
8.1325559999999992
 30
0.0
 11
85.377768000000003
 21
10.317605
 31
0.0
  0
LINE
  5
3B3
  8
05
  6
CONTINUOUS
 62
     7
 10
87.233074000000016
 20
8.1441009999999991
 30
0.0
 11
85.320025999999999
 21
10.057149000000001
 31
0.0
  0
LINE
  5
3B4
  8
05
  6
CONTINUOUS
 62
     7
 10
84.684607999999983
 20
10.692567
 30
0.0
 11
84.684102999999979
 21
10.693072000000001
 31
0.0
  0
LINE
  5
3B5
  8
05
  6
CONTINUOUS
 62
     7
 10
86.889919000000006
 20
8.1690579999999962
 30
0.0
 11
85.262283999999994
 21
9.7966920000000002
 31
0.0
  0
LINE
  5
3B6
  8
05
  6
CONTINUOUS
 62
     7
 10
84.626866000000007
 20
10.432111000000001
 30
0.0
 11
84.365904999999984
 21
10.693072000000001
 31
0.0
  0
LINE
  5
3B7
  8
05
  6
CONTINUOUS
 62
     7
 10
86.530904000000007
 20
8.2098750000000003
 30
0.0
 11
85.204543000000001
 21
9.5362360000000006
 31
0.0
  0
LINE
  5
3B8
  8
05
  6
CONTINUOUS
 62
     7
 10
84.487684999999985
 20
10.253094000000001
 30
0.0
 11
84.047707000000003
 21
10.693072000000001
 31
0.0
  0
LINE
  5
3B9
  8
05
  6
CONTINUOUS
 62
     7
 10
86.140832000000003
 20
8.2817489999999978
 30
0.0
 11
85.146800999999968
 21
9.2757799999999992
 31
0.0
  0
LINE
  5
3BA
  8
05
  6
CONTINUOUS
 62
     7
 10
84.169487000000004
 20
10.253094000000001
 30
0.0
 11
83.729508999999965
 21
10.693072000000001
 31
0.0
  0
LINE
  5
3BB
  8
05
  6
CONTINUOUS
 62
     7
 10
85.695959000000016
 20
8.4084240000000001
 30
0.0
 11
85.089059000000006
 21
9.0153239999999997
 31
0.0
  0
LINE
  5
3BC
  8
05
  6
CONTINUOUS
 62
     7
 10
83.851288999999966
 20
10.253094000000001
 30
0.0
 11
83.411310999999998
 21
10.693072000000001
 31
0.0
  0
LINE
  5
3BD
  8
05
  6
CONTINUOUS
 62
     7
 10
84.205273000000005
 20
9.5809110000000004
 30
0.0
 11
84.190183000000005
 21
9.5960009999999993
 31
0.0
  0
LINE
  5
3BE
  8
05
  6
CONTINUOUS
 62
     7
 10
83.533090999999999
 20
10.253094000000001
 30
0.0
 11
83.093113000000002
 21
10.693072000000001
 31
0.0
  0
LINE
  5
3BF
  8
05
  6
CONTINUOUS
 62
     7
 10
84.147531999999984
 20
9.3204550000000008
 30
0.0
 11
83.871984999999981
 21
9.5960009999999993
 31
0.0
  0
LINE
  5
3C0
  8
05
  6
CONTINUOUS
 62
     7
 10
83.214893000000004
 20
10.253094000000001
 30
0.0
 11
82.774914999999979
 21
10.693072000000001
 31
0.0
  0
LINE
  5
3C1
  8
05
  6
CONTINUOUS
 62
     7
 10
83.843766000000016
 20
9.3060229999999997
 30
0.0
 11
83.553787000000014
 21
9.5960009999999993
 31
0.0
  0
LINE
  5
3C2
  8
05
  6
CONTINUOUS
 62
     7
 10
82.89669499999998
 20
10.253094000000001
 30
0.0
 11
82.456716999999998
 21
10.693072000000001
 31
0.0
  0
LINE
  5
3C3
  8
05
  6
CONTINUOUS
 62
     7
 10
84.222673999999998
 20
8.6089169999999982
 30
0.0
 11
84.182659999999998
 21
8.6489309999999993
 31
0.0
  0
LINE
  5
3C4
  8
05
  6
CONTINUOUS
 62
     7
 10
82.578496999999984
 20
10.253094000000001
 30
0.0
 11
82.138518999999988
 21
10.693072000000001
 31
0.0
  0
LINE
  5
3C5
  8
05
  6
CONTINUOUS
 62
     7
 10
83.525568000000007
 20
9.3060229999999997
 30
0.0
 11
83.235589000000004
 21
9.5960009999999993
 31
0.0
  0
LINE
  5
3C6
  8
05
  6
CONTINUOUS
 62
     7
 10
84.164931999999965
 20
8.3484610000000004
 30
0.0
 11
83.864461999999989
 21
8.6489309999999993
 31
0.0
  0
LINE
  5
3C7
  8
05
  6
CONTINUOUS
 62
     7
 10
82.260299000000003
 20
10.253094000000001
 30
0.0
 11
81.820321000000007
 21
10.693072000000001
 31
0.0
  0
LINE
  5
3C8
  8
05
  6
CONTINUOUS
 62
     7
 10
83.207369999999983
 20
9.3060229999999997
 30
0.0
 11
82.917390999999995
 21
9.5960009999999993
 31
0.0
  0
LINE
  5
3C9
  8
05
  6
CONTINUOUS
 62
     7
 10
83.986242000000004
 20
8.208952
 30
0.0
 11
83.546263999999994
 21
8.6489309999999993
 31
0.0
  0
LINE
  5
3CA
  8
05
  6
CONTINUOUS
 62
     7
 10
81.942100999999965
 20
10.253094000000001
 30
0.0
 11
81.502122999999969
 21
10.693072000000001
 31
0.0
  0
LINE
  5
3CB
  8
05
  6
CONTINUOUS
 62
     7
 10
82.889172000000002
 20
9.3060229999999997
 30
0.0
 11
82.599192999999985
 21
9.5960009999999993
 31
0.0
  0
LINE
  5
3CC
  8
05
  6
CONTINUOUS
 62
     7
 10
83.668043999999966
 20
8.208952
 30
0.0
 11
83.228065999999984
 21
8.6489309999999993
 31
0.0
  0
LINE
  5
3CD
  8
05
  6
CONTINUOUS
 62
     7
 10
81.63485799999998
 20
10.242138000000001
 30
0.0
 11
81.183924000000005
 21
10.693072000000001
 31
0.0
  0
LINE
  5
3CE
  8
05
  6
CONTINUOUS
 62
     7
 10
82.570974000000007
 20
9.3060229999999997
 30
0.0
 11
82.280995000000004
 21
9.5960009999999993
 31
0.0
  0
LINE
  5
3CF
  8
05
  6
CONTINUOUS
 62
     7
 10
83.349845999999999
 20
8.208952
 30
0.0
 11
82.909868000000003
 21
8.6489309999999993
 31
0.0
  0
LINE
  5
3D0
  8
05
  6
CONTINUOUS
 62
     7
 10
81.577116000000004
 20
9.9816819999999993
 30
0.0
 11
80.865725999999981
 21
10.693072000000001
 31
0.0
  0
LINE
  5
3D1
  8
05
  6
CONTINUOUS
 62
     7
 10
82.252775
 20
9.3060229999999997
 30
0.0
 11
81.962796999999981
 21
9.5960009999999993
 31
0.0
  0
LINE
  5
3D2
  8
05
  6
CONTINUOUS
 62
     7
 10
83.031648000000004
 20
8.208952
 30
0.0
 11
82.591669999999965
 21
8.6489309999999993
 31
0.0
  0
LINE
  5
3D3
  8
05
  6
CONTINUOUS
 62
     7
 10
81.519373999999985
 20
9.7212259999999997
 30
0.0
 11
80.547528000000014
 21
10.693072000000001
 31
0.0
  0
LINE
  5
3D4
  8
05
  6
CONTINUOUS
 62
     7
 10
81.934577000000004
 20
9.3060229999999997
 30
0.0
 11
81.644598999999999
 21
9.5960009999999993
 31
0.0
  0
LINE
  5
3D5
  8
05
  6
CONTINUOUS
 62
     7
 10
82.71344999999998
 20
8.208952
 30
0.0
 11
82.273471999999998
 21
8.6489309999999993
 31
0.0
  0
LINE
  5
3D6
  8
05
  6
CONTINUOUS
 62
     7
 10
81.616378999999981
 20
9.3060229999999997
 30
0.0
 11
80.229330000000004
 21
10.693072000000001
 31
0.0
  0
LINE
  5
3D7
  8
05
  6
CONTINUOUS
 62
     7
 10
82.395251999999999
 20
8.208952
 30
0.0
 11
81.955274000000017
 21
8.6489309999999993
 31
0.0
  0
LINE
  5
3D8
  8
05
  6
CONTINUOUS
 62
     7
 10
81.403891000000002
 20
9.2003129999999995
 30
0.0
 11
80.005970000000005
 21
10.598234
 31
0.0
  0
LINE
  5
3D9
  8
05
  6
CONTINUOUS
 62
     7
 10
82.077054000000004
 20
8.208952
 30
0.0
 11
81.637074999999996
 21
8.6489309999999993
 31
0.0
  0
LINE
  5
3DA
  8
05
  6
CONTINUOUS
 62
     7
 10
81.346148999999983
 20
8.9398569999999982
 30
0.0
 11
79.948228
 21
10.337778
 31
0.0
  0
LINE
  5
3DB
  8
05
  6
CONTINUOUS
 62
     7
 10
81.758855999999994
 20
8.208952
 30
0.0
 11
81.318877000000001
 21
8.6489309999999993
 31
0.0
  0
LINE
  5
3DC
  8
05
  6
CONTINUOUS
 62
     7
 10
81.288407000000007
 20
8.6794010000000004
 30
0.0
 11
79.890486999999965
 21
10.077322000000001
 31
0.0
  0
LINE
  5
3DD
  8
05
  6
CONTINUOUS
 62
     7
 10
81.440657999999985
 20
8.208952
 30
0.0
 11
79.832745000000003
 21
9.8168649999999982
 31
0.0
  0
LINE
  5
3DE
  8
05
  6
CONTINUOUS
 62
     7
 10
79.133784000000006
 20
10.515826000000001
 30
0.0
 11
78.956537999999981
 21
10.693072000000001
 31
0.0
  0
LINE
  5
3DF
  8
05
  6
CONTINUOUS
 62
     7
 10
81.122460000000004
 20
8.208952
 30
0.0
 11
79.775002999999984
 21
9.5564090000000004
 31
0.0
  0
LINE
  5
3E0
  8
05
  6
CONTINUOUS
 62
     7
 10
79.076042999999999
 20
10.255369
 30
0.0
 11
78.638339999999999
 21
10.693072000000001
 31
0.0
  0
LINE
  5
3E1
  8
05
  6
CONTINUOUS
 62
     7
 10
80.80426199999998
 20
8.208952
 30
0.0
 11
79.717260999999965
 21
9.2959530000000008
 31
0.0
  0
LINE
  5
3E2
  8
05
  6
CONTINUOUS
 62
     7
 10
79.018300999999965
 20
9.9949130000000004
 30
0.0
 11
78.320142000000004
 21
10.693072000000001
 31
0.0
  0
LINE
  5
3E3
  8
05
  6
CONTINUOUS
 62
     7
 10
80.486063999999999
 20
8.208952
 30
0.0
 11
79.659520000000001
 21
9.0354960000000002
 31
0.0
  0
LINE
  5
3E4
  8
05
  6
CONTINUOUS
 62
     7
 10
78.960559000000003
 20
9.7344570000000008
 30
0.0
 11
78.00194399999998
 21
10.693072000000001
 31
0.0
  0
LINE
  5
3E5
  8
05
  6
CONTINUOUS
 62
     7
 10
80.167866000000004
 20
8.208952
 30
0.0
 11
79.601777999999982
 21
8.7750400000000006
 31
0.0
  0
LINE
  5
3E6
  8
05
  6
CONTINUOUS
 62
     7
 10
78.902816999999999
 20
9.4740000000000002
 30
0.0
 11
77.683745999999999
 21
10.693072000000001
 31
0.0
  0
LINE
  5
3E7
  8
05
  6
CONTINUOUS
 62
     7
 10
79.84966799999998
 20
8.208952
 30
0.0
 11
79.544036000000006
 21
8.5145839999999993
 31
0.0
  0
LINE
  5
3E8
  8
05
  6
CONTINUOUS
 62
     7
 10
78.845076000000006
 20
9.2135440000000006
 30
0.0
 11
77.447154999999981
 21
10.611465000000001
 31
0.0
  0
LINE
  5
3E9
  8
05
  6
CONTINUOUS
 62
     7
 10
79.531469999999999
 20
8.208952
 30
0.0
 11
79.486294000000001
 21
8.2541279999999961
 31
0.0
  0
LINE
  5
3EA
  8
05
  6
CONTINUOUS
 62
     7
 10
78.787334000000001
 20
8.9530879999999993
 30
0.0
 11
77.389413000000005
 21
10.351008999999999
 31
0.0
  0
LINE
  5
3EB
  8
05
  6
CONTINUOUS
 62
     7
 10
78.729591999999982
 20
8.6926319999999961
 30
0.0
 11
77.331671
 21
10.090552000000001
 31
0.0
  0
LINE
  5
3EC
  8
05
  6
CONTINUOUS
 62
     7
 10
78.671850000000006
 20
8.4321750000000009
 30
0.0
 11
77.273929999999979
 21
9.8300959999999993
 31
0.0
  0
LINE
  5
3ED
  8
05
  6
CONTINUOUS
 62
     7
 10
78.576875000000001
 20
8.208952
 30
0.0
 11
77.073303999999979
 21
9.7125240000000002
 31
0.0
  0
LINE
  5
3EE
  8
05
  6
CONTINUOUS
 62
     7
 10
78.258677000000006
 20
8.208952
 30
0.0
 11
75.999582000000004
 21
10.468047
 31
0.0
  0
LINE
  5
3EF
  8
05
  6
CONTINUOUS
 62
     7
 10
77.940478999999982
 20
8.208952
 30
0.0
 11
75.456360000000004
 21
10.693072000000001
 31
0.0
  0
LINE
  5
3F0
  8
05
  6
CONTINUOUS
 62
     7
 10
77.622281000000001
 20
8.208952
 30
0.0
 11
75.138160999999982
 21
10.693072000000001
 31
0.0
  0
LINE
  5
3F1
  8
05
  6
CONTINUOUS
 62
     7
 10
77.304083000000006
 20
8.208952
 30
0.0
 11
74.819963000000001
 21
10.693072000000001
 31
0.0
  0
LINE
  5
3F2
  8
05
  6
CONTINUOUS
 62
     7
 10
76.985884999999982
 20
8.208952
 30
0.0
 11
74.501765000000006
 21
10.693072000000001
 31
0.0
  0
LINE
  5
3F3
  8
05
  6
CONTINUOUS
 62
     7
 10
76.542665
 20
8.3339750000000006
 30
0.0
 11
74.183566999999982
 21
10.693072000000001
 31
0.0
  0
LINE
  5
3F4
  8
05
  6
CONTINUOUS
 62
     7
 10
75.096365000000006
 20
9.4620759999999997
 30
0.0
 11
73.865369000000001
 21
10.693072000000001
 31
0.0
  0
LINE
  5
3F5
  8
05
  6
CONTINUOUS
 62
     7
 10
75.038623999999999
 20
9.2016200000000001
 30
0.0
 11
73.640703000000002
 21
10.599539999999999
 31
0.0
  0
LINE
  5
3F6
  8
05
  6
CONTINUOUS
 62
     7
 10
74.980881999999966
 20
8.9411629999999978
 30
0.0
 11
73.582960999999983
 21
10.339084
 31
0.0
  0
LINE
  5
3F7
  8
05
  6
CONTINUOUS
 62
     7
 10
74.923140000000004
 20
8.6807069999999982
 30
0.0
 11
73.525219000000007
 21
10.078628
 31
0.0
  0
LINE
  5
3F8
  8
05
  6
CONTINUOUS
 62
     7
 10
74.865397999999999
 20
8.4202510000000004
 30
0.0
 11
73.467478
 21
9.8181709999999995
 31
0.0
  0
LINE
  5
3F9
  8
05
  6
CONTINUOUS
 62
     7
 10
74.758499
 20
8.208952
 30
0.0
 11
73.409735999999981
 21
9.5577149999999982
 31
0.0
  0
LINE
  5
3FA
  8
05
  6
CONTINUOUS
 62
     7
 10
74.440301000000005
 20
8.208952
 30
0.0
 11
73.351994000000005
 21
9.2972590000000004
 31
0.0
  0
LINE
  5
3FB
  8
05
  6
CONTINUOUS
 62
     7
 10
74.122102999999981
 20
8.208952
 30
0.0
 11
73.294252
 21
9.0368030000000008
 31
0.0
  0
LINE
  5
3FC
  8
05
  6
CONTINUOUS
 62
     7
 10
73.803905
 20
8.208952
 30
0.0
 11
73.236510999999979
 21
8.7763460000000002
 31
0.0
  0
LINE
  5
3FD
  8
05
  6
CONTINUOUS
 62
     7
 10
73.485707000000005
 20
8.208952
 30
0.0
 11
73.178769000000003
 21
8.5158900000000006
 31
0.0
  0
LINE
  5
3FE
  8
05
  6
CONTINUOUS
 62
     7
 10
73.167507999999998
 20
8.208952
 30
0.0
 11
73.121026999999998
 21
8.2554339999999993
 31
0.0
  0
LINE
  5
3FF
  8
05
  6
CONTINUOUS
 62
     7
 10
100.214343
 20
8.208952
 30
0.0
 11
99.622995000000003
 21
8.8003
 31
0.0
  0
LINE
  5
400
  8
05
  6
CONTINUOUS
 62
     7
 10
98.235386000000005
 20
10.187908999999999
 30
0.0
 11
97.730222999999995
 21
10.693072000000001
 31
0.0
  0
LINE
  5
401
  8
05
  6
CONTINUOUS
 62
     7
 10
99.288055000000014
 20
9.1352399999999996
 30
0.0
 11
98.998076999999995
 21
9.4252179999999992
 31
0.0
  0
LINE
  5
402
  8
05
  6
CONTINUOUS
 62
     7
 10
100.53254099999999
 20
8.208952
 30
0.0
 11
99.316275000000005
 21
9.4252179999999992
 31
0.0
  0
LINE
  5
403
  8
05
  6
CONTINUOUS
 62
     7
 10
98.488400000000027
 20
10.253094000000001
 30
0.0
 11
98.048421000000005
 21
10.693072000000001
 31
0.0
  0
LINE
  5
404
  8
05
  6
CONTINUOUS
 62
     7
 10
100.850739
 20
8.208952
 30
0.0
 11
99.586540999999997
 21
9.4731500000000004
 31
0.0
  0
LINE
  5
405
  8
05
  6
CONTINUOUS
 62
     7
 10
98.806597999999994
 20
10.253094000000001
 30
0.0
 11
98.366619000000014
 21
10.693072000000001
 31
0.0
  0
LINE
  5
406
  8
05
  6
CONTINUOUS
 62
     7
 10
101.168937
 20
8.208952
 30
0.0
 11
99.789564999999996
 21
9.5883249999999993
 31
0.0
  0
LINE
  5
407
  8
05
  6
CONTINUOUS
 62
     7
 10
99.124796000000003
 20
10.253094000000001
 30
0.0
 11
98.684816999999995
 21
10.693072000000001
 31
0.0
  0
LINE
  5
408
  8
05
  6
CONTINUOUS
 62
     7
 10
101.31142199999999
 20
8.384665
 30
0.0
 11
99.927684000000013
 21
9.7684040000000003
 31
0.0
  0
LINE
  5
409
  8
05
  6
CONTINUOUS
 62
     7
 10
99.442994000000013
 20
10.253094000000001
 30
0.0
 11
99.003015000000005
 21
10.693072000000001
 31
0.0
  0
LINE
  5
40A
  8
05
  6
CONTINUOUS
 62
     7
 10
101.323639
 20
8.6906470000000002
 30
0.0
 11
99.914671000000013
 21
10.099614000000001
 31
0.0
  0
LINE
  5
40B
  8
05
  6
CONTINUOUS
 62
     7
 10
99.791614999999993
 20
10.222670000000001
 30
0.0
 11
99.321213
 21
10.693072000000001
 31
0.0
  0
LINE
  5
40C
  8
05
  6
CONTINUOUS
 62
     7
 10
101.344435
 20
8.9880479999999991
 30
0.0
 11
99.639410999999996
 21
10.693072000000001
 31
0.0
  0
LINE
  5
40D
  8
05
  6
CONTINUOUS
 62
     7
 10
102.441729
 20
8.208952
 30
0.0
 11
102.19792200000001
 21
8.4527590000000004
 31
0.0
  0
LINE
  5
40E
  8
05
  6
CONTINUOUS
 62
     7
 10
101.286615
 20
9.3640659999999993
 30
0.0
 11
99.957610000000017
 21
10.693072000000001
 31
0.0
  0
LINE
  5
40F
  8
05
  6
CONTINUOUS
 62
     7
 10
102.759927
 20
8.208952
 30
0.0
 11
102.255664
 21
8.7132159999999992
 31
0.0
  0
LINE
  5
410
  8
05
  6
CONTINUOUS
 62
     7
 10
101.4817
 20
9.4871789999999994
 30
0.0
 11
100.275808
 21
10.693072000000001
 31
0.0
  0
LINE
  5
411
  8
05
  6
CONTINUOUS
 62
     7
 10
103.078125
 20
8.208952
 30
0.0
 11
102.313406
 21
8.9736720000000005
 31
0.0
  0
LINE
  5
412
  8
05
  6
CONTINUOUS
 62
     7
 10
101.65028599999999
 20
9.6367910000000006
 30
0.0
 11
100.59400599999999
 21
10.693072000000001
 31
0.0
  0
LINE
  5
413
  8
05
  6
CONTINUOUS
 62
     7
 10
103.396323
 20
8.208952
 30
0.0
 11
102.37114800000001
 21
9.2341280000000001
 31
0.0
  0
LINE
  5
414
  8
05
  6
CONTINUOUS
 62
     7
 10
101.785346
 20
9.8199299999999994
 30
0.0
 11
100.912204
 21
10.693072000000001
 31
0.0
  0
LINE
  5
415
  8
05
  6
CONTINUOUS
 62
     7
 10
103.714521
 20
8.208952
 30
0.0
 11
102.428889
 21
9.4945839999999997
 31
0.0
  0
LINE
  5
416
  8
05
  6
CONTINUOUS
 62
     7
 10
101.870902
 20
10.052571
 30
0.0
 11
101.25542799999999
 21
10.668046
 31
0.0
  0
LINE
  5
417
  8
05
  6
CONTINUOUS
 62
     7
 10
103.884552
 20
8.3571200000000001
 30
0.0
 11
102.486631
 21
9.7550410000000003
 31
0.0
  0
LINE
  5
418
  8
05
  6
CONTINUOUS
 62
     7
 10
103.942294
 20
8.6175759999999961
 30
0.0
 11
102.54437299999999
 21
10.015497
 31
0.0
  0
LINE
  5
419
  8
05
  6
CONTINUOUS
 62
     7
 10
104.000035
 20
8.8780330000000003
 30
0.0
 11
102.602115
 21
10.275952999999999
 31
0.0
  0
LINE
  5
41A
  8
05
  6
CONTINUOUS
 62
     7
 10
104.987314
 20
8.208952
 30
0.0
 11
104.883821
 21
8.3124450000000003
 31
0.0
  0
LINE
  5
41B
  8
05
  6
CONTINUOUS
 62
     7
 10
104.057777
 20
9.1384890000000016
 30
0.0
 11
102.659856
 21
10.53641
 31
0.0
  0
LINE
  5
41C
  8
05
  6
CONTINUOUS
 62
     7
 10
105.30551199999999
 20
8.208952
 30
0.0
 11
104.941563
 21
8.5729009999999999
 31
0.0
  0
LINE
  5
41D
  8
05
  6
CONTINUOUS
 62
     7
 10
104.11551900000001
 20
9.3989449999999994
 30
0.0
 11
102.821392
 21
10.693072000000001
 31
0.0
  0
LINE
  5
41E
  8
05
  6
CONTINUOUS
 62
     7
 10
105.62371
 20
8.208952
 30
0.0
 11
104.99930500000001
 21
8.8333569999999977
 31
0.0
  0
LINE
  5
41F
  8
05
  6
CONTINUOUS
 62
     7
 10
104.173261
 20
9.6594010000000008
 30
0.0
 11
103.13959
 21
10.693072000000001
 31
0.0
  0
LINE
  5
420
  8
05
  6
CONTINUOUS
 62
     7
 10
105.941908
 20
8.208952
 30
0.0
 11
105.057046
 21
9.0938140000000001
 31
0.0
  0
LINE
  5
421
  8
05
  6
CONTINUOUS
 62
     7
 10
104.231002
 20
9.9198579999999996
 30
0.0
 11
103.45778799999999
 21
10.693072000000001
 31
0.0
  0
LINE
  5
422
  8
05
  6
CONTINUOUS
 62
     7
 10
106.26010599999999
 20
8.208952
 30
0.0
 11
105.114788
 21
9.3542699999999996
 31
0.0
  0
LINE
  5
423
  8
05
  6
CONTINUOUS
 62
     7
 10
104.28874399999999
 20
10.180313999999999
 30
0.0
 11
103.775986
 21
10.693072000000001
 31
0.0
  0
LINE
  5
424
  8
05
  6
CONTINUOUS
 62
     7
 10
106.50690899999999
 20
8.2803470000000008
 30
0.0
 11
105.17252999999999
 21
9.6147259999999992
 31
0.0
  0
LINE
  5
425
  8
05
  6
CONTINUOUS
 62
     7
 10
104.346486
 20
10.440770000000001
 30
0.0
 11
104.094184
 21
10.693072000000001
 31
0.0
  0
LINE
  5
426
  8
05
  6
CONTINUOUS
 62
     7
 10
106.564651
 20
8.5408039999999978
 30
0.0
 11
105.230272
 21
9.8751820000000006
 31
0.0
  0
LINE
  5
427
  8
05
  6
CONTINUOUS
 62
     7
 10
106.622392
 20
8.8012599999999992
 30
0.0
 11
105.288014
 21
10.135638999999999
 31
0.0
  0
LINE
  5
428
  8
05
  6
CONTINUOUS
 62
     7
 10
106.827275
 20
8.9145760000000003
 30
0.0
 11
105.345755
 21
10.396095000000001
 31
0.0
  0
LINE
  5
429
  8
05
  6
CONTINUOUS
 62
     7
 10
107.05039499999999
 20
9.0096539999999994
 30
0.0
 11
105.403497
 21
10.656551
 31
0.0
  0
LINE
  5
42A
  8
05
  6
CONTINUOUS
 62
     7
 10
107.27351400000001
 20
9.1047320000000003
 30
0.0
 11
105.685174
 21
10.693072000000001
 31
0.0
  0
LINE
  5
42B
  8
05
  6
CONTINUOUS
 62
     7
 10
108.487492
 20
8.208952
 30
0.0
 11
106.003372
 21
10.693072000000001
 31
0.0
  0
LINE
  5
42C
  8
05
  6
CONTINUOUS
 62
     7
 10
108.8056899999999
 20
8.208952
 30
0.0
 11
107.07027600000001
 21
9.9443669999999997
 31
0.0
  0
LINE
  5
42D
  8
05
  6
CONTINUOUS
 62
     7
 10
106.911101
 20
10.103541
 30
0.0
 11
106.32157100000001
 21
10.693072000000001
 31
0.0
  0
LINE
  5
42E
  8
05
  6
CONTINUOUS
 62
     7
 10
109.12388799999999
 20
8.208952
 30
0.0
 11
107.293395
 21
10.039445000000001
 31
0.0
  0
LINE
  5
42F
  8
05
  6
CONTINUOUS
 62
     7
 10
106.96884300000001
 20
10.363998
 30
0.0
 11
106.639769
 21
10.693072000000001
 31
0.0
  0
LINE
  5
430
  8
05
  6
CONTINUOUS
 62
     7
 10
109.442086
 20
8.208952
 30
0.0
 11
107.516515
 21
10.134523
 31
0.0
  0
LINE
  5
431
  8
05
  6
CONTINUOUS
 62
     7
 10
107.026585
 20
10.624454
 30
0.0
 11
106.957967
 21
10.693072000000001
 31
0.0
  0
LINE
  5
432
  8
05
  6
CONTINUOUS
 62
     7
 10
109.760284
 20
8.208952
 30
0.0
 11
107.73963500000001
 21
10.229602
 31
0.0
  0
LINE
  5
433
  8
05
  6
CONTINUOUS
 62
     7
 10
110.07848199999999
 20
8.208952
 30
0.0
 11
107.962755
 21
10.324680000000001
 31
0.0
  0
LINE
  5
434
  8
05
  6
CONTINUOUS
 62
     7
 10
110.396681
 20
8.208952
 30
0.0
 11
108.185874
 21
10.419758
 31
0.0
  0
LINE
  5
435
  8
05
  6
CONTINUOUS
 62
     7
 10
109.05847199999999
 20
9.8653589999999998
 30
0.0
 11
108.40899400000001
 21
10.514837
 31
0.0
  0
LINE
  5
436
  8
05
  6
CONTINUOUS
 62
     7
 10
109.281592
 20
9.9604370000000007
 30
0.0
 11
108.632114
 21
10.609915000000001
 31
0.0
  0
LINE
  5
437
  8
05
  6
CONTINUOUS
 62
     7
 10
109.504712
 20
10.055515
 30
0.0
 11
108.867155
 21
10.693072000000001
 31
0.0
  0
LINE
  5
438
  8
05
  6
CONTINUOUS
 62
     7
 10
109.72783099999999
 20
10.150593000000001
 30
0.0
 11
109.18535300000001
 21
10.693072000000001
 31
0.0
  0
LINE
  5
439
  8
05
  6
CONTINUOUS
 62
     7
 10
109.950951
 20
10.245672000000001
 30
0.0
 11
109.503551
 21
10.693072000000001
 31
0.0
  0
LINE
  5
43A
  8
05
  6
CONTINUOUS
 62
     7
 10
110.174071
 20
10.34075
 30
0.0
 11
109.821749
 21
10.693072000000001
 31
0.0
  0
LINE
  5
43B
  8
05
  6
CONTINUOUS
 62
     7
 10
110.39719100000001
 20
10.435828000000001
 30
0.0
 11
110.13994700000001
 21
10.693072000000001
 31
0.0
  0
LINE
  5
43C
  8
05
  6
CONTINUOUS
 62
     7
 10
110.62031
 20
10.530906999999999
 30
0.0
 11
110.458145
 21
10.693072000000001
 31
0.0
  0
LINE
  5
43D
  8
05
  6
CONTINUOUS
 62
     7
 10
110.84343
 20
10.625985
 30
0.0
 11
110.776343
 21
10.693072000000001
 31
0.0
  0
LINE
  5
43E
  8
05
  6
CONTINUOUS
 62
     7
 10
113.578661
 20
8.208952
 30
0.0
 11
113.513227
 21
8.2743870000000008
 31
0.0
  0
LINE
  5
43F
  8
05
  6
CONTINUOUS
 62
     7
 10
113.89685900000001
 20
8.208952
 30
0.0
 11
113.649597
 21
8.4562139999999992
 31
0.0
  0
LINE
  5
440
  8
05
  6
CONTINUOUS
 62
     7
 10
114.215057
 20
8.208952
 30
0.0
 11
113.785968
 21
8.6380420000000004
 31
0.0
  0
LINE
  5
441
  8
05
  6
CONTINUOUS
 62
     7
 10
114.533255
 20
8.208952
 30
0.0
 11
113.922338
 21
8.8198690000000006
 31
0.0
  0
LINE
  5
442
  8
05
  6
CONTINUOUS
 62
     7
 10
114.85145300000001
 20
8.208952
 30
0.0
 11
114.05870899999999
 21
9.0016960000000008
 31
0.0
  0
LINE
  5
443
  8
05
  6
CONTINUOUS
 62
     7
 10
115.152872
 20
8.2257320000000007
 30
0.0
 11
114.19508
 21
9.1835240000000002
 31
0.0
  0
LINE
  5
444
  8
05
  6
CONTINUOUS
 62
     7
 10
115.289242
 20
8.4075589999999991
 30
0.0
 11
114.33145
 21
9.3653510000000004
 31
0.0
  0
LINE
  5
445
  8
05
  6
CONTINUOUS
 62
     7
 10
115.425613
 20
8.5893870000000003
 30
0.0
 11
114.467821
 21
9.5471790000000016
 31
0.0
  0
LINE
  5
446
  8
05
  6
CONTINUOUS
 62
     7
 10
115.64421400000001
 20
8.6889839999999978
 30
0.0
 11
114.604191
 21
9.729006
 31
0.0
  0
LINE
  5
447
  8
05
  6
CONTINUOUS
 62
     7
 10
115.962412
 20
8.6889839999999978
 30
0.0
 11
114.740562
 21
9.9108339999999995
 31
0.0
  0
LINE
  5
448
  8
05
  6
CONTINUOUS
 62
     7
 10
116.28061
 20
8.6889839999999978
 30
0.0
 11
115.907422
 21
9.0621709999999993
 31
0.0
  0
LINE
  5
449
  8
05
  6
CONTINUOUS
 62
     7
 10
115.83472500000001
 20
9.1348690000000001
 30
0.0
 11
114.87693299999999
 21
10.092661
 31
0.0
  0
LINE
  5
44A
  8
05
  6
CONTINUOUS
 62
     7
 10
116.59880800000001
 20
8.6889839999999978
 30
0.0
 11
116.22562000000001
 21
9.0621709999999993
 31
0.0
  0
LINE
  5
44B
  8
05
  6
CONTINUOUS
 62
     7
 10
115.97109500000001
 20
9.3166960000000003
 30
0.0
 11
115.01330299999999
 21
10.274489000000001
 31
0.0
  0
LINE
  5
44C
  8
05
  6
CONTINUOUS
 62
     7
 10
117.39703799999999
 20
8.208952
 30
0.0
 11
117.329041
 21
8.2769490000000001
 31
0.0
  0
LINE
  5
44D
  8
05
  6
CONTINUOUS
 62
     7
 10
116.107466
 20
9.4985239999999997
 30
0.0
 11
115.149674
 21
10.456315999999999
 31
0.0
  0
LINE
  5
44E
  8
05
  6
CONTINUOUS
 62
     7
 10
116.917006
 20
8.6889839999999978
 30
0.0
 11
116.543818
 21
9.0621709999999993
 31
0.0
  0
LINE
  5
44F
  8
05
  6
CONTINUOUS
 62
     7
 10
117.715236
 20
8.208952
 30
0.0
 11
116.862016
 21
9.0621709999999993
 31
0.0
  0
LINE
  5
450
  8
05
  6
CONTINUOUS
 62
     7
 10
116.243837
 20
9.6803509999999982
 30
0.0
 11
115.286044
 21
10.638144
 31
0.0
  0
LINE
  5
451
  8
05
  6
CONTINUOUS
 62
     7
 10
118.033434
 20
8.208952
 30
0.0
 11
117.11690900000001
 21
9.1254770000000001
 31
0.0
  0
LINE
  5
452
  8
05
  6
CONTINUOUS
 62
     7
 10
116.380207
 20
9.8621789999999994
 30
0.0
 11
115.548585
 21
10.693801000000001
 31
0.0
  0
LINE
  5
453
  8
05
  6
CONTINUOUS
 62
     7
 10
118.351632
 20
8.208952
 30
0.0
 11
117.01084299999999
 21
9.5497409999999991
 31
0.0
  0
LINE
  5
454
  8
05
  6
CONTINUOUS
 62
     7
 10
116.516578
 20
10.044006
 30
0.0
 11
115.866783
 21
10.693801000000001
 31
0.0
  0
LINE
  5
455
  8
05
  6
CONTINUOUS
 62
     7
 10
118.66983
 20
8.208952
 30
0.0
 11
116.904777
 21
9.974005
 31
0.0
  0
LINE
  5
456
  8
05
  6
CONTINUOUS
 62
     7
 10
116.65294799999999
 20
10.225834000000001
 30
0.0
 11
116.18498099999999
 21
10.693801000000001
 31
0.0
  0
LINE
  5
457
  8
05
  6
CONTINUOUS
 62
     7
 10
118.875595
 20
8.3213849999999976
 30
0.0
 11
116.798711
 21
10.398269000000001
 31
0.0
  0
LINE
  5
458
  8
05
  6
CONTINUOUS
 62
     7
 10
116.78931900000001
 20
10.407660999999999
 30
0.0
 11
116.503179
 21
10.693801000000001
 31
0.0
  0
LINE
  5
459
  8
05
  6
CONTINUOUS
 62
     7
 10
118.76952900000001
 20
8.7456490000000002
 30
0.0
 11
116.821377
 21
10.693801000000001
 31
0.0
  0
LINE
  5
45A
  8
05
  6
CONTINUOUS
 62
     7
 10
118.66346299999999
 20
9.1699129999999993
 30
0.0
 11
117.13957600000001
 21
10.693801000000001
 31
0.0
  0
LINE
  5
45B
  8
05
  6
CONTINUOUS
 62
     7
 10
119.73249199999999
 20
8.4190819999999977
 30
0.0
 11
119.67397200000001
 21
8.4776019999999992
 31
0.0
  0
LINE
  5
45C
  8
05
  6
CONTINUOUS
 62
     7
 10
118.55739699999999
 20
9.5941770000000002
 30
0.0
 11
117.457774
 21
10.693801000000001
 31
0.0
  0
LINE
  5
45D
  8
05
  6
CONTINUOUS
 62
     7
 10
120.149298
 20
8.3204740000000008
 30
0.0
 11
119.63522500000001
 21
8.8345479999999998
 31
0.0
  0
LINE
  5
45E
  8
05
  6
CONTINUOUS
 62
     7
 10
118.451331
 20
10.018440999999999
 30
0.0
 11
117.775972
 21
10.693801000000001
 31
0.0
  0
LINE
  5
45F
  8
05
  6
CONTINUOUS
 62
     7
 10
120.509282
 20
8.2786889999999982
 30
0.0
 11
119.682922
 21
9.1050489999999993
 31
0.0
  0
LINE
  5
460
  8
05
  6
CONTINUOUS
 62
     7
 10
118.345265
 20
10.442705
 30
0.0
 11
118.09417000000001
 21
10.693801000000001
 31
0.0
  0
LINE
  5
461
  8
05
  6
CONTINUOUS
 62
     7
 10
120.858857
 20
8.2473120000000009
 30
0.0
 11
119.73061800000001
 21
9.3755500000000005
 31
0.0
  0
LINE
  5
462
  8
05
  6
CONTINUOUS
 62
     7
 10
121.19893999999999
 20
8.2254260000000006
 30
0.0
 11
119.77831500000001
 21
9.6460519999999992
 31
0.0
  0
LINE
  5
463
  8
05
  6
CONTINUOUS
 62
     7
 10
121.530306
 20
8.2122580000000003
 30
0.0
 11
119.82601200000001
 21
9.9165530000000004
 31
0.0
  0
LINE
  5
464
  8
05
  6
CONTINUOUS
 62
     7
 10
121.853616
 20
8.2071470000000009
 30
0.0
 11
119.87370799999999
 21
10.187054
 31
0.0
  0
LINE
  5
465
  8
05
  6
CONTINUOUS
 62
     7
 10
122.169437
 20
8.2095230000000008
 30
0.0
 11
121.71754300000001
 21
8.6614179999999976
 31
0.0
  0
LINE
  5
466
  8
05
  6
CONTINUOUS
 62
     7
 10
121.241642
 20
9.1373189999999997
 30
0.0
 11
119.970499
 21
10.408462
 31
0.0
  0
LINE
  5
467
  8
05
  6
CONTINUOUS
 62
     7
 10
122.47826499999999
 20
8.2188940000000006
 30
0.0
 11
122.04764900000001
 21
8.6495099999999976
 31
0.0
  0
LINE
  5
468
  8
05
  6
CONTINUOUS
 62
     7
 10
121.289339
 20
9.4078199999999992
 30
0.0
 11
120.19339100000001
 21
10.503767
 31
0.0
  0
LINE
  5
469
  8
05
  6
CONTINUOUS
 62
     7
 10
122.78053
 20
8.2348259999999982
 30
0.0
 11
122.349867
 21
8.6654900000000001
 31
0.0
  0
LINE
  5
46A
  8
05
  6
CONTINUOUS
 62
     7
 10
121.337035
 20
9.6783210000000004
 30
0.0
 11
120.468172
 21
10.547185000000001
 31
0.0
  0
LINE
  5
46B
  8
05
  6
CONTINUOUS
 62
     7
 10
123.12460299999999
 20
8.208952
 30
0.0
 11
122.630009
 21
8.7035459999999976
 31
0.0
  0
LINE
  5
46C
  8
05
  6
CONTINUOUS
 62
     7
 10
121.384732
 20
9.9488230000000009
 30
0.0
 11
120.74800500000001
 21
10.58555
 31
0.0
  0
LINE
  5
46D
  8
05
  6
CONTINUOUS
 62
     7
 10
123.442801
 20
8.208952
 30
0.0
 11
122.855526
 21
8.796227
 31
0.0
  0
LINE
  5
46E
  8
05
  6
CONTINUOUS
 62
     7
 10
121.502999
 20
10.148752999999999
 30
0.0
 11
121.033135
 21
10.618617
 31
0.0
  0
LINE
  5
46F
  8
05
  6
CONTINUOUS
 62
     7
 10
122.573104
 20
9.0786490000000004
 30
0.0
 11
122.380196
 21
9.2715569999999996
 31
0.0
  0
LINE
  5
470
  8
05
  6
CONTINUOUS
 62
     7
 10
123.760999
 20
8.208952
 30
0.0
 11
122.955988
 21
9.0139630000000004
 31
0.0
  0
LINE
  5
471
  8
05
  6
CONTINUOUS
 62
     7
 10
121.745041
 20
10.224909999999999
 30
0.0
 11
121.32383299999999
 21
10.646118
 31
0.0
  0
LINE
  5
472
  8
05
  6
CONTINUOUS
 62
     7
 10
122.891302
 20
9.0786490000000004
 30
0.0
 11
122.66857400000001
 21
9.3013759999999994
 31
0.0
  0
LINE
  5
473
  8
05
  6
CONTINUOUS
 62
     7
 10
124.07919699999999
 20
8.208952
 30
0.0
 11
122.986772
 21
9.3013759999999994
 31
0.0
  0
LINE
  5
474
  8
05
  6
CONTINUOUS
 62
     7
 10
122.03427499999999
 20
10.253874
 30
0.0
 11
121.620401
 21
10.667748
 31
0.0
  0
LINE
  5
475
  8
05
  6
CONTINUOUS
 62
     7
 10
124.371618
 20
8.2347289999999962
 30
0.0
 11
123.30497099999999
 21
9.3013759999999994
 31
0.0
  0
LINE
  5
476
  8
05
  6
CONTINUOUS
 62
     7
 10
122.347781
 20
10.258566
 30
0.0
 11
121.92317799999999
 21
10.683168999999999
 31
0.0
  0
LINE
  5
477
  8
05
  6
CONTINUOUS
 62
     7
 10
124.419315
 20
8.5052299999999992
 30
0.0
 11
123.623169
 21
9.3013759999999994
 31
0.0
  0
LINE
  5
478
  8
05
  6
CONTINUOUS
 62
     7
 10
122.692832
 20
10.231712999999999
 30
0.0
 11
122.232551
 21
10.691993999999999
 31
0.0
  0
LINE
  5
479
  8
05
  6
CONTINUOUS
 62
     7
 10
124.467011
 20
8.7757319999999979
 30
0.0
 11
123.941367
 21
9.3013759999999994
 31
0.0
  0
LINE
  5
47A
  8
05
  6
CONTINUOUS
 62
     7
 10
123.27875
 20
9.9639930000000003
 30
0.0
 11
122.54895399999999
 21
10.693789000000001
 31
0.0
  0
LINE
  5
47B
  8
05
  6
CONTINUOUS
 62
     7
 10
124.514708
 20
9.0462330000000009
 30
0.0
 11
124.25956499999999
 21
9.3013759999999994
 31
0.0
  0
LINE
  5
47C
  8
05
  6
CONTINUOUS
 62
     7
 10
123.596948
 20
9.9639930000000003
 30
0.0
 11
122.872889
 21
10.688052000000001
 31
0.0
  0
LINE
  5
47D
  8
05
  6
CONTINUOUS
 62
     7
 10
123.91514599999999
 20
9.9639930000000003
 30
0.0
 11
123.20492900000001
 21
10.67421
 31
0.0
  0
LINE
  5
47E
  8
05
  6
CONTINUOUS
 62
     7
 10
124.233344
 20
9.9639930000000003
 30
0.0
 11
123.545745
 21
10.651593
 31
0.0
  0
LINE
  5
47F
  8
05
  6
CONTINUOUS
 62
     7
 10
124.551542
 20
9.9639930000000003
 30
0.0
 11
123.896119
 21
10.619415999999999
 31
0.0
  0
LINE
  5
480
  8
05
  6
CONTINUOUS
 62
     7
 10
124.705495
 20
10.128239000000001
 30
0.0
 11
124.256984
 21
10.576750000000001
 31
0.0
  0
LINE
  5
481
  8
035
  6
CONTINUOUS
 62
     3
 10
73.110721999999981
 20
8.208952
 30
0.0
 11
74.818555000000003
 21
8.208952
 31
0.0
  0
LINE
  5
482
  8
035
  6
CONTINUOUS
 62
     3
 10
73.661438000000004
 20
10.693072000000001
 30
0.0
 11
75.679785999999979
 21
10.693072000000001
 31
0.0
  0
LINE
  5
483
  8
035
  6
CONTINUOUS
 62
     3
 10
73.110721999999981
 20
8.208952
 30
0.0
 11
73.661438000000004
 21
10.693072000000001
 31
0.0
  0
LINE
  5
484
  8
035
  6
CONTINUOUS
 62
     3
 10
74.818555000000003
 20
8.208952
 30
0.0
 11
75.128332
 21
9.6062700000000003
 31
0.0
  0
LINE
  5
485
  8
035
  6
CONTINUOUS
 62
     3
 10
78.622363000000007
 20
8.208952
 30
0.0
 11
79.173079000000001
 21
10.693072000000001
 31
0.0
  0
LINE
  5
486
  8
035
  6
CONTINUOUS
 62
     3
 10
77.224307999999965
 20
9.6062700000000003
 30
0.0
 11
77.465247000000005
 21
10.693072000000001
 31
0.0
  0
LINE
  5
487
  8
035
  6
CONTINUOUS
 62
     3
 10
75.128332
 20
9.6062700000000003
 30
0.0
 11
76.681644000000006
 21
8.208952
 31
0.0
  0
LINE
  5
488
  8
035
  6
CONTINUOUS
 62
     3
 10
75.679785999999979
 20
10.693072000000001
 30
0.0
 11
77.224307999999965
 21
9.6062700000000003
 31
0.0
  0
LINE
  5
489
  8
035
  6
CONTINUOUS
 62
     3
 10
77.465247000000005
 20
10.693072000000001
 30
0.0
 11
79.173079000000001
 21
10.693072000000001
 31
0.0
  0
LINE
  5
48A
  8
035
  6
CONTINUOUS
 62
     3
 10
76.681644000000006
 20
8.208952
 30
0.0
 11
78.622363000000007
 21
8.208952
 31
0.0
  0
LINE
  5
48B
  8
035
  6
CONTINUOUS
 62
     3
 10
79.476279000000005
 20
8.208952
 30
0.0
 11
80.026994999999999
 21
10.693072000000001
 31
0.0
  0
LINE
  5
48C
  8
035
  6
CONTINUOUS
 62
     3
 10
81.281651999999966
 20
8.6489309999999993
 30
0.0
 11
81.427325999999979
 21
9.3060229999999997
 31
0.0
  0
LINE
  5
48D
  8
035
  6
CONTINUOUS
 62
     3
 10
84.144332000000006
 20
9.3060229999999997
 30
0.0
 11
84.208618999999999
 21
9.5960009999999993
 31
0.0
  0
LINE
  5
48E
  8
035
  6
CONTINUOUS
 62
     3
 10
84.134004000000004
 20
8.208952
 30
0.0
 11
84.231543999999985
 21
8.6489309999999993
 31
0.0
  0
LINE
  5
48F
  8
035
  6
CONTINUOUS
 62
     3
 10
79.476279000000005
 20
8.208952
 30
0.0
 11
84.134004000000004
 21
8.208952
 31
0.0
  0
LINE
  5
490
  8
035
  6
CONTINUOUS
 62
     3
 10
80.026994999999999
 20
10.693072000000001
 30
0.0
 11
84.684719999999999
 21
10.693072000000001
 31
0.0
  0
LINE
  5
491
  8
035
  6
CONTINUOUS
 62
     3
 10
81.491613000000015
 20
9.5960009999999993
 30
0.0
 11
81.637287000000001
 21
10.253094000000001
 31
0.0
  0
LINE
  5
492
  8
035
  6
CONTINUOUS
 62
     3
 10
84.587179000000006
 20
10.253094000000001
 30
0.0
 11
84.684719999999999
 21
10.693072000000001
 31
0.0
  0
LINE
  5
493
  8
035
  6
CONTINUOUS
 62
     3
 10
85.078512000000003
 20
8.9677469999999992
 30
0.0
 11
85.461006999999981
 21
10.693072000000001
 31
0.0
  0
LINE
  5
494
  8
035
  6
CONTINUOUS
 62
     3
 10
86.829415999999966
 20
9.1814319999999991
 30
0.0
 11
87.164537999999979
 21
10.693072000000001
 31
0.0
  0
LINE
  5
495
  8
035
  6
CONTINUOUS
 62
     3
 10
88.697072999999989
 20
9.1008870000000002
 30
0.0
 11
89.050050999999982
 21
10.693072000000001
 31
0.0
  0
LINE
  5
496
  8
035
  6
CONTINUOUS
 62
     3
 10
90.344325999999995
 20
8.847099
 30
0.0
 11
90.753567999999987
 21
10.693072000000001
 31
0.0
  0
LINE
  5
497
  8
035
  6
CONTINUOUS
 62
     3
 10
85.461006999999981
 20
10.693072000000001
 30
0.0
 11
87.164537999999979
 21
10.693072000000001
 31
0.0
  0
ARC
  5
498
  8
035
  6
CONTINUOUS
 62
     3
 10
85.356538251099991
 20
8.9076074747000007
 30
0.0
 40
0.2844562511
 50
167.79446351729999
 51
179.99928992939999
  0
ARC
  5
499
  8
035
  6
CONTINUOUS
 62
     3
 10
85.356538541299983
 20
8.9076113389999971
 30
0.0
 40
0.2844565413
 50
180.0000682898
 51
234.62292248130001
  0
ARC
  5
49A
  8
035
  6
CONTINUOUS
 62
     3
 10
86.466236659100005
 20
10.470430690200001
 30
0.0
 40
2.2011814138000001
 50
234.62290206980001
 51
253.61047618699999
  0
ARC
  5
49B
  8
035
  6
CONTINUOUS
 62
     3
 10
87.214598875400014
 20
13.014839368900001
 30
0.0
 40
4.853361937699999
 50
253.61039102110001
 51
263.05403335509999
  0
ARC
  5
49C
  8
035
  6
CONTINUOUS
 62
     3
 10
87.711458181299989
 20
17.093176614099999
 30
0.0
 40
8.9618536140999971
 50
263.05399459149999
 51
270.00001162730001
  0
ARC
  5
49D
  8
035
  6
CONTINUOUS
 62
     3
 10
87.711461318700003
 20
17.093168375499999
 30
0.0
 40
8.9618453754999976
 50
269.99999156939998
 51
276.94600860520001
  0
ARC
  5
49E
  8
035
  6
CONTINUOUS
 62
     3
 10
88.208320124599993
 20
13.014839368900001
 30
0.0
 40
4.853361937699999
 50
276.94596664490001
 51
286.38960897890001
  0
ARC
  5
49F
  8
035
  6
CONTINUOUS
 62
     3
 10
88.956682340900016
 20
10.470430690200001
 30
0.0
 40
2.2011814138000001
 50
286.38952381299998
 51
305.37709793020002
  0
ARC
  5
4A0
  8
035
  6
CONTINUOUS
 62
     3
 10
90.066381071299986
 20
8.9076107686999961
 30
0.0
 40
0.2844557216
 50
305.37704342649999
 51
347.71771706729999
  0
ARC
  5
4A1
  8
035
  6
CONTINUOUS
 62
     3
 10
87.002529766299986
 20
9.1404964567999993
 30
0.0
 40
0.1778877663
 50
179.99982505139999
 51
225.04229134159999
  0
ARC
  5
4A2
  8
035
  6
CONTINUOUS
 62
     3
 10
87.361863506100008
 20
9.5003622418999996
 30
0.0
 40
0.6864387665000002
 50
225.042361417
 51
247.53001280820001
  0
ARC
  5
4A3
  8
035
  6
CONTINUOUS
 62
     3
 10
87.603491817600002
 20
10.084562093700001
 30
0.0
 40
1.3186362892000001
 50
247.529882187
 51
260.27854917949998
  0
ARC
  5
4A4
  8
035
  6
CONTINUOUS
 62
     3
 10
87.763090384599991
 20
11.0161117087
 30
0.0
 40
2.2637587087000002
 50
260.27837700819998
 51
269.99999026619997
  0
ARC
  5
4A5
  8
035
  6
CONTINUOUS
 62
     3
 10
87.763089615400006
 20
11.0161117087
 30
0.0
 40
2.2637587087000002
 50
270.00000973380003
 51
279.72162299180002
  0
ARC
  5
4A6
  8
035
  6
CONTINUOUS
 62
     3
 10
87.92268818239998
 20
10.084562093700001
 30
0.0
 40
1.3186362892000001
 50
279.72145082050002
 51
292.470117813
  0
ARC
  5
4A7
  8
035
  6
CONTINUOUS
 62
     3
 10
88.164316493899989
 20
9.5003622418999996
 30
0.0
 40
0.6864387665000002
 50
292.46998719179999
 51
314.957638583
  0
ARC
  5
4A8
  8
035
  6
CONTINUOUS
 62
     3
 10
88.523650729300002
 20
9.1404979650999998
 30
0.0
 40
0.1778884834
 50
314.95725245080001
 51
347.13391923569998
  0
ARC
  5
4A9
  8
035
  6
CONTINUOUS
 62
     3
 10
87.002529077600016
 20
9.1404969936999994
 30
0.0
 40
0.1778870776
 50
166.69598504859999
 51
179.9999979692
  0
LINE
  5
4AA
  8
035
  6
CONTINUOUS
 62
     3
 10
89.050050999999982
 20
10.693072000000001
 30
0.0
 11
90.753567999999987
 21
10.693072000000001
 31
0.0
  0
LINE
  5
4AB
  8
035
  6
CONTINUOUS
 62
     3
 10
91.067854999999994
 20
10.072042
 30
0.0
 11
91.205534
 21
10.693072000000001
 31
0.0
  0
LINE
  5
4AC
  8
035
  6
CONTINUOUS
 62
     3
 10
92.207392999999996
 20
8.208952
 30
0.0
 11
92.620430000000013
 21
10.072042
 31
0.0
  0
LINE
  5
4AD
  8
035
  6
CONTINUOUS
 62
     3
 10
93.915225000000007
 20
8.208952
 30
0.0
 11
94.328261999999995
 21
10.072042
 31
0.0
  0
LINE
  5
4AE
  8
035
  6
CONTINUOUS
 62
     3
 10
95.958465999999987
 20
10.072042
 30
0.0
 11
96.096145000000007
 21
10.693072000000001
 31
0.0
  0
LINE
  5
4AF
  8
035
  6
CONTINUOUS
 62
     3
 10
91.067854999999994
 20
10.072042
 30
0.0
 11
92.620430000000013
 21
10.072042
 31
0.0
  0
LINE
  5
4B0
  8
035
  6
CONTINUOUS
 62
     3
 10
92.207392999999996
 20
8.208952
 30
0.0
 11
93.915225000000007
 21
8.208952
 31
0.0
  0
LINE
  5
4B1
  8
035
  6
CONTINUOUS
 62
     3
 10
91.205534
 20
10.693072000000001
 30
0.0
 11
96.096145000000007
 21
10.693072000000001
 31
0.0
  0
LINE
  5
4B2
  8
035
  6
CONTINUOUS
 62
     3
 10
94.328261999999995
 20
10.072042
 30
0.0
 11
95.958465999999987
 21
10.072042
 31
0.0
  0
LINE
  5
4B3
  8
035
  6
CONTINUOUS
 62
     3
 10
96.088830000000002
 20
8.208952
 30
0.0
 11
96.639545999999996
 21
10.693072000000001
 31
0.0
  0
LINE
  5
4B4
  8
035
  6
CONTINUOUS
 62
     3
 10
97.796662000000012
 20
8.208952
 30
0.0
 11
98.002015
 21
9.1352399999999996
 31
0.0
  0
LINE
  5
4B5
  8
035
  6
CONTINUOUS
 62
     3
 10
96.088830000000002
 20
8.208952
 30
0.0
 11
97.796662000000012
 21
8.208952
 31
0.0
  0
LINE
  5
4B6
  8
035
  6
CONTINUOUS
 62
     3
 10
96.639545999999996
 20
10.693072000000001
 30
0.0
 11
100.997922
 21
10.693072000000001
 31
0.0
  0
LINE
  5
4B7
  8
035
  6
CONTINUOUS
 62
     3
 10
101.308134
 20
8.4689139999999998
 30
0.0
 11
101.348586
 21
9.0474049999999995
 31
0.0
  0
LINE
  5
4B8
  8
035
  6
CONTINUOUS
 62
     3
 10
99.595963000000012
 20
8.4068679999999976
 30
0.0
 11
99.627229000000014
 21
8.8619210000000006
 31
0.0
  0
LINE
  5
4B9
  8
035
  6
CONTINUOUS
 62
     3
 10
98.066301999999993
 20
9.4252179999999992
 30
0.0
 11
98.249837000000014
 21
10.253094000000001
 31
0.0
  0
ARC
  5
4BA
  8
035
  6
CONTINUOUS
 62
     3
 10
101.69533199999999
 20
8.4418380000000006
 30
0.0
 40
0.388144
 50
176.0
 51
216.86989800000001
  0
ARC
  5
4BB
  8
035
  6
CONTINUOUS
 62
     3
 10
99.969752999999997
 20
8.4119050000000009
 30
0.0
 40
0.373824
 50
180.77200500000001
 51
212.88187500000001
  0
LINE
  5
4BC
  8
035
  6
CONTINUOUS
 62
     3
 10
99.655817999999996
 20
8.208952
 30
0.0
 11
101.384817
 21
8.208952
 31
0.0
  0
ARC
  5
4BD
  8
035
  6
CONTINUOUS
 62
     3
 10
101.0645091256
 20
9.0692414045999996
 30
0.0
 40
0.284914898
 50
355.60443510179999
 51
14.9998321139
  0
ARC
  5
4BE
  8
035
  6
CONTINUOUS
 62
     3
 10
101.0645115927
 20
9.0692393406999994
 30
0.0
 40
0.2849130492
 50
15.0003614107
 51
49.806295114900003
  0
ARC
  5
4BF
  8
035
  6
CONTINUOUS
 62
     3
 10
100.8802286242
 20
8.8511285637999961
 30
0.0
 40
0.5704520544000001
 50
49.805823646699999
 51
55.606355403099997
  0
ARC
  5
4C0
  8
035
  6
CONTINUOUS
 62
     3
 10
100.3132482994
 20
11.1994672129
 30
0.0
 40
2.0775325921999981
 50
295.3416402972
 51
298.86367834689997
  0
ARC
  5
4C1
  8
035
  6
CONTINUOUS
 62
     3
 10
100.6415395293
 20
10.6038639832
 30
0.0
 40
1.3974455838999991
 50
298.86392815570002
 51
315.78829260380002
  0
ARC
  5
4C2
  8
035
  6
CONTINUOUS
 62
     3
 10
100.9889757242
 20
10.265858519
 30
0.0
 40
0.9127192659
 50
315.78830934939998
 51
340.19393556799997
  0
ARC
  5
4C3
  8
035
  6
CONTINUOUS
 62
     3
 10
101.4188091494
 20
10.111058159300001
 30
0.0
 40
0.4558605079
 50
340.19386582039999
 51
14.9997995246
  0
ARC
  5
4C4
  8
035
  6
CONTINUOUS
 62
     3
 10
101.4188087341
 20
10.1110565785
 30
0.0
 40
0.4558613183000002
 50
14.999977936300001
 51
49.8059116405
  0
ARC
  5
4C5
  8
035
  6
CONTINUOUS
 62
     3
 10
101.12396318899999
 20
9.7620752320000008
 30
0.0
 40
0.9127222113
 50
49.8061438314
 51
74.211770049999998
  0
ARC
  5
4C6
  8
035
  6
CONTINUOUS
 62
     3
 10
100.9920781414
 20
9.2956381766999971
 30
0.0
 40
1.397446042299999
 50
74.211764135999999
 51
89.760399041299991
  0
LINE
  5
4C7
  8
035
  6
CONTINUOUS
 62
     3
 10
102.143871
 20
8.208952
 30
0.0
 11
102.694588
 21
10.693072000000001
 31
0.0
  0
LINE
  5
4C8
  8
035
  6
CONTINUOUS
 62
     3
 10
103.851704
 20
8.208952
 30
0.0
 11
104.40242000000001
 21
10.693072000000001
 31
0.0
  0
LINE
  5
4C9
  8
035
  6
CONTINUOUS
 62
     3
 10
102.143871
 20
8.208952
 30
0.0
 11
103.851704
 21
8.208952
 31
0.0
  0
LINE
  5
4CA
  8
035
  6
CONTINUOUS
 62
     3
 10
102.694588
 20
10.693072000000001
 30
0.0
 11
104.40242000000001
 21
10.693072000000001
 31
0.0
  0
LINE
  5
4CB
  8
035
  6
CONTINUOUS
 62
     3
 10
104.860877
 20
8.208952
 30
0.0
 11
105.41159399999999
 21
10.693072000000001
 31
0.0
  0
LINE
  5
4CC
  8
035
  6
CONTINUOUS
 62
     3
 10
106.49108099999999
 20
8.208952
 30
0.0
 11
106.62876
 21
8.8299819999999976
 31
0.0
  0
LINE
  5
4CD
  8
035
  6
CONTINUOUS
 62
     3
 10
105.41159399999999
 20
10.693072000000001
 30
0.0
 11
107.041797
 21
10.693072000000001
 31
0.0
  0
LINE
  5
4CE
  8
035
  6
CONTINUOUS
 62
     3
 10
104.860877
 20
8.208952
 30
0.0
 11
106.49108099999999
 21
8.208952
 31
0.0
  0
LINE
  5
4CF
  8
035
  6
CONTINUOUS
 62
     3
 10
106.62876
 20
8.8299819999999976
 30
0.0
 11
107.357444
 21
9.1404970000000016
 31
0.0
  0
LINE
  5
4D0
  8
035
  6
CONTINUOUS
 62
     3
 10
106.855525
 20
9.8528549999999981
 30
0.0
 11
108.827258
 21
10.693072000000001
 31
0.0
  0
LINE
  5
4D1
  8
035
  6
CONTINUOUS
 62
     3
 10
108.827258
 20
10.693072000000001
 30
0.0
 11
111.000863
 21
10.693072000000001
 31
0.0
  0
LINE
  5
4D2
  8
035
  6
CONTINUOUS
 62
     3
 10
107.357444
 20
9.1404970000000016
 30
0.0
 11
108.27654200000001
 21
8.208952
 31
0.0
  0
LINE
  5
4D3
  8
035
  6
CONTINUOUS
 62
     3
 10
108.996982
 20
9.8391559999999991
 30
0.0
 11
110.60540399999999
 21
8.208952
 31
0.0
  0
LINE
  5
4D4
  8
035
  6
CONTINUOUS
 62
     3
 10
108.996982
 20
9.8391559999999991
 30
0.0
 11
111.000863
 21
10.693072000000001
 31
0.0
  0
LINE
  5
4D5
  8
035
  6
CONTINUOUS
 62
     3
 10
106.855525
 20
9.8528549999999981
 30
0.0
 11
107.041797
 21
10.693072000000001
 31
0.0
  0
LINE
  5
4D6
  8
035
  6
CONTINUOUS
 62
     3
 10
108.27654200000001
 20
8.208952
 30
0.0
 11
110.60540399999999
 21
8.208952
 31
0.0
  0
LINE
  5
4D7
  8
035
  6
CONTINUOUS
 62
     3
 10
113.464151
 20
8.208952
 30
0.0
 11
115.140287
 21
8.208952
 31
0.0
  0
LINE
  5
4D8
  8
035
  6
CONTINUOUS
 62
     3
 10
115.327787
 20
10.693801000000001
 30
0.0
 11
118.28249099999999
 21
10.693801000000001
 31
0.0
  0
LINE
  5
4D9
  8
035
  6
CONTINUOUS
 62
     3
 10
113.464151
 20
8.208952
 30
0.0
 11
115.327787
 21
10.693801000000001
 31
0.0
  0
LINE
  5
4DA
  8
035
  6
CONTINUOUS
 62
     3
 10
118.28249099999999
 20
10.693801000000001
 30
0.0
 11
118.90370299999999
 21
8.208952
 31
0.0
  0
LINE
  5
4DB
  8
035
  6
CONTINUOUS
 62
     3
 10
115.500311
 20
8.6889839999999978
 30
0.0
 11
117.226032
 21
8.6889839999999978
 31
0.0
  0
LINE
  5
4DC
  8
035
  6
CONTINUOUS
 62
     3
 10
115.780202
 20
9.0621709999999993
 30
0.0
 11
117.132735
 21
9.0621709999999993
 31
0.0
  0
LINE
  5
4DD
  8
035
  6
CONTINUOUS
 62
     3
 10
119.615019
 20
8.7199519999999993
 30
0.0
 11
119.88338
 21
10.241906999999999
 31
0.0
  0
LINE
  5
4DE
  8
035
  6
CONTINUOUS
 62
     3
 10
124.367073
 20
8.208952
 30
0.0
 11
124.559697
 21
9.3013759999999994
 31
0.0
  0
LINE
  5
4DF
  8
035
  6
CONTINUOUS
 62
     3
 10
121.226125
 20
9.0493179999999995
 30
0.0
 11
121.386021
 21
9.9561340000000005
 31
0.0
  0
LINE
  5
4E0
  8
035
  6
CONTINUOUS
 62
     3
 10
122.814042
 20
8.208952
 30
0.0
 11
122.819048
 21
8.2373379999999976
 31
0.0
  0
LINE
  5
4E1
  8
035
  6
CONTINUOUS
 62
     3
 10
122.346181
 20
9.0786490000000004
 30
0.0
 11
122.385454
 21
9.3013759999999994
 31
0.0
  0
LINE
  5
4E2
  8
035
  6
CONTINUOUS
 62
     3
 10
122.346181
 20
9.0786490000000004
 30
0.0
 11
122.967393
 21
9.0786490000000004
 31
0.0
  0
ARC
  5
4E3
  8
035
  6
CONTINUOUS
 62
     3
 10
122.46842700000001
 20
-3.003127999999998
 30
0.0
 40
13.697153
 50
81.659895000000006
 51
99.802790000000016
  0
ARC
  5
4E4
  8
035
  6
CONTINUOUS
 62
     3
 10
121.908466
 20
21.90419
 30
0.0
 40
13.697153
 50
261.46147300000001
 51
273.81181500000002
  0
ARC
  5
4E5
  8
035
  6
CONTINUOUS
 62
     3
 10
120.189267
 20
10.187970999999999
 30
0.0
 40
0.310606
 50
99.802790000000016
 51
170.0
  0
ARC
  5
4E6
  8
035
  6
CONTINUOUS
 62
     3
 10
119.920906
 20
8.6660160000000008
 30
0.0
 40
0.310606
 50
170.0
 51
261.46147300000001
  0
ARC
  5
4E7
  8
035
  6
CONTINUOUS
 62
     3
 10
124.41013
 20
10.241849999999999
 30
0.0
 40
0.310606
 50
350.0
 51
81.659895000000006
  0
LINE
  5
4E8
  8
035
  6
CONTINUOUS
 62
     3
 10
123.10157100000001
 20
9.9639930000000003
 30
0.0
 11
124.676534
 21
9.9639930000000003
 31
0.0
  0
LINE
  5
4E9
  8
035
  6
CONTINUOUS
 62
     3
 10
124.676534
 20
9.9639930000000003
 30
0.0
 11
124.71601699999999
 21
10.187913999999999
 31
0.0
  0
LINE
  5
4EA
  8
035
  6
CONTINUOUS
 62
     3
 10
122.94785299999999
 20
8.9678319999999978
 30
0.0
 11
122.967393
 21
9.0786490000000004
 31
0.0
  0
ARC
  5
4EB
  8
035
  6
CONTINUOUS
 62
     3
 10
122.244276
 20
6.6982739999999987
 30
0.0
 40
3.5617969999999981
 50
80.208338999999967
 51
99.781824999999998
  0
ARC
  5
4EC
  8
035
  6
CONTINUOUS
 62
     3
 10
122.010859
 20
12.211117
 30
0.0
 40
3.5617969999999981
 50
261.53046799999998
 51
281.19306799999998
  0
ARC
  5
4ED
  8
035
  6
CONTINUOUS
 62
     3
 10
121.691908
 20
9.9021980000000003
 30
0.0
 40
0.310606
 50
99.781824999999998
 51
170.0
  0
ARC
  5
4EE
  8
035
  6
CONTINUOUS
 62
     3
 10
122.79719299999999
 20
9.9021030000000003
 30
0.0
 40
0.310606
 50
11.493425
 51
80.208338999999967
  0
ARC
  5
4EF
  8
035
  6
CONTINUOUS
 62
     3
 10
121.53201199999999
 20
8.9953819999999975
 30
0.0
 40
0.310606
 50
170.0
 51
261.53046799999998
  0
ARC
  5
4F0
  8
035
  6
CONTINUOUS
 62
     3
 10
122.641966
 20
9.0217679999999998
 30
0.0
 40
0.310606
 50
281.19306799999998
 51
350.0
  0
LINE
  5
4F1
  8
035
  6
CONTINUOUS
 62
     3
 10
122.814042
 20
8.208952
 30
0.0
 11
124.367073
 21
8.208952
 31
0.0
  0
LINE
  5
4F2
  8
035
  6
CONTINUOUS
 62
     3
 10
117.34604
 20
8.208952
 30
0.0
 11
118.90370299999999
 21
8.208952
 31
0.0
  0
LINE
  5
4F3
  8
035
  6
CONTINUOUS
 62
     3
 10
81.637287000000001
 20
10.253094000000001
 30
0.0
 11
84.587179000000006
 21
10.253094000000001
 31
0.0
  0
LINE
  5
4F4
  8
035
  6
CONTINUOUS
 62
     3
 10
81.491613000000015
 20
9.5960009999999993
 30
0.0
 11
84.208618999999999
 21
9.5960009999999993
 31
0.0
  0
LINE
  5
4F5
  8
035
  6
CONTINUOUS
 62
     3
 10
81.427325999999979
 20
9.3060229999999997
 30
0.0
 11
84.144332000000006
 21
9.3060229999999997
 31
0.0
  0
LINE
  5
4F6
  8
035
  6
CONTINUOUS
 62
     3
 10
81.281651999999966
 20
8.6489309999999993
 30
0.0
 11
84.231543999999985
 21
8.6489309999999993
 31
0.0
  0
LINE
  5
4F7
  8
035
  6
CONTINUOUS
 62
     3
 10
98.249837000000014
 20
10.253094000000001
 30
0.0
 11
99.656396999999998
 21
10.253094000000001
 31
0.0
  0
LINE
  5
4F8
  8
035
  6
CONTINUOUS
 62
     3
 10
98.066301999999993
 20
9.4252179999999992
 30
0.0
 11
99.426626999999996
 21
9.4252179999999992
 31
0.0
  0
LINE
  5
4F9
  8
035
  6
CONTINUOUS
 62
     3
 10
98.002015
 20
9.1352399999999996
 30
0.0
 11
99.450900000000004
 21
9.1352399999999996
 31
0.0
  0
LINE
  5
4FA
  8
035
  6
CONTINUOUS
 62
     3
 10
99.656396999999998
 20
10.253094000000001
 30
0.0
 11
99.767414000000016
 21
10.23493
 31
0.0
  0
LINE
  5
4FB
  8
035
  6
CONTINUOUS
 62
     3
 10
99.767414000000016
 20
10.23493
 30
0.0
 11
99.863611000000006
 21
10.186199
 31
0.0
  0
LINE
  5
4FC
  8
035
  6
CONTINUOUS
 62
     3
 10
99.863611000000006
 20
10.186199
 30
0.0
 11
99.909786999999994
 21
10.111822
 31
0.0
  0
LINE
  5
4FD
  8
035
  6
CONTINUOUS
 62
     3
 10
99.909786999999994
 20
10.111822
 30
0.0
 11
99.945699000000005
 21
10.022057
 31
0.0
  0
LINE
  5
4FE
  8
035
  6
CONTINUOUS
 62
     3
 10
99.945699000000005
 20
10.022057
 30
0.0
 11
99.946983000000003
 21
9.9246000000000016
 31
0.0
  0
LINE
  5
4FF
  8
035
  6
CONTINUOUS
 62
     3
 10
99.946983000000003
 20
9.9246000000000016
 30
0.0
 11
99.936722000000003
 21
9.7835389999999993
 31
0.0
  0
LINE
  5
500
  8
035
  6
CONTINUOUS
 62
     3
 10
99.936722000000003
 20
9.7835389999999993
 30
0.0
 11
99.885413999999997
 21
9.6976239999999994
 31
0.0
  0
LINE
  5
501
  8
035
  6
CONTINUOUS
 62
     3
 10
99.885413999999997
 20
9.6976239999999994
 30
0.0
 11
99.794349999999994
 21
9.5911860000000004
 31
0.0
  0
LINE
  5
502
  8
035
  6
CONTINUOUS
 62
     3
 10
99.794349999999994
 20
9.5911860000000004
 30
0.0
 11
99.657106000000013
 21
9.5091160000000006
 31
0.0
  0
LINE
  5
503
  8
035
  6
CONTINUOUS
 62
     3
 10
99.657106000000013
 20
9.5091160000000006
 30
0.0
 11
99.526275999999996
 21
9.4424340000000004
 31
0.0
  0
LINE
  5
504
  8
035
  6
CONTINUOUS
 62
     3
 10
99.526275999999996
 20
9.4424340000000004
 30
0.0
 11
99.426626999999996
 21
9.4252179999999992
 31
0.0
  0
LINE
  5
505
  8
035
  6
CONTINUOUS
 62
     3
 10
99.450900000000004
 20
9.1352399999999996
 30
0.0
 11
99.533781000000005
 21
9.1235789999999994
 31
0.0
  0
LINE
  5
506
  8
035
  6
CONTINUOUS
 62
     3
 10
99.533781000000005
 20
9.1235789999999994
 30
0.0
 11
99.586980999999994
 21
9.0899330000000003
 31
0.0
  0
LINE
  5
507
  8
035
  6
CONTINUOUS
 62
     3
 10
99.586980999999994
 20
9.0899330000000003
 30
0.0
 11
99.619551000000001
 21
9.0367449999999998
 31
0.0
  0
LINE
  5
508
  8
035
  6
CONTINUOUS
 62
     3
 10
99.619551000000001
 20
9.0367449999999998
 30
0.0
 11
99.634750999999994
 21
8.9727040000000002
 31
0.0
  0
LINE
  5
509
  8
035
  6
CONTINUOUS
 62
     3
 10
99.634750999999994
 20
8.9727040000000002
 30
0.0
 11
99.627229000000014
 21
8.8619210000000006
 31
0.0
  0
LINE
  5
50A
  8
035
  6
CONTINUOUS
 62
     3
 10
116.794602
 20
10.414705
 30
0.0
 11
117.132735
 21
9.0621709999999993
 31
0.0
  0
LINE
  5
50B
  8
035
  6
CONTINUOUS
 62
     3
 10
115.780202
 20
9.0621709999999993
 30
0.0
 11
116.794602
 21
10.414705
 31
0.0
  0
LINE
  5
50C
  8
035
  6
CONTINUOUS
 62
     3
 10
117.226032
 20
8.6889839999999978
 30
0.0
 11
117.34604
 21
8.208952
 31
0.0
  0
LINE
  5
50D
  8
035
  6
CONTINUOUS
 62
     3
 10
115.140287
 20
8.208952
 30
0.0
 11
115.500311
 21
8.6889839999999978
 31
0.0
  0
LINE
  5
50E
  8
035
  6
CONTINUOUS
 62
     3
 10
122.385454
 20
9.3013759999999994
 30
0.0
 11
124.559697
 21
9.3013759999999994
 31
0.0
  0
LINE
  5
50F
  8
035
  6
CONTINUOUS
 62
     3
 10
104.1701576501284
 20
253.70153231523111
 30
0.0
 11
111.0002386501284
 21
253.70153231523111
 31
0.0
  0
LINE
  5
510
  8
035
  6
CONTINUOUS
 62
     3
 10
80.176886650128395
 20
253.70153231523111
 30
0.0
 11
94.172960650128388
 21
253.70153231523111
 31
0.0
  0
LINE
  5
511
  8
035
  6
CONTINUOUS
 62
     3
 10
113.09556565012829
 20
253.70153231523111
 30
0.0
 11
114.1412566501283
 21
253.70153231523111
 31
0.0
  0
LINE
  5
512
  8
035
  6
CONTINUOUS
 62
     3
 10
116.2365836501284
 20
253.70153231523111
 30
0.0
 11
118.1662316501284
 21
253.70153231523111
 31
0.0
  0
LINE
  5
516
  8
05
  6
CONTINUOUS
 62
     4
 10
5.0
 20
16.0
 30
0.0
 11
72.0
 21
16.0
 31
0.0
  0
LINE
  5
517
  8
05
  6
CONTINUOUS
 62
     4
 10
5.0
 20
21.0
 30
0.0
 11
72.0
 21
21.0
 31
0.0
  0
LINE
  5
518
  8
05
  6
CONTINUOUS
 62
     4
 10
5.0
 20
26.0
 30
0.0
 11
72.0
 21
26.0
 31
0.0
  0
LINE
  5
519
  8
05
  6
CONTINUOUS
 62
     4
 10
5.0
 20
31.0
 30
0.0
 11
72.0
 21
31.0
 31
0.0
  0
LINE
  5
51A
  8
05
  6
CONTINUOUS
 62
     4
 10
5.0
 20
36.0
 30
0.0
 11
72.0
 21
36.0
 31
0.0
  0
LINE
  5
51B
  8
05
  6
CONTINUOUS
 62
     4
 10
5.0
 20
41.0
 30
0.0
 11
72.0
 21
41.0
 31
0.0
  0
LINE
  5
51C
  8
05
  6
CONTINUOUS
 62
     4
 10
5.0
 20
46.0
 30
0.0
 11
72.0
 21
46.0
 31
0.0
  0
LINE
  5
51D
  8
05
  6
CONTINUOUS
 62
     4
 10
110.911694
 20
10.655074000000001
 30
0.0
 11
110.949692
 21
10.693072000000001
 31
0.0
  0
LINE
  5
51E
  8
05
  6
CONTINUOUS
 62
     4
 10
110.58689200000001
 20
8.208952
 30
0.0
 11
110.59621
 21
8.2182700000000004
 31
0.0
  0
LINE
  5
51F
  8
025
  6
CONTINUOUS
 62
     4
 10
98.428276650128367
 20
245.90371931523109
 30
0.0
 11
101.54561765012831
 21
245.90371931523109
 31
0.0
  0
LINE
  5
520
  8
025
  6
CONTINUOUS
 62
     4
 10
95.046552650128305
 20
245.90371931523109
 30
0.0
 11
96.660467650128354
 21
245.90371931523109
 31
0.0
  0
LINE
  5
521
  8
025
  6
CONTINUOUS
 62
     4
 10
95.113634650128361
 20
247.4032993152311
 30
0.0
 11
102.3427106501282
 21
247.4032993152311
 31
0.0
  0
LINE
  5
522
  8
025
  6
CONTINUOUS
 62
     4
 10
96.08040565012837
 20
248.90287831523111
 30
0.0
 11
102.93066465012831
 21
248.90287831523111
 31
0.0
  0
LINE
  5
523
  8
025
  6
CONTINUOUS
 62
     4
 10
96.332949650128356
 20
250.40245731523109
 30
0.0
 11
103.0174766501283
 21
250.40245731523109
 31
0.0
  0
LINE
  5
524
  8
025
  6
CONTINUOUS
 62
     4
 10
96.838037650128385
 20
251.9020373152311
 30
0.0
 11
102.5123886501283
 21
251.9020373152311
 31
0.0
  0
LINE
  5
525
  8
025
  6
CONTINUOUS
 62
     4
 10
96.838037650128385
 20
253.40161631523111
 30
0.0
 11
103.8974356501284
 21
253.40161631523111
 31
0.0
  0
LINE
  5
526
  8
025
  6
CONTINUOUS
 62
     4
 10
97.173447650128409
 20
254.90119631523109
 30
0.0
 11
103.8145696501284
 21
254.90119631523109
 31
0.0
  0
LINE
  5
527
  8
025
  6
CONTINUOUS
 62
     4
 10
97.844267650128387
 20
256.40077531523099
 30
0.0
 11
103.8579756501284
 21
256.40077531523099
 31
0.0
  0
LINE
  5
528
  8
025
  6
CONTINUOUS
 62
     4
 10
97.931080650128408
 20
257.90035531523108
 30
0.0
 11
103.7317036501284
 21
257.90035531523108
 31
0.0
  0
LINE
  5
529
  8
025
  6
CONTINUOUS
 62
     4
 10
97.804807650128396
 20
259.39993431523112
 30
0.0
 11
103.7711636501284
 21
259.39993431523112
 31
0.0
  0
LINE
  5
52A
  8
0
  6
CONTINUOUS
 62
     4
 10
117.9667926501284
 20
261.69928931523111
 30
0.0
 11
137.53332465012841
 21
261.69928931523111
 31
0.0
  0
LINE
  5
52B
  8
0
  6
CONTINUOUS
 62
     4
 10
121.07909512363911
 20
77.14419200663113
 30
0.0
 11
137.53332465012829
 21
77.14419200663113
 31
0.0
  0
LINE
  5
52C
  8
0
  6
CONTINUOUS
 62
     4
 10
136.7333246501284
 20
258.19928931523111
 30
0.0
 11
136.73332465012831
 21
80.64419200663113
 31
0.0
  0
LINE
  5
52D
  8
0
  6
CONTINUOUS
 62
     4
 10
137.31665765012829
 20
258.19928931523111
 30
0.0
 11
136.7333246501284
 21
261.69928931523111
 31
0.0
  0
LINE
  5
52E
  8
0
  6
CONTINUOUS
 62
     4
 10
136.7333246501284
 20
261.69928931523111
 30
0.0
 11
136.14999165012841
 21
258.19928931523111
 31
0.0
  0
LINE
  5
52F
  8
0
  6
CONTINUOUS
 62
     4
 10
136.14999165012841
 20
258.19928931523111
 30
0.0
 11
137.31665765012829
 21
258.19928931523111
 31
0.0
  0
SOLID
  5
530
  8
0
  6
CONTINUOUS
 62
     4
 10
136.14999165012841
 20
258.19928916323107
 30
0.0
 11
137.31665765012829
 21
258.19928916323107
 31
0.0
 12
136.7333246501284
 22
261.69928931523111
 32
0.0
 13
136.7333246501284
 23
261.69928931523111
 33
0.0
  0
LINE
  5
531
  8
0
  6
CONTINUOUS
 62
     4
 10
137.31665765012829
 20
80.64419200663113
 30
0.0
 11
136.73332465012831
 21
77.14419200663113
 31
0.0
  0
LINE
  5
532
  8
0
  6
CONTINUOUS
 62
     4
 10
136.73332465012831
 20
77.14419200663113
 30
0.0
 11
136.1499916501283
 21
80.64419200663113
 31
0.0
  0
LINE
  5
533
  8
0
  6
CONTINUOUS
 62
     4
 10
136.1499916501283
 20
80.64419200663113
 30
0.0
 11
137.31665765012829
 21
80.64419200663113
 31
0.0
  0
SOLID
  5
534
  8
0
  6
CONTINUOUS
 62
     4
 10
137.31665765012829
 20
80.64419200663113
 30
0.0
 11
136.1499916501283
 21
80.64419200663113
 31
0.0
 12
136.73332465012831
 22
77.14419200663113
 32
0.0
 13
136.73332465012831
 23
77.14419200663113
 33
0.0
  0
LINE
  5
535
  8
0
  6
CONTINUOUS
 62
     4
 10
79.910757410418199
 20
75.813574106922744
 30
0.0
 11
79.910757410418185
 21
59.888599429728231
 31
0.0
  0
LINE
  5
537
  8
0
  6
CONTINUOUS
 62
     4
 10
83.410757410418185
 20
60.688599429728242
 30
0.0
 11
114.4001024104181
 21
60.688599429728221
 31
0.0
  0
LINE
  5
538
  8
0
  6
CONTINUOUS
 62
     4
 10
83.410757410418185
 20
60.105266429728232
 30
0.0
 11
79.910757410418185
 21
60.688599429728242
 31
0.0
  0
LINE
  5
539
  8
0
  6
CONTINUOUS
 62
     4
 10
79.910757410418185
 20
60.688599429728242
 30
0.0
 11
83.410757410418185
 21
61.271933429728222
 31
0.0
  0
LINE
  5
53A
  8
0
  6
CONTINUOUS
 62
     4
 10
83.410757410418185
 20
61.271933429728222
 30
0.0
 11
83.410757410418185
 21
60.105266429728232
 31
0.0
  0
SOLID
  5
53B
  8
0
  6
CONTINUOUS
 62
     4
 10
79.910757410418185
 20
60.688599429728242
 30
0.0
 11
83.410757410418185
 21
60.105266429728232
 31
0.0
 12
83.410757410418185
 22
61.271933429728222
 32
0.0
 13
83.410757410418185
 23
61.271933429728222
 33
0.0
  0
LINE
  5
53C
  8
0
  6
CONTINUOUS
 62
     4
 10
114.6662316501284
 20
60.105266429728232
 30
0.0
 11
118.1662316501284
 21
60.688599429728221
 31
0.0
  0
LINE
  5
53D
  8
0
  6
CONTINUOUS
 62
     4
 10
118.1662316501284
 20
60.688599429728221
 30
0.0
 11
114.6662316501284
 21
61.271933429728207
 31
0.0
  0
LINE
  5
53E
  8
0
  6
CONTINUOUS
 62
     4
 10
114.6662316501284
 20
61.271933429728207
 30
0.0
 11
114.6662316501284
 21
60.105266429728232
 31
0.0
  0
SOLID
  5
53F
  8
0
  6
CONTINUOUS
 62
     4
 10
118.1662316501284
 20
60.688599429728221
 30
0.0
 11
114.6662316501284
 21
61.271933429728207
 31
0.0
 12
114.6662316501284
 22
60.105266429728232
 32
0.0
 13
114.6662316501284
 23
60.105266429728232
 33
0.0
  0
TEXT
  5
574
  8
05
  6
CONTINUOUS
 62
     4
 10
155.0
 20
11.0
 30
0.0
 40
1.5
  1
Zeichn. Nr.
 41
0.8598901098923084
 51
15.0
 72
     5
 11
166.17857142860001
 21
11.0
 31
0.0
  0
TEXT
  5
575
  8
05
  6
CONTINUOUS
 62
     4
 10
155.0
 20
28.0
 30
0.0
 40
1.5
  1
Ersetzt durch:         Blatt
 41
0.7331536388150944
 51
15.0
 72
     5
 11
184.1428571429
 21
28.0
 31
0.0
  0
TEXT
  5
576
  8
05
  6
CONTINUOUS
 62
     4
 10
155.0
 20
43.0
 30
0.0
 40
1.5
  1
Gezeichnet
 41
0.7566137566148143
 51
15.0
 72
     5
 11
165.21428571429999
 21
43.0
 31
0.0
  0
TEXT
  5
577
  8
05
  6
CONTINUOUS
 62
     4
 10
155.0
 20
32.0
 30
0.0
 40
1.5
  1
Gesehen
 41
0.7607142857099998
 51
15.0
 72
     5
 11
162.6071428571
 21
32.0
 31
0.0
  0
TEXT
  5
578
  8
05
  6
CONTINUOUS
 62
     4
 10
174.0
 20
47.0
 30
0.0
 40
1.5
  1
Datum     Name
 41
0.7979094076634147
 51
15.0
 72
     5
 11
190.3571428571
 21
47.0
 31
0.0
  0
TEXT
  5
579
  8
05
  6
CONTINUOUS
 62
     4
 10
114.0
 20
47.0
 30
0.0
 40
1.5
  1
Werkstoff:      Massstab:
 41
0.7484909456732389
 51
15.0
 72
     5
 11
140.57142857139999
 21
47.0
 31
0.0
  0
TEXT
  5
57A
  8
05
  6
CONTINUOUS
 62
     4
 10
73.0
 20
28.0
 30
0.0
 40
1.5
  1
Benennung:
 41
0.7619047619037027
 51
15.0
 72
     5
 11
83.285714285699996
 21
28.0
 31
0.0
  0
TEXT
  5
57B
  8
05
  6
CONTINUOUS
 62
     4
 10
73.0
 20
44.0
 30
0.0
 40
1.5
  1
*)Lieferant darf ohne 
 41
0.70294784580635
 51
15.0
 72
     5
 11
95.142857142900013
 21
44.0
 31
0.0
  0
TEXT
  5
57C
  8
05
  6
CONTINUOUS
 62
     4
 10
73.0
 20
41.5
 30
0.0
 40
1.5
  1
 Ruecksprache nicht 
 41
0.721674876848276
 51
15.0
 72
     5
 11
93.928571428599994
 21
41.5
 31
0.0
  0
TEXT
  5
57D
  8
05
  6
CONTINUOUS
 62
     4
 10
73.0
 20
39.0
 30
0.0
 40
1.5
  1
 geaendert werden
 41
0.7371428571440006
 51
15.0
 72
     5
 11
91.428571428599994
 21
39.0
 31
0.0
  0
TEXT
  5
57E
  8
05
  6
CONTINUOUS
 62
     4
 10
73.0
 20
35.0
 30
0.0
 40
1.5
  1
Zeichnung urheberrechtlich
 41
0.736263736262937
 51
15.0
 72
     5
 11
99.321428571400006
 21
35.0
 31
0.0
  0
TEXT
  5
57F
  8
05
  6
CONTINUOUS
 62
     4
 10
73.0
 20
32.5
 30
0.0
 40
1.5
  1
geschuetzt (DIN 34) (C)
 41
0.7392290249428565
 51
15.0
 72
     5
 11
96.285714285699996
 21
32.5
 31
0.0
  0
TEXT
  5
580
  8
05
  6
CONTINUOUS
 62
     4
 10
155.0
 20
37.0
 30
0.0
 40
1.5
  1
Geprueft
 41
0.7080745341652176
 51
15.0
 72
     5
 11
163.1428571429
 21
37.0
 31
0.0
  0
TEXT
  5
581
  8
05
  6
CONTINUOUS
 62
     4
 10
155.0
 20
20.0
 30
0.0
 40
1.5
  1
Ersatz fuer:           von  Blatt
 41
0.7414965986391535
 51
15.0
 72
     5
 11
190.03571428570001
 21
20.0
 31
0.0
  0
TEXT
  5
582
  8
05
  6
CONTINUOUS
 62
     4
 10
8.0
 20
6.0
 30
0.0
 40
1.5
  1
Ind.  Aenderung             Datum   
 41
0.7748299319733331
 51
15.0
 72
     5
 11
48.678571428600002
 21
6.0
 31
0.0
  0
TEXT
  5
583
  8
05
  6
CONTINUOUS
 62
     4
 10
48.678571428600002
 20
6.0
 30
0.0
 40
1.5
  1
 Name
 41
0.8418367346857156
 51
15.0
 72
     5
 11
54.571428571399998
 21
6.0
 31
0.0
  0
TEXT
  5
584
  8
035
  6
CONTINUOUS
 62
     4
 10
127.423074
 20
8.2646359999999977
 30
0.0
 40
2.4848479999999991
  1
FL-9494 SCHAAN
 41
0.7979094076648046
 51
15.0
 72
     5
 11
154.51974980950001
 21
8.2646359999999977
 31
0.0
  0
TEXT
  5
585
  8
05
  6
CONTINUOUS
 62
     4
 10
190.84523809519999
 20
42.0
 30
0.0
 40
2.5
  1
Alinjak
 41
0.8482142857199974
 72
     5
 11
202.15476190480001
 21
42.0
 31
0.0
  0
TEXT
  5
586
  8
05
  6
CONTINUOUS
 62
     4
 10
173.625
 20
42.0
 30
0.0
 40
2.5
  1
15.05.98
 41
0.9428571428571428
 51
15.0
 72
     5
 11
187.375
 21
42.0
 31
0.0
  0
TEXT
  5
587
  8
05
  6
CONTINUOUS
 62
     2
 10
103.7142857143
 20
17.5
 30
0.0
 40
5.0
  1
NA3JJ
 41
0.7959183673457141
 51
15.0
 72
     5
 11
122.2857142857
 21
17.5
 31
0.0
  0
TEXT
  5
588
  8
05
  6
CONTINUOUS
 62
     3
 10
167.574781
 20
6.9765410000000001
 30
0.0
 40
3.5
  1
3102 St 03 07
 41
0.8148893360160965
 51
15.0
 72
     5
 11
201.324781
 21
6.9765410000000001
 31
0.0
  0
TEXT
  5
589
  8
05
  6
CONTINUOUS
 62
     2
 10
140.1482807143
 20
39.656056
 30
0.0
 40
5.0
  1
2:1
 41
1.0285714285679981
 51
15.0
 72
     5
 11
148.71970928569999
 21
39.656056
 31
0.0
  0
TEXT
  5
58A
  8
035
  6
CONTINUOUS
 62
     3
 10
90.877609000000007
 20
274.49009899999999
 30
0.0
 40
6.0
  1
NA3JJ
 41
0.7959183673464284
 51
10.0
 72
     5
 11
113.1633232857
 21
274.49009899999999
 31
0.0
  0
TEXT
  5
58B
  8
0
  6
CONTINUOUS
 62
     3
 10
134.63493762250491
 20
151.18424564856451
 30
0.0
 40
3.5
  1
78.0 [3.071"]
 50
90.0
 51
15.0
 72
     1
 11
134.63493762250491
 21
168.10091231523111
 31
0.0
  0
TEXT
  5
58C
  8
0
  6
CONTINUOUS
 62
     3
 10
83.445717990789248
 20
63.003701935021169
 30
0.0
 40
3.5
  1
%%c19.0 [0.748"]
 41
0.8
 51
15.0
 72
     1
 11
98.379051324122585
 21
63.003701935021169
 31
0.0
  0
LINE
  5
5A4
  8
010
  6
CONTINUOUS
 62
     7
 10
103.3528866501283
 20
86.941444006631158
 30
0.0
 11
103.8974356501283
 21
86.941444006631158
 31
0.0
  0
LINE
  5
5A5
  8
010
  6
CONTINUOUS
 62
     7
 10
103.4791586501283
 20
88.441024006631153
 30
0.0
 11
103.8579756501283
 21
88.441024006631153
 31
0.0
  0
LINE
  5
5A6
  8
010
  6
CONTINUOUS
 62
     7
 10
103.56202465012829
 20
89.94060300663115
 30
0.0
 11
103.8579756501283
 21
89.94060300663115
 31
0.0
  0
LINE
  5
5A7
  8
010
  6
CONTINUOUS
 62
     7
 10
103.2700206501284
 20
91.440182006631105
 30
0.0
 11
103.81456965012831
 21
91.440182006631105
 31
0.0
  0
LINE
  5
5A8
  8
010
  6
CONTINUOUS
 62
     7
 10
102.5952546501283
 20
92.93976200663117
 30
0.0
 11
103.6054306501283
 21
92.93976200663117
 31
0.0
  0
LINE
  5
5A9
  8
010
  6
CONTINUOUS
 62
     7
 10
94.17296065012836
 20
89.94060300663115
 30
0.0
 11
95.030768650128309
 21
89.94060300663115
 31
0.0
  0
LINE
  5
5AA
  8
010
  6
CONTINUOUS
 62
     7
 10
94.17296065012836
 20
88.441024006631153
 30
0.0
 11
95.492450650128347
 21
88.441024006631153
 31
0.0
  0
LINE
  5
5AB
  8
010
  6
CONTINUOUS
 62
     7
 10
94.17296065012836
 20
86.941444006631158
 30
0.0
 11
95.954132650128344
 21
86.941444006631158
 31
0.0
  0
LINE
  5
5AC
  8
010
  6
CONTINUOUS
 62
     7
 10
94.17296065012836
 20
85.441865006631133
 30
0.0
 11
96.206677650128341
 21
85.441865006631133
 31
0.0
  0
LINE
  5
5AD
  8
010
  6
CONTINUOUS
 62
     7
 10
94.17296065012836
 20
83.942285006631124
 30
0.0
 11
96.668359650128366
 21
83.942285006631124
 31
0.0
  0
LINE
  5
5AE
  8
010
  6
CONTINUOUS
 62
     7
 10
94.17296065012836
 20
82.442706006631141
 30
0.0
 11
96.92090365012838
 21
82.442706006631141
 31
0.0
  0
LINE
  5
5AF
  8
010
  6
CONTINUOUS
 62
     7
 10
94.17296065012836
 20
80.943126006631104
 30
0.0
 11
96.964309650128371
 21
80.943126006631104
 31
0.0
  0
LINE
  5
5B0
  8
010
  6
CONTINUOUS
 62
     7
 10
94.17296065012836
 20
79.443547006631121
 30
0.0
 11
97.003769650128362
 21
79.443547006631121
 31
0.0
  0
LINE
  5
5B1
  8
05
  6
CONTINUOUS
 62
     2
 10
104.1701576501283
 20
77.14419200663113
 30
0.0
 11
104.1701576501283
 21
92.139986006631133
 31
0.0
  0
LINE
  5
5B2
  8
05
  6
CONTINUOUS
 62
     2
 10
94.17296065012836
 20
92.139986006631133
 30
0.0
 11
94.17296065012836
 21
77.14419200663113
 31
0.0
  0
ARC
  5
5B3
  8
07
  6
CONTINUOUS
 62
     2
 10
116.1667926501283
 20
79.143631006631125
 30
0.0
 40
1.9994389999999991
 50
270.0
 51
0.0
  0
ARC
  5
5B4
  8
07
  6
CONTINUOUS
 62
     2
 10
82.176325650128334
 20
79.143631006631153
 30
0.0
 40
1.9994389999999991
 50
180.0
 51
270.0
  0
LINE
  5
5B5
  8
07
  6
CONTINUOUS
 62
     2
 10
80.176886650128353
 20
166.11923800663109
 30
0.0
 11
80.176886650128353
 21
79.143631006631153
 31
0.0
  0
ARC
  5
5B6
  8
05
  6
CONTINUOUS
 62
     2
 10
99.171559650128358
 20
100.137743006631
 30
0.0
 40
3.9988790000000001
 50
0.0
 51
180.0
  0
LINE
  5
5B7
  8
05
  6
CONTINUOUS
 62
     2
 10
103.17043765012841
 20
95.139145006631168
 30
0.0
 11
103.17043765012841
 21
100.1377460066311
 31
0.0
  0
LINE
  5
5B8
  8
05
  6
CONTINUOUS
 62
     2
 10
95.172680650128314
 20
100.1377470066311
 30
0.0
 11
95.172680650128314
 21
95.139145006631168
 31
0.0
  0
ARC
  5
5B9
  8
05
  6
CONTINUOUS
 62
     2
 10
99.171559650128358
 20
92.139986006631133
 30
0.0
 40
4.9985980000000003
 50
0.0
 51
180.0
  0
LINE
  5
5BA
  8
07
  6
CONTINUOUS
 62
     2
 10
118.1662316501283
 20
79.143631006631125
 30
0.0
 11
118.1662316501283
 21
166.11923800663109
 31
0.0
  0
LINE
  5
5BB
  8
07
  6
CONTINUOUS
 62
     2
 10
82.176325650128334
 20
77.14419200663113
 30
0.0
 11
116.1667926501283
 21
77.14419200663113
 31
0.0
  0
LINE
  5
5BC
  8
07
  6
CONTINUOUS
 62
     2
 10
81.177645498528335
 20
167.11999530963109
 30
0.0
 11
117.2049640409283
 21
167.11999530963109
 31
0.0
  0
ARC
  5
5BD
  8
07
  6
CONTINUOUS
 62
     2
 10
81.177645498528335
 20
166.11923646123111
 30
0.0
 40
1.0007588484000001
 50
90.0
 51
180.0
  0
ARC
  5
5BE
  8
07
  6
CONTINUOUS
 62
     2
 10
117.2049640409283
 20
166.11923646123111
 30
0.0
 40
1.0007588484000001
 50
0.0
 51
90.0
  0
LINE
  5
5BF
  8
035
  6
CONTINUOUS
 62
     3
 10
104.1701576501283
 20
85.141949006631094
 30
0.0
 11
111.0002386501283
 21
85.141949006631094
 31
0.0
  0
LINE
  5
5C0
  8
035
  6
CONTINUOUS
 62
     3
 10
80.176886650128353
 20
85.141949006631094
 30
0.0
 11
94.17296065012836
 21
85.141949006631094
 31
0.0
  0
LINE
  5
5C1
  8
035
  6
CONTINUOUS
 62
     3
 10
113.09556565012829
 20
85.141949006631094
 30
0.0
 11
114.1412566501283
 21
85.141949006631094
 31
0.0
  0
LINE
  5
5C2
  8
035
  6
CONTINUOUS
 62
     3
 10
116.2365836501284
 20
85.141949006631094
 30
0.0
 11
118.1662316501283
 21
85.141949006631094
 31
0.0
  0
LINE
  5
5C3
  8
025
  6
CONTINUOUS
 62
     4
 10
98.428276650128367
 20
92.93976200663117
 30
0.0
 11
101.54561765012831
 21
92.93976200663117
 31
0.0
  0
LINE
  5
5C4
  8
025
  6
CONTINUOUS
 62
     4
 10
95.046552650128305
 20
92.93976200663117
 30
0.0
 11
96.660467650128354
 21
92.93976200663117
 31
0.0
  0
LINE
  5
5C5
  8
025
  6
CONTINUOUS
 62
     4
 10
95.113634650128361
 20
91.440182006631105
 30
0.0
 11
102.3427106501282
 21
91.440182006631105
 31
0.0
  0
LINE
  5
5C6
  8
025
  6
CONTINUOUS
 62
     4
 10
96.08040565012837
 20
89.94060300663115
 30
0.0
 11
102.93066465012831
 21
89.94060300663115
 31
0.0
  0
LINE
  5
5C7
  8
025
  6
CONTINUOUS
 62
     4
 10
96.332949650128356
 20
88.441024006631153
 30
0.0
 11
103.0174766501283
 21
88.441024006631153
 31
0.0
  0
LINE
  5
5C8
  8
025
  6
CONTINUOUS
 62
     4
 10
96.838037650128385
 20
86.941444006631158
 30
0.0
 11
102.5123886501283
 21
86.941444006631158
 31
0.0
  0
LINE
  5
5C9
  8
025
  6
CONTINUOUS
 62
     4
 10
96.838037650128385
 20
85.441865006631133
 30
0.0
 11
103.8974356501283
 21
85.441865006631133
 31
0.0
  0
LINE
  5
5CA
  8
025
  6
CONTINUOUS
 62
     4
 10
97.173447650128367
 20
83.942285006631124
 30
0.0
 11
103.81456965012831
 21
83.942285006631124
 31
0.0
  0
LINE
  5
5CB
  8
025
  6
CONTINUOUS
 62
     4
 10
97.844267650128359
 20
82.442706006631141
 30
0.0
 11
103.8579756501283
 21
82.442706006631141
 31
0.0
  0
LINE
  5
5CC
  8
025
  6
CONTINUOUS
 62
     4
 10
97.931080650128365
 20
80.943126006631104
 30
0.0
 11
103.7317036501283
 21
80.943126006631104
 31
0.0
  0
LINE
  5
5CD
  8
025
  6
CONTINUOUS
 62
     4
 10
97.804807650128367
 20
79.443547006631121
 30
0.0
 11
103.7711636501283
 21
79.443547006631121
 31
0.0
  0
LINE
  5
5CE
  8
0
  6
CONTINUOUS
 62
     4
 10
118.1662316501284
 20
74.216505109980758
 30
0.0
 11
118.1662316501284
 21
59.888599429728231
 31
0.0
  0
ENDSEC
  0
EOF
