999
DXF file: nktt0x.dxf
999
Pro/ENGINEER 2001040 by Parametric Technology Corporation
0
SECTION
2
HEADER
9
$ACADVER
1
AC1012
9
$EXTMAX
10
297.0000000000
20
210.0000000000
9
$EXTMIN
10
0.0000000000
20
0.0000000000
9
$LIMMIN
10
0.0000000000
20
0.0000000000
9
$LIMMAX
10
297.0000000000
20
210.0000000000
9
$VIEWCTR
10
148.5000000000
20
105.0000000000
9
$VIEWSIZE
40
210.0000000000
9
$CLAYER
8
0
9
$LTSCALE
40
16.3350000000
9
$CELTYPE
6
BYLAYER
9
$DIMSCALE
40
1
9
$DIMASZ
40
3.5000000000
9
$DIMEXO
40
1.8562500000
9
$DIMDLI
40
11.2860000000
9
$DIMEXE
40
5.3460000000
9
$DIMCEN
40
2.6730000000
9
$DIMTXT
40
3.3561662946
9
$DIMLFAC
40
1.0000000000
0
ENDSEC
0
SECTION
2
CLASSES
0
ENDSEC
0
SECTION
2
TABLES
0
TABLE
2
VPORT
5
1F4
100
AcDbSymbolTable
70
2
0
VPORT
5
1F5
100
AcDbSymbolTableRecord
100
AcDbViewportTableRecord
2
*ACTIVE
70
0
10
0.0
20
0.0
11
1.0
21
1.0
12
148.5000000000
22
105.0000000000
13
0.0
23
0.0
14
1.0
24
1.0
15
0.0
25
0.0
16
0.0
26
0.0
36
1.0
17
0.0
27
0.0
37
0.0
40
210.0000000000
41
1.4142857143
42
50.0
43
0.0
44
0.0
50
0.0
51
0.0
71
0
72
100
73
1
74
1
75
0
76
0
77
0
78
0
0
ENDTAB
0
TABLE
2
LTYPE
5
1F6
100
AcDbSymbolTable
70
6
0
LTYPE
5
1F7
100
AcDbSymbolTableRecord
100
AcDbLinetypeTableRecord
2
BYBLOCK
70
0
3

72
65
73
0
40
0.0
0
LTYPE
5
1F8
100
AcDbSymbolTableRecord
100
AcDbLinetypeTableRecord
2
BYLAYER
70
0
3

72
65
73
0
40
0.0
0
LTYPE
5
1F9
100
AcDbSymbolTableRecord
100
AcDbLinetypeTableRecord
2
CONTINUOUS
70
64
3
Solid line
72
65
73
0
40
0
0
LTYPE
5
1FA
100
AcDbSymbolTableRecord
100
AcDbLinetypeTableRecord
2
CENTER
70
64
3
____ _ ____ _ ____ _ ____ _ ____ _ ____ _ ____
72
65
73
4
40
0.6
49
0.375
74
0
49
-0.075
74
0
49
0.075
74
0
49
-0.075
74
0
0
LTYPE
5
1FB
100
AcDbSymbolTableRecord
100
AcDbLinetypeTableRecord
2
HIDDEN
70
64
3
- - - - - - - - - - - - - - - - - - - -
72
65
73
2
40
0.2
49
0.1
74
0
49
-0.1
74
0
0
LTYPE
5
1FC
100
AcDbSymbolTableRecord
100
AcDbLinetypeTableRecord
2
PHANTOM
70
64
3
_____ _ _ _____ _ _ _____ _ _ _____
72
65
73
6
40
0.8
49
0.45
74
0
49
-0.05
74
0
49
0.1
74
0
49
-0.05
74
0
49
0.1
74
0
49
-0.05
74
0
0
LTYPE
5
1FD
100
AcDbSymbolTableRecord
100
AcDbLinetypeTableRecord
2
DOT
70
64
3
. . . . . . . . . . . . . . . . . . . .
72
65
73
2
40
0.2
49
0.1
74
0
49
-0.1
74
0
0
LTYPE
5
1FE
100
AcDbSymbolTableRecord
100
AcDbLinetypeTableRecord
2
DASHED
70
64
3
- - - - - - - - - - - - - - - - - - - -
72
65
73
2
40
0.2
49
0.1
74
0
49
-0.1
74
0
0
ENDTAB
0
TABLE
2
LAYER
5
1FF
100
AcDbSymbolTable
70
36
0
LAYER
5
200
100
AcDbSymbolTableRecord
100
AcDbLayerTableRecord
2
0
70
0
62
7
6
CONTINUOUS
0
LAYER
5
201
100
AcDbSymbolTableRecord
100
AcDbLayerTableRecord
2
DEFAULT_1
70
0
62
7
6
CENTER
0
LAYER
5
202
100
AcDbSymbolTableRecord
100
AcDbLayerTableRecord
2
DEFAULT_2
70
0
62
8
6
HIDDEN
0
LAYER
5
203
100
AcDbSymbolTableRecord
100
AcDbLayerTableRecord
2
DEFAULT_3
70
0
62
7
6
PHANTOM
0
LAYER
5
204
100
AcDbSymbolTableRecord
100
AcDbLayerTableRecord
2
0
70
0
62
7
6
CONTINUOUS
0
LAYER
5
205
100
AcDbSymbolTableRecord
100
AcDbLayerTableRecord
2
010
70
0
62
7
6
CONTINUOUS
0
LAYER
5
206
100
AcDbSymbolTableRecord
100
AcDbLayerTableRecord
2
025
70
0
62
7
6
CONTINUOUS
0
LAYER
5
207
100
AcDbSymbolTableRecord
100
AcDbLayerTableRecord
2
035
70
0
62
7
6
CONTINUOUS
0
LAYER
5
208
100
AcDbSymbolTableRecord
100
AcDbLayerTableRecord
2
05
70
0
62
7
6
CONTINUOUS
0
LAYER
5
209
100
AcDbSymbolTableRecord
100
AcDbLayerTableRecord
2
BEM1
70
0
62
7
6
CONTINUOUS
0
LAYER
5
20A
100
AcDbSymbolTableRecord
100
AcDbLayerTableRecord
2
DEFPOINTS
70
0
62
7
6
CONTINUOUS
0
LAYER
5
20B
100
AcDbSymbolTableRecord
100
AcDbLayerTableRecord
2
MITTE
70
0
62
7
6
CONTINUOUS
0
LAYER
5
20C
100
AcDbSymbolTableRecord
100
AcDbLayerTableRecord
2
RAHMEN
70
0
62
7
6
CONTINUOUS
0
ENDTAB
0
TABLE
2
STYLE
5
20D
100
AcDbSymbolTable
70
1
0
STYLE
5
20E
100
AcDbSymbolTableRecord
100
AcDbTextStyleTableRecord
2
STANDARD
70
0
40
0.0
41
0.80
50
0.0
71
0
42
0.2
3
txt
4

0
ENDTAB
0
TABLE
2
VIEW
5
20F
100
AcDbSymbolTable
70
0
0
ENDTAB
0
TABLE
2
UCS
5
210
100
AcDbSymbolTable
70
0
0
ENDTAB
0
TABLE
2
APPID
5
211
100
AcDbSymbolTable
70
1
0
APPID
5
212
100
AcDbSymbolTableRecord
100
AcDbRegAppTableRecord
2
ACAD
70
0
0
ENDTAB
0
TABLE
2
DIMSTYLE
5
213
100
AcDbSymbolTable
0
DIMSTYLE
105
214
100
AcDbSymbolTableRecord
100
AcDbDimStyleTableRecord
2
STANDARD
70
0
3

4

5

6

7

40
1.0
41
0.18
42
0.0625
43
0.38
44
0.18
45
0.0
46
0.0
47
0.0
48
0.0
140
0.18
141
0.09
142
0.0
143
25.4
144
1.0
145
0.0
146
1.0
147
0.09
71
0
72
0
73
1
74
1
75
0
76
0
77
0
78
0
170
0
171
2
172
0
173
0
174
0
175
0
176
0
177
0
178
0
270
2
271
4
272
4
273
2
274
2
340
20E
275
0
280
0
281
0
282
0
283
1
284
0
285
0
286
0
287
3
288
0
0
ENDTAB
0
TABLE
2
BLOCK_RECORD
5
215
100
AcDbSymbolTable
70
0
0
BLOCK_RECORD
5
216
100
AcDbSymbolTableRecord
100
AcDbBlockTableRecord
2
*MODEL_SPACE
0
BLOCK_RECORD
5
217
100
AcDbSymbolTableRecord
100
AcDbBlockTableRecord
2
*PAPER_SPACE
0
ENDTAB
0
ENDSEC
0
SECTION
2
BLOCKS
0
BLOCK
5
218
100
AcDbEntity
8
0
100
AcDbBlockBegin
2
*MODEL_SPACE
70
0
10
0.0000000000
20
0.0000000000
3
*MODEL_SPACE
1

3
*MODEL_SPACE
1

0
ENDBLK
5
219
100
AcDbEntity
8
0
100
AcDbBlockEnd
0
BLOCK
5
21A
100
AcDbEntity
8
0
100
AcDbBlockBegin
2
*PAPER_SPACE
70
0
10
0.0000000000
20
0.0000000000
3
*PAPER_SPACE
1

3
*PAPER_SPACE
1

0
ENDBLK
5
21B
100
AcDbEntity
8
0
100
AcDbBlockEnd
0
ENDSEC
0
SECTION
2
ENTITIES
0
LINE
5
21C
100
AcDbEntity
8
0
100
AcDbLine
62
7
6
CONTINUOUS
10
0.0000000000
20
0.0000000000
11
297.0000000000
21
0.0000000000
0
LINE
5
21D
100
AcDbEntity
8
0
100
AcDbLine
62
7
6
CONTINUOUS
10
297.0000000000
20
0.0000000000
11
297.0000000000
21
210.0000000000
0
LINE
5
21E
100
AcDbEntity
8
0
100
AcDbLine
62
7
6
CONTINUOUS
10
0.0000000000
20
210.0000000000
11
297.0000000000
21
210.0000000000
0
LINE
5
21F
100
AcDbEntity
8
0
100
AcDbLine
62
7
6
CONTINUOUS
10
0.0000000000
20
0.0000000000
11
0.0000000000
21
210.0000000000
0
LINE
5
220
100
AcDbEntity
8
010
100
AcDbLine
62
7
6
CONTINUOUS
10
205.9603420000
20
125.4100520000
11
205.9603420000
21
129.2946640000
0
LINE
5
221
100
AcDbEntity
8
010
100
AcDbLine
62
7
6
CONTINUOUS
10
203.7359300000
20
129.6923890000
11
203.7359300000
21
130.6298850000
0
LINE
5
222
100
AcDbEntity
8
010
100
AcDbLine
62
7
6
CONTINUOUS
10
203.7359300000
20
131.5389720000
11
203.7359300000
21
131.8023110000
0
LINE
5
223
100
AcDbEntity
8
010
100
AcDbLine
62
7
6
CONTINUOUS
10
205.9603420000
20
130.7719300000
11
205.9603420000
21
131.0032780000
0
LINE
5
224
100
AcDbEntity
8
010
100
AcDbLine
62
7
6
CONTINUOUS
10
205.9603420000
20
129.9196600000
11
205.9603420000
21
130.5162490000
0
LINE
5
225
100
AcDbEntity
8
010
100
AcDbLine
62
7
6
CONTINUOUS
10
207.3586480000
20
125.4100520000
11
207.3586480000
21
129.4935260000
0
LINE
5
226
100
AcDbEntity
8
010
100
AcDbLine
62
7
6
CONTINUOUS
10
207.3586480000
20
130.0617060000
11
207.3586480000
21
130.4878400000
0
LINE
5
227
100
AcDbEntity
8
010
100
AcDbLine
62
7
6
CONTINUOUS
10
207.3586480000
20
130.7435210000
11
207.3586480000
21
131.0032780000
0
LINE
5
228
100
AcDbEntity
8
010
100
AcDbLine
62
7
6
CONTINUOUS
10
209.5830600000
20
131.4821540000
11
209.5830600000
21
131.8023110000
0
LINE
5
229
100
AcDbEntity
8
010
100
AcDbLine
62
7
6
CONTINUOUS
10
263.5306250000
20
126.3318530000
11
263.5306250000
21
126.1390370000
0
LINE
5
22A
100
AcDbEntity
8
010
100
AcDbLine
62
7
6
CONTINUOUS
10
263.5306250000
20
126.8372680000
11
263.5306250000
21
126.5138020000
0
LINE
5
22B
100
AcDbEntity
8
010
100
AcDbLine
62
7
6
CONTINUOUS
10
262.9313510000
20
126.6957510000
11
262.9313510000
21
126.3387960000
0
LINE
5
22C
100
AcDbEntity
8
010
100
AcDbLine
62
7
6
CONTINUOUS
10
102.9243230000
20
131.5389720000
11
102.9243230000
21
131.8023110000
0
LINE
5
22D
100
AcDbEntity
8
010
100
AcDbLine
62
7
6
CONTINUOUS
10
102.9243230000
20
129.6923890000
11
102.9243230000
21
130.6298850000
0
LINE
5
22E
100
AcDbEntity
8
010
100
AcDbLine
62
7
6
CONTINUOUS
10
97.0771920000
20
131.4821540000
11
97.0771920000
21
131.8023110000
0
LINE
5
22F
100
AcDbEntity
8
010
100
AcDbLine
62
7
6
CONTINUOUS
10
100.6999110000
20
125.4100520000
11
100.6999110000
21
129.2946640000
0
LINE
5
230
100
AcDbEntity
8
010
100
AcDbLine
62
7
6
CONTINUOUS
10
100.6999110000
20
129.9196600000
11
100.6999110000
21
130.5162490000
0
LINE
5
231
100
AcDbEntity
8
010
100
AcDbLine
62
7
6
CONTINUOUS
10
100.6999110000
20
130.7719300000
11
100.6999110000
21
131.0032780000
0
LINE
5
232
100
AcDbEntity
8
010
100
AcDbLine
62
7
6
CONTINUOUS
10
99.3016040000
20
125.4100520000
11
99.3016040000
21
129.4935260000
0
LINE
5
233
100
AcDbEntity
8
010
100
AcDbLine
62
7
6
CONTINUOUS
10
99.3016040000
20
130.7435210000
11
99.3016040000
21
131.0032780000
0
LINE
5
234
100
AcDbEntity
8
010
100
AcDbLine
62
7
6
CONTINUOUS
10
99.3016040000
20
130.0617060000
11
99.3016040000
21
130.4878400000
0
LINE
5
235
100
AcDbEntity
8
010
100
AcDbLine
62
7
6
CONTINUOUS
10
43.1296280000
20
126.1602860000
11
43.1296280000
21
129.2332120000
0
LINE
5
236
100
AcDbEntity
8
010
100
AcDbLine
62
7
6
CONTINUOUS
10
43.7289020000
20
126.3018030000
11
43.7289020000
21
129.4151610000
0
LINE
5
237
100
AcDbEntity
8
010
100
AcDbLine
62
7
6
CONTINUOUS
10
43.7289020000
20
129.7184110000
11
43.7289020000
21
130.0753670000
0
LINE
5
238
100
AcDbEntity
8
010
100
AcDbLine
62
7
6
CONTINUOUS
10
43.1296280000
20
129.5768940000
11
43.1296280000
21
129.9003610000
0
LINE
5
239
100
AcDbEntity
8
010
100
AcDbLine
62
7
6
CONTINUOUS
10
43.1296280000
20
130.0823100000
11
43.1296280000
21
130.2751250000
0
LINE
5
23A
100
AcDbEntity
8
MITTE
100
AcDbLine
62
4
6
CENTER
10
269.2161650000
20
128.2070810000
11
202.3646960000
21
128.2070810000
0
LINE
5
23B
100
AcDbEntity
8
MITTE
100
AcDbLine
62
4
6
CENTER
10
37.4440880000
20
128.2070810000
11
104.2955570000
21
128.2070810000
0
LINE
5
23C
100
AcDbEntity
8
RAHMEN
100
AcDbLine
62
2
6
CONTINUOUS
10
5.0000000000
20
5.0000000000
11
292.0000000000
21
5.0000000000
0
LINE
5
23D
100
AcDbEntity
8
RAHMEN
100
AcDbLine
62
2
6
CONTINUOUS
10
292.0000000000
20
5.0000000000
11
292.0000000000
21
205.0000000000
0
LINE
5
23E
100
AcDbEntity
8
RAHMEN
100
AcDbLine
62
2
6
CONTINUOUS
10
292.0000000000
20
205.0000000000
11
5.0000000000
21
205.0000000000
0
LINE
5
23F
100
AcDbEntity
8
RAHMEN
100
AcDbLine
62
2
6
CONTINUOUS
10
5.0000000000
20
205.0000000000
11
5.0000000000
21
5.0000000000
0
LINE
5
240
100
AcDbEntity
8
05
100
AcDbLine
62
2
6
CONTINUOUS
10
241.0000000000
20
5.0000000000
11
241.0000000000
21
51.0000000000
0
LINE
5
241
100
AcDbEntity
8
05
100
AcDbLine
62
2
6
CONTINUOUS
10
275.0000000000
20
14.0000000000
11
275.0000000000
21
51.0000000000
0
LINE
5
242
100
AcDbEntity
8
05
100
AcDbLine
62
2
6
CONTINUOUS
10
260.0000000000
20
31.0000000000
11
260.0000000000
21
51.0000000000
0
LINE
5
243
100
AcDbEntity
8
05
100
AcDbLine
62
2
6
CONTINUOUS
10
159.0000000000
20
46.0000000000
11
200.0000000000
21
46.0000000000
0
LINE
5
244
100
AcDbEntity
8
05
100
AcDbLine
62
2
6
CONTINUOUS
10
147.0000000000
20
5.0000000000
11
147.0000000000
21
51.0000000000
0
LINE
5
245
100
AcDbEntity
8
05
100
AcDbLine
62
2
6
CONTINUOUS
10
134.0000000000
20
5.0000000000
11
134.0000000000
21
51.0000000000
0
LINE
5
246
100
AcDbEntity
8
05
100
AcDbLine
62
2
6
CONTINUOUS
10
92.0000000000
20
11.0000000000
11
159.0000000000
21
11.0000000000
0
LINE
5
247
100
AcDbEntity
8
05
100
AcDbLine
62
2
6
CONTINUOUS
10
159.0000000000
20
38.0000000000
11
200.0000000000
21
38.0000000000
0
LINE
5
248
100
AcDbEntity
8
05
100
AcDbLine
62
2
6
CONTINUOUS
10
101.0000000000
20
5.0000000000
11
101.0000000000
21
51.0000000000
0
LINE
5
249
100
AcDbEntity
8
05
100
AcDbLine
62
2
6
CONTINUOUS
10
159.0000000000
20
5.0000000000
11
159.0000000000
21
51.0000000000
0
LINE
5
24A
100
AcDbEntity
8
05
100
AcDbLine
62
2
6
CONTINUOUS
10
200.0000000000
20
31.0000000000
11
200.0000000000
21
51.0000000000
0
LINE
5
24B
100
AcDbEntity
8
05
100
AcDbLine
62
2
6
CONTINUOUS
10
223.0000000000
20
31.0000000000
11
223.0000000000
21
51.0000000000
0
LINE
5
24C
100
AcDbEntity
8
05
100
AcDbLine
62
2
6
CONTINUOUS
10
292.0000000000
20
5.0000000000
11
292.0000000000
21
51.0000000000
0
LINE
5
24D
100
AcDbEntity
8
05
100
AcDbLine
62
2
6
CONTINUOUS
10
92.0000000000
20
51.0000000000
11
92.0000000000
21
5.0000000000
0
LINE
5
24E
100
AcDbEntity
8
05
100
AcDbLine
62
2
6
CONTINUOUS
10
292.0000000000
20
14.0000000000
11
159.0000000000
21
14.0000000000
0
LINE
5
24F
100
AcDbEntity
8
05
100
AcDbLine
62
2
6
CONTINUOUS
10
292.0000000000
20
23.0000000000
11
241.0000000000
21
23.0000000000
0
LINE
5
250
100
AcDbEntity
8
05
100
AcDbLine
62
2
6
CONTINUOUS
10
292.0000000000
20
31.0000000000
11
159.0000000000
21
31.0000000000
0
LINE
5
251
100
AcDbEntity
8
05
100
AcDbLine
62
2
6
CONTINUOUS
10
292.0000000000
20
36.0000000000
11
241.0000000000
21
36.0000000000
0
LINE
5
252
100
AcDbEntity
8
05
100
AcDbLine
62
2
6
CONTINUOUS
10
292.0000000000
20
41.0000000000
11
241.0000000000
21
41.0000000000
0
LINE
5
253
100
AcDbEntity
8
05
100
AcDbLine
62
2
6
CONTINUOUS
10
292.0000000000
20
46.0000000000
11
241.0000000000
21
46.0000000000
0
LINE
5
254
100
AcDbEntity
8
05
100
AcDbLine
62
2
6
CONTINUOUS
10
292.0000000000
20
51.0000000000
11
92.0000000000
21
51.0000000000
0
LINE
5
255
100
AcDbEntity
8
05
100
AcDbLine
62
2
6
CONTINUOUS
10
222.0408680000
20
132.0029020000
11
243.9543650000
21
132.0029020000
0
LINE
5
256
100
AcDbEntity
8
05
100
AcDbLine
62
2
6
CONTINUOUS
10
222.0408680000
20
124.4120940000
11
243.9543320000
21
124.4120940000
0
LINE
5
257
100
AcDbEntity
8
05
100
AcDbLine
62
2
6
CONTINUOUS
10
205.9603420000
20
131.2038690000
11
207.3586480000
21
131.2038690000
0
LINE
5
258
100
AcDbEntity
8
05
100
AcDbLine
62
2
6
CONTINUOUS
10
205.9603420000
20
125.2111260000
11
207.3586480000
21
125.2111260000
0
LINE
5
259
100
AcDbEntity
8
05
100
AcDbLine
62
2
6
CONTINUOUS
10
202.7642120000
20
131.6533240000
11
202.7642120000
21
124.6733060000
0
ARC
5
25A
100
AcDbEntity
8
05
100
AcDbCircle
62
2
6
CONTINUOUS
10
203.7359300000
20
124.9114890000
40
0.4993950000
100
AcDbArc
50
270.0000000000
51
309.5176530000
0
ARC
5
25B
100
AcDbEntity
8
05
100
AcDbCircle
62
2
6
CONTINUOUS
10
205.9603420000
20
122.2147550000
40
2.9963710000
100
AcDbArc
50
90.0000000000
51
129.5176530000
0
ARC
5
25C
100
AcDbEntity
8
05
100
AcDbCircle
62
2
6
CONTINUOUS
10
203.0638490000
20
124.7117310000
40
0.2996370000
100
AcDbArc
50
180.0000000000
51
270.0000000000
0
LINE
5
25D
100
AcDbEntity
8
05
100
AcDbLine
62
2
6
CONTINUOUS
10
202.7642120000
20
124.7117310000
11
202.7642120000
21
124.7616710000
0
LINE
5
25E
100
AcDbEntity
8
05
100
AcDbLine
62
2
6
CONTINUOUS
10
203.0638490000
20
124.4120940000
11
203.7359300000
21
124.4120940000
0
ARC
5
25F
100
AcDbEntity
8
05
100
AcDbCircle
62
2
6
CONTINUOUS
10
203.7359300000
20
131.5035070000
40
0.4993950000
100
AcDbArc
50
50.4823470000
51
90.0000000000
0
ARC
5
260
100
AcDbEntity
8
05
100
AcDbCircle
62
2
6
CONTINUOUS
10
205.9603420000
20
134.2002410000
40
2.9963710000
100
AcDbArc
50
230.4823470000
51
270.0000000000
0
LINE
5
261
100
AcDbEntity
8
05
100
AcDbLine
62
2
6
CONTINUOUS
10
203.0638490000
20
132.0029020000
11
203.7359300000
21
132.0029020000
0
LINE
5
262
100
AcDbEntity
8
05
100
AcDbLine
62
2
6
CONTINUOUS
10
202.7642120000
20
131.7032650000
11
202.7642120000
21
131.6533250000
0
ARC
5
263
100
AcDbEntity
8
05
100
AcDbCircle
62
2
6
CONTINUOUS
10
203.0638490000
20
131.7032650000
40
0.2996370000
100
AcDbArc
50
90.0000000000
51
180.0000000000
0
ARC
5
264
100
AcDbEntity
8
05
100
AcDbCircle
62
2
6
CONTINUOUS
10
222.0408680000
20
131.7032650000
40
0.2996370000
100
AcDbArc
50
90.0000000000
51
180.0000000000
0
ARC
5
265
100
AcDbEntity
8
05
100
AcDbCircle
62
2
6
CONTINUOUS
10
222.0408680000
20
124.7117310000
40
0.2996370000
100
AcDbArc
50
180.0000000000
51
270.0000000000
0
LINE
5
266
100
AcDbEntity
8
05
100
AcDbLine
62
2
6
CONTINUOUS
10
221.7412310000
20
131.7032650000
11
221.7412310000
21
124.7117310000
0
LINE
5
267
100
AcDbEntity
8
05
100
AcDbLine
62
2
6
CONTINUOUS
10
209.5830600000
20
124.4120940000
11
221.4415940000
21
124.4120940000
0
ARC
5
268
100
AcDbEntity
8
05
100
AcDbCircle
62
2
6
CONTINUOUS
10
207.3586480000
20
122.2147550000
40
2.9963710000
100
AcDbArc
50
50.4823470000
51
90.0000000000
0
ARC
5
269
100
AcDbEntity
8
05
100
AcDbCircle
62
2
6
CONTINUOUS
10
209.5830600000
20
124.9114890000
40
0.4993950000
100
AcDbArc
50
230.4823470000
51
270.0000000000
0
ARC
5
26A
100
AcDbEntity
8
05
100
AcDbCircle
62
2
6
CONTINUOUS
10
221.4415940000
20
124.7117310000
40
0.2996370000
100
AcDbArc
50
270.0000000000
51
360.0000000000
0
LINE
5
26B
100
AcDbEntity
8
05
100
AcDbLine
62
2
6
CONTINUOUS
10
209.5830600000
20
132.0029020000
11
221.4415940000
21
132.0029020000
0
ARC
5
26C
100
AcDbEntity
8
05
100
AcDbCircle
62
2
6
CONTINUOUS
10
207.3586480000
20
134.2002410000
40
2.9963710000
100
AcDbArc
50
270.0000000000
51
309.5176530000
0
ARC
5
26D
100
AcDbEntity
8
05
100
AcDbCircle
62
2
6
CONTINUOUS
10
209.5830600000
20
131.5035070000
40
0.4993950000
100
AcDbArc
50
90.0000000000
51
129.5176530000
0
ARC
5
26E
100
AcDbEntity
8
05
100
AcDbCircle
62
2
6
CONTINUOUS
10
221.4415940000
20
131.7032650000
40
0.2996370000
100
AcDbArc
50
0.0000000000
51
90.0000000000
0
LINE
5
26F
100
AcDbEntity
8
05
100
AcDbLine
62
2
6
CONTINUOUS
10
259.3402460000
20
126.0301350000
11
246.9507030000
21
126.0301350000
0
LINE
5
270
100
AcDbEntity
8
05
100
AcDbLine
62
2
6
CONTINUOUS
10
259.3402460000
20
130.4138170000
11
246.9507030000
21
130.4138170000
0
LINE
5
271
100
AcDbEntity
8
05
100
AcDbLine
62
2
6
CONTINUOUS
10
246.7509450000
20
128.2164780000
11
246.7509450000
21
131.1129710000
0
LINE
5
272
100
AcDbEntity
8
05
100
AcDbLine
62
2
6
CONTINUOUS
10
244.2540020000
20
124.7108980000
11
244.2540020000
21
127.6978650000
0
LINE
5
273
100
AcDbEntity
8
05
100
AcDbLine
62
2
6
CONTINUOUS
10
246.2515500000
20
125.1312230000
11
245.5523960000
21
124.4320700000
0
LINE
5
274
100
AcDbEntity
8
05
100
AcDbLine
62
2
6
CONTINUOUS
10
244.2540020000
20
128.2070810000
11
244.2540020000
21
131.3399520000
0
LINE
5
275
100
AcDbEntity
8
05
100
AcDbLine
62
2
6
CONTINUOUS
10
244.2539690000
20
131.7823350000
11
244.2539690000
21
128.1866890000
0
ARC
5
276
100
AcDbEntity
8
05
100
AcDbCircle
62
2
6
CONTINUOUS
10
243.9543320000
20
124.7117310000
40
0.2996370000
100
AcDbArc
50
270.0000000000
51
360.0000000000
0
ARC
5
277
100
AcDbEntity
8
05
100
AcDbCircle
62
2
6
CONTINUOUS
10
244.4537270000
20
124.6318280000
40
0.1997580000
100
AcDbArc
50
180.0000000000
51
270.0000000000
0
LINE
5
278
100
AcDbEntity
8
05
100
AcDbLine
62
2
6
CONTINUOUS
10
245.5523960000
20
124.4320700000
11
244.4537270000
21
124.4320700000
0
LINE
5
279
100
AcDbEntity
8
05
100
AcDbLine
62
2
6
CONTINUOUS
10
246.7509450000
20
128.2274740000
11
246.7509450000
21
125.3309810000
0
ARC
5
27A
100
AcDbEntity
8
05
100
AcDbCircle
62
2
6
CONTINUOUS
10
246.9507030000
20
125.8303770000
40
0.1997580000
100
AcDbArc
50
90.0000000000
51
180.0000000000
0
LINE
5
27B
100
AcDbEntity
8
05
100
AcDbLine
62
2
6
CONTINUOUS
10
246.7509450000
20
125.8303770000
11
246.7509450000
21
125.3309810000
0
LINE
5
27C
100
AcDbEntity
8
05
100
AcDbLine
62
2
6
CONTINUOUS
10
246.5511870000
20
125.1312230000
11
246.2515500000
21
125.1312230000
0
ARC
5
27D
100
AcDbEntity
8
05
100
AcDbCircle
62
2
6
CONTINUOUS
10
246.5511870000
20
125.3309810000
40
0.1997580000
100
AcDbArc
50
270.0000000000
51
360.0000000000
0
LINE
5
27E
100
AcDbEntity
8
05
100
AcDbLine
62
2
6
CONTINUOUS
10
246.2515500000
20
131.3127280000
11
245.5523960000
21
132.0118820000
0
ARC
5
27F
100
AcDbEntity
8
05
100
AcDbCircle
62
2
6
CONTINUOUS
10
243.9543650000
20
131.7032650000
40
0.2996370000
100
AcDbArc
50
0.0000000000
51
90.0000000000
0
ARC
5
280
100
AcDbEntity
8
05
100
AcDbCircle
62
2
6
CONTINUOUS
10
244.4537270000
20
131.8121240000
40
0.1997580000
100
AcDbArc
50
90.0000000000
51
180.0000000000
0
LINE
5
281
100
AcDbEntity
8
05
100
AcDbLine
62
2
6
CONTINUOUS
10
244.2540020000
20
131.7032650000
11
244.2539690000
21
131.8121240000
0
LINE
5
282
100
AcDbEntity
8
05
100
AcDbLine
62
2
6
CONTINUOUS
10
245.5523960000
20
132.0118820000
11
244.4537270000
21
132.0118820000
0
LINE
5
283
100
AcDbEntity
8
05
100
AcDbLine
62
2
6
CONTINUOUS
10
246.7509450000
20
130.6135750000
11
246.7509450000
21
131.1129700000
0
LINE
5
284
100
AcDbEntity
8
05
100
AcDbLine
62
2
6
CONTINUOUS
10
246.5511870000
20
131.3127280000
11
246.2515500000
21
131.3127280000
0
ARC
5
285
100
AcDbEntity
8
05
100
AcDbCircle
62
2
6
CONTINUOUS
10
246.5511870000
20
131.1129700000
40
0.1997580000
100
AcDbArc
50
0.0000000000
51
90.0000000000
0
ARC
5
286
100
AcDbEntity
8
05
100
AcDbCircle
62
2
6
CONTINUOUS
10
246.9507030000
20
130.6135750000
40
0.1997580000
100
AcDbArc
50
180.0000000000
51
270.0000000000
0
LINE
5
287
100
AcDbEntity
8
05
100
AcDbLine
62
2
6
CONTINUOUS
10
264.4157800000
20
130.4221280000
11
263.5900810000
21
130.4221280000
0
ARC
5
288
100
AcDbEntity
8
05
100
AcDbCircle
62
2
6
CONTINUOUS
10
263.5900808286
20
129.9227352973
40
0.4993927027
100
AcDbArc
50
89.9999803315
51
120.7368901671
0
ARC
5
289
100
AcDbEntity
8
05
100
AcDbCircle
62
2
6
CONTINUOUS
10
262.5180795209
20
131.7255480337
40
1.5980630337
100
AcDbArc
50
269.9999454701
51
300.7368553056
0
LINE
5
28A
100
AcDbEntity
8
05
100
AcDbLine
62
2
6
CONTINUOUS
10
264.4157800000
20
130.4221280000
11
265.4682790000
21
129.8956230000
0
LINE
5
28B
100
AcDbEntity
8
05
100
AcDbLine
62
2
6
CONTINUOUS
10
262.5180780000
20
126.3220930000
11
260.7516460000
21
126.3220930000
0
LINE
5
28C
100
AcDbEntity
8
05
100
AcDbLine
62
2
6
CONTINUOUS
10
260.7516460000
20
126.3220930000
11
260.7340120000
21
126.3529530000
0
LINE
5
28D
100
AcDbEntity
8
05
100
AcDbLine
62
2
6
CONTINUOUS
10
259.6353420000
20
126.1799530000
11
259.3402460000
21
126.0301350000
0
ARC
5
28E
100
AcDbEntity
8
05
100
AcDbCircle
62
2
6
CONTINUOUS
10
266.7342019696
20
125.0044199543
40
1.9975891264
100
AcDbArc
50
104.1768823995
51
129.3254767215
0
ARC
5
28F
100
AcDbEntity
8
05
100
AcDbCircle
62
2
6
CONTINUOUS
10
267.1787089001
20
128.2226455000
40
1.5855799894
100
AcDbArc
50
233.9209745832
51
126.0790254168
0
ARC
5
290
100
AcDbEntity
8
05
100
AcDbCircle
62
2
6
CONTINUOUS
10
266.7342019696
20
131.4408710457
40
1.9975891264
100
AcDbArc
50
230.6745232785
51
255.8231176005
0
LINE
5
291
100
AcDbEntity
8
05
100
AcDbLine
62
2
6
CONTINUOUS
10
264.4157800000
20
126.0274500000
11
263.5900810000
21
126.0274500000
0
ARC
5
292
100
AcDbEntity
8
05
100
AcDbCircle
62
2
6
CONTINUOUS
10
263.5900808286
20
126.5268427027
40
0.4993927027
100
AcDbArc
50
239.2631098329
51
270.0000196685
0
ARC
5
293
100
AcDbEntity
8
05
100
AcDbCircle
62
2
6
CONTINUOUS
10
262.5180795209
20
124.7240299663
40
1.5980630337
100
AcDbArc
50
59.2631446944
51
90.0000545299
0
LINE
5
294
100
AcDbEntity
8
05
100
AcDbLine
62
2
6
CONTINUOUS
10
264.4157800000
20
126.0274500000
11
265.4682790000
21
126.5751850000
0
LINE
5
295
100
AcDbEntity
8
05
100
AcDbLine
62
2
6
CONTINUOUS
10
262.5180780000
20
130.1274850000
11
260.7516460000
21
130.1274850000
0
LINE
5
296
100
AcDbEntity
8
05
100
AcDbLine
62
2
6
CONTINUOUS
10
260.7516460000
20
130.1274850000
11
260.7340120000
21
130.0966240000
0
LINE
5
297
100
AcDbEntity
8
05
100
AcDbLine
62
2
6
CONTINUOUS
10
259.6353420000
20
130.2639980000
11
259.3402460000
21
130.4138170000
0
LINE
5
298
100
AcDbEntity
8
05
100
AcDbLine
62
2
6
CONTINUOUS
10
84.6193840000
20
124.4112610000
11
62.7058880000
21
124.4112610000
0
LINE
5
299
100
AcDbEntity
8
05
100
AcDbLine
62
2
6
CONTINUOUS
10
84.6193840000
20
132.0020690000
11
62.7059210000
21
132.0020690000
0
LINE
5
29A
100
AcDbEntity
8
05
100
AcDbLine
62
2
6
CONTINUOUS
10
84.9190210000
20
124.7108980000
11
84.9190210000
21
131.7024320000
0
LINE
5
29B
100
AcDbEntity
8
05
100
AcDbLine
62
2
6
CONTINUOUS
10
103.8960410000
20
124.7608390000
11
103.8960410000
21
131.7408570000
0
LINE
5
29C
100
AcDbEntity
8
05
100
AcDbLine
62
2
6
CONTINUOUS
10
97.0771920000
20
132.0020690000
11
85.2186590000
21
132.0020690000
0
ARC
5
29D
100
AcDbEntity
8
05
100
AcDbCircle
62
2
6
CONTINUOUS
10
100.6999110000
20
134.1994080000
40
2.9963710000
100
AcDbArc
50
270.0000000000
51
309.5176530000
0
ARC
5
29E
100
AcDbEntity
8
05
100
AcDbCircle
62
2
6
CONTINUOUS
10
102.9243230000
20
131.5026730000
40
0.4993950000
100
AcDbArc
50
90.0000000000
51
129.5176530000
0
LINE
5
29F
100
AcDbEntity
8
05
100
AcDbLine
62
2
6
CONTINUOUS
10
103.5964030000
20
132.0020690000
11
102.9243230000
21
132.0020690000
0
LINE
5
2A0
100
AcDbEntity
8
05
100
AcDbLine
62
2
6
CONTINUOUS
10
103.8960410000
20
131.7024320000
11
103.8960410000
21
131.6524920000
0
ARC
5
2A1
100
AcDbEntity
8
05
100
AcDbCircle
62
2
6
CONTINUOUS
10
103.5964030000
20
131.7024320000
40
0.2996370000
100
AcDbArc
50
0.0000000000
51
90.0000000000
0
ARC
5
2A2
100
AcDbEntity
8
05
100
AcDbCircle
62
2
6
CONTINUOUS
10
99.3016040000
20
134.1994080000
40
2.9963710000
100
AcDbArc
50
230.4823470000
51
270.0000000000
0
LINE
5
2A3
100
AcDbEntity
8
05
100
AcDbLine
62
2
6
CONTINUOUS
10
100.6999110000
20
131.2030360000
11
99.3016040000
21
131.2030360000
0
ARC
5
2A4
100
AcDbEntity
8
05
100
AcDbCircle
62
2
6
CONTINUOUS
10
97.0771920000
20
131.5026730000
40
0.4993950000
100
AcDbArc
50
50.4823470000
51
90.0000000000
0
ARC
5
2A5
100
AcDbEntity
8
05
100
AcDbCircle
62
2
6
CONTINUOUS
10
84.6193840000
20
131.7024320000
40
0.2996370000
100
AcDbArc
50
0.0000000000
51
90.0000000000
0
ARC
5
2A6
100
AcDbEntity
8
05
100
AcDbCircle
62
2
6
CONTINUOUS
10
85.2186590000
20
131.7024320000
40
0.2996370000
100
AcDbArc
50
90.0000000000
51
180.0000000000
0
LINE
5
2A7
100
AcDbEntity
8
05
100
AcDbLine
62
2
6
CONTINUOUS
10
97.0771920000
20
124.4112610000
11
85.2186590000
21
124.4112610000
0
ARC
5
2A8
100
AcDbEntity
8
05
100
AcDbCircle
62
2
6
CONTINUOUS
10
100.6999110000
20
122.2139220000
40
2.9963710000
100
AcDbArc
50
50.4823470000
51
90.0000000000
0
ARC
5
2A9
100
AcDbEntity
8
05
100
AcDbCircle
62
2
6
CONTINUOUS
10
102.9243230000
20
124.9106560000
40
0.4993950000
100
AcDbArc
50
230.4823470000
51
270.0000000000
0
ARC
5
2AA
100
AcDbEntity
8
05
100
AcDbCircle
62
2
6
CONTINUOUS
10
103.5964030000
20
124.7108980000
40
0.2996370000
100
AcDbArc
50
270.0000000000
51
360.0000000000
0
LINE
5
2AB
100
AcDbEntity
8
05
100
AcDbLine
62
2
6
CONTINUOUS
10
103.8960410000
20
124.7108980000
11
103.8960410000
21
124.7608380000
0
LINE
5
2AC
100
AcDbEntity
8
05
100
AcDbLine
62
2
6
CONTINUOUS
10
103.5964030000
20
124.4112610000
11
102.9243230000
21
124.4112610000
0
ARC
5
2AD
100
AcDbEntity
8
05
100
AcDbCircle
62
2
6
CONTINUOUS
10
99.3016040000
20
122.2139220000
40
2.9963710000
100
AcDbArc
50
90.0000000000
51
129.5176530000
0
LINE
5
2AE
100
AcDbEntity
8
05
100
AcDbLine
62
2
6
CONTINUOUS
10
100.6999110000
20
125.2102930000
11
99.3016040000
21
125.2102930000
0
ARC
5
2AF
100
AcDbEntity
8
05
100
AcDbCircle
62
2
6
CONTINUOUS
10
97.0771920000
20
124.9106560000
40
0.4993950000
100
AcDbArc
50
270.0000000000
51
309.5176530000
0
ARC
5
2B0
100
AcDbEntity
8
05
100
AcDbCircle
62
2
6
CONTINUOUS
10
84.6193840000
20
124.7108980000
40
0.2996370000
100
AcDbArc
50
270.0000000000
51
360.0000000000
0
ARC
5
2B1
100
AcDbEntity
8
05
100
AcDbCircle
62
2
6
CONTINUOUS
10
85.2186590000
20
124.7108980000
40
0.2996370000
100
AcDbArc
50
180.0000000000
51
270.0000000000
0
LINE
5
2B2
100
AcDbEntity
8
05
100
AcDbLine
62
2
6
CONTINUOUS
10
62.4062510000
20
124.7108980000
11
62.4062510000
21
127.6978650000
0
LINE
5
2B3
100
AcDbEntity
8
05
100
AcDbLine
62
2
6
CONTINUOUS
10
59.9093080000
20
128.1976850000
11
59.9093080000
21
125.3011920000
0
LINE
5
2B4
100
AcDbEntity
8
05
100
AcDbLine
62
2
6
CONTINUOUS
10
59.9093080000
20
125.8005880000
11
59.9093080000
21
125.3011930000
0
ARC
5
2B5
100
AcDbEntity
8
05
100
AcDbCircle
62
2
6
CONTINUOUS
10
62.2065260000
20
131.7823350000
40
0.1997580000
100
AcDbArc
50
0.0000000000
51
90.0000000000
0
LINE
5
2B6
100
AcDbEntity
8
05
100
AcDbLine
62
2
6
CONTINUOUS
10
62.4062840000
20
131.7823350000
11
62.4062840000
21
128.1866890000
0
LINE
5
2B7
100
AcDbEntity
8
05
100
AcDbLine
62
2
6
CONTINUOUS
10
62.4062510000
20
128.2070810000
11
62.4062510000
21
131.3399520000
0
ARC
5
2B8
100
AcDbEntity
8
05
100
AcDbCircle
62
2
6
CONTINUOUS
10
62.7059210000
20
131.7024320000
40
0.2996370000
100
AcDbArc
50
90.0000000000
51
180.0000000000
0
LINE
5
2B9
100
AcDbEntity
8
05
100
AcDbLine
62
2
6
CONTINUOUS
10
47.3200060000
20
126.0003460000
11
59.7095500000
21
126.0003460000
0
LINE
5
2BA
100
AcDbEntity
8
05
100
AcDbLine
62
2
6
CONTINUOUS
10
47.3200060000
20
130.3840280000
11
59.7095500000
21
130.3840280000
0
ARC
5
2BB
100
AcDbEntity
8
05
100
AcDbCircle
62
2
6
CONTINUOUS
10
60.1090660000
20
131.0831810000
40
0.1997580000
100
AcDbArc
50
90.0000000000
51
180.0000000000
0
LINE
5
2BC
100
AcDbEntity
8
05
100
AcDbLine
62
2
6
CONTINUOUS
10
60.4087030000
20
131.2829400000
11
61.1078560000
21
131.9820930000
0
LINE
5
2BD
100
AcDbEntity
8
05
100
AcDbLine
62
2
6
CONTINUOUS
10
60.1090660000
20
131.2829400000
11
60.4087030000
21
131.2829400000
0
LINE
5
2BE
100
AcDbEntity
8
05
100
AcDbLine
62
2
6
CONTINUOUS
10
61.1078560000
20
131.9820930000
11
62.2065260000
21
131.9820930000
0
LINE
5
2BF
100
AcDbEntity
8
05
100
AcDbLine
62
2
6
CONTINUOUS
10
59.9093080000
20
128.1866890000
11
59.9093080000
21
131.0831820000
0
LINE
5
2C0
100
AcDbEntity
8
05
100
AcDbLine
62
2
6
CONTINUOUS
10
59.9093080000
20
130.5837860000
11
59.9093080000
21
131.0831810000
0
ARC
5
2C1
100
AcDbEntity
8
05
100
AcDbCircle
62
2
6
CONTINUOUS
10
59.7095500000
20
130.5837860000
40
0.1997580000
100
AcDbArc
50
270.0000000000
51
360.0000000000
0
ARC
5
2C2
100
AcDbEntity
8
05
100
AcDbCircle
62
2
6
CONTINUOUS
10
59.7095500000
20
125.8005880000
40
0.1997580000
100
AcDbArc
50
0.0000000000
51
90.0000000000
0
LINE
5
2C3
100
AcDbEntity
8
05
100
AcDbLine
62
2
6
CONTINUOUS
10
47.0249110000
20
130.2342100000
11
47.3200060000
21
130.3840280000
0
LINE
5
2C4
100
AcDbEntity
8
05
100
AcDbLine
62
2
6
CONTINUOUS
10
47.0249110000
20
126.1501640000
11
47.3200060000
21
126.0003460000
0
ARC
5
2C5
100
AcDbEntity
8
05
100
AcDbCircle
62
2
6
CONTINUOUS
10
62.2065260000
20
124.6020390000
40
0.1997580000
100
AcDbArc
50
270.0000000000
51
360.0000000000
0
ARC
5
2C6
100
AcDbEntity
8
05
100
AcDbCircle
62
2
6
CONTINUOUS
10
62.7058880000
20
124.7108980000
40
0.2996370000
100
AcDbArc
50
180.0000000000
51
270.0000000000
0
LINE
5
2C7
100
AcDbEntity
8
05
100
AcDbLine
62
2
6
CONTINUOUS
10
62.4062510000
20
124.7108980000
11
62.4062840000
21
124.6020390000
0
LINE
5
2C8
100
AcDbEntity
8
05
100
AcDbLine
62
2
6
CONTINUOUS
10
60.4087030000
20
125.1014340000
11
61.1078560000
21
124.4022810000
0
ARC
5
2C9
100
AcDbEntity
8
05
100
AcDbCircle
62
2
6
CONTINUOUS
10
60.1090660000
20
125.3011930000
40
0.1997580000
100
AcDbArc
50
180.0000000000
51
270.0000000000
0
LINE
5
2CA
100
AcDbEntity
8
05
100
AcDbLine
62
2
6
CONTINUOUS
10
60.1090660000
20
125.1014340000
11
60.4087030000
21
125.1014340000
0
LINE
5
2CB
100
AcDbEntity
8
05
100
AcDbLine
62
2
6
CONTINUOUS
10
61.1078560000
20
124.4022810000
11
62.2065260000
21
124.4022810000
0
ARC
5
2CC
100
AcDbEntity
8
05
100
AcDbCircle
62
2
6
CONTINUOUS
10
39.9260510304
20
131.4097430457
40
1.9975891264
100
AcDbArc
50
284.1768823994
51
309.3254767215
0
ARC
5
2CD
100
AcDbEntity
8
05
100
AcDbCircle
62
2
6
CONTINUOUS
10
39.4815440999
20
128.1915175000
40
1.5855799894
100
AcDbArc
50
53.9209745832
51
306.0790254168
0
ARC
5
2CE
100
AcDbEntity
8
05
100
AcDbCircle
62
2
6
CONTINUOUS
10
39.9260487888
20
124.9732914543
40
1.9975901601
100
AcDbArc
50
50.6744644546
51
75.8230587767
0
LINE
5
2CF
100
AcDbEntity
8
05
100
AcDbLine
62
2
6
CONTINUOUS
10
42.2444720000
20
130.3867130000
11
43.0701710000
21
130.3867130000
0
ARC
5
2D0
100
AcDbEntity
8
05
100
AcDbCircle
62
2
6
CONTINUOUS
10
43.0701716714
20
129.8873184782
40
0.4993945218
100
AcDbArc
50
59.2631671981
51
90.0000770336
0
ARC
5
2D1
100
AcDbEntity
8
05
100
AcDbCircle
62
2
6
CONTINUOUS
10
44.1421729791
20
131.6901312145
40
1.5980612145
100
AcDbArc
50
239.2631267678
51
270.0000366033
0
LINE
5
2D2
100
AcDbEntity
8
05
100
AcDbLine
62
2
6
CONTINUOUS
10
42.2444720000
20
125.9920350000
11
43.0701710000
21
125.9920350000
0
ARC
5
2D3
100
AcDbEntity
8
05
100
AcDbCircle
62
2
6
CONTINUOUS
10
43.0701716714
20
126.4914295218
40
0.4993945218
100
AcDbArc
50
269.9999229664
51
300.7368328019
0
ARC
5
2D4
100
AcDbEntity
8
05
100
AcDbCircle
62
2
6
CONTINUOUS
10
44.1421729791
20
124.6886167855
40
1.5980612145
100
AcDbArc
50
89.9999633967
51
120.7368732322
0
LINE
5
2D5
100
AcDbEntity
8
05
100
AcDbLine
62
2
6
CONTINUOUS
10
44.1421740000
20
126.2866780000
11
45.9086070000
21
126.2866780000
0
LINE
5
2D6
100
AcDbEntity
8
05
100
AcDbLine
62
2
6
CONTINUOUS
10
45.9086070000
20
126.2866780000
11
45.9262410000
21
126.3175380000
0
LINE
5
2D7
100
AcDbEntity
8
05
100
AcDbLine
62
2
6
CONTINUOUS
10
44.1421740000
20
130.0920700000
11
45.9086070000
21
130.0920700000
0
LINE
5
2D8
100
AcDbEntity
8
05
100
AcDbLine
62
2
6
CONTINUOUS
10
45.9086070000
20
130.0920700000
11
45.9262410000
21
130.0612090000
0
LINE
5
2D9
100
AcDbEntity
8
05
100
AcDbLine
62
2
6
CONTINUOUS
10
42.2444720000
20
125.9920350000
11
41.1919740000
21
126.5185390000
0
LINE
5
2DA
100
AcDbEntity
8
05
100
AcDbLine
62
2
6
CONTINUOUS
10
42.2444720000
20
130.3867130000
11
41.1919740000
21
129.8389780000
0
LINE
5
2DB
100
AcDbEntity
8
05
100
AcDbLine
62
2
6
CONTINUOUS
10
103.8960410000
20
130.6169870000
11
150.8853670000
21
130.6169870000
0
LINE
5
2DC
100
AcDbEntity
8
05
100
AcDbLine
62
2
6
CONTINUOUS
10
103.8960410000
20
125.7971760000
11
152.4623090000
21
125.7971760000
0
LINE
5
2DD
100
AcDbEntity
8
05
100
AcDbLine
62
2
6
CONTINUOUS
10
153.4703750000
20
130.6169870000
11
202.7642120000
21
130.6169870000
0
LINE
5
2DE
100
AcDbEntity
8
05
100
AcDbLine
62
2
6
CONTINUOUS
10
155.0473180000
20
125.7971760000
11
202.7642120000
21
125.7971760000
0
LINE
5
2DF
100
AcDbEntity
8
RAHMEN
100
AcDbLine
62
7
6
CONTINUOUS
10
0.0000000000
20
0.0000000000
11
297.0000000000
21
0.0000000000
0
LINE
5
2E0
100
AcDbEntity
8
RAHMEN
100
AcDbLine
62
7
6
CONTINUOUS
10
297.0000000000
20
0.0000000000
11
297.0000000000
21
210.0000000000
0
LINE
5
2E1
100
AcDbEntity
8
RAHMEN
100
AcDbLine
62
7
6
CONTINUOUS
10
297.0000000000
20
210.0000000000
11
0.0000000000
21
210.0000000000
0
LINE
5
2E2
100
AcDbEntity
8
RAHMEN
100
AcDbLine
62
7
6
CONTINUOUS
10
0.0000000000
20
210.0000000000
11
0.0000000000
21
0.0000000000
0
LINE
5
2E3
100
AcDbEntity
8
05
100
AcDbLine
62
7
6
CONTINUOUS
10
184.5761270000
20
8.2089520000
11
184.8594800000
21
8.4923040000
0
LINE
5
2E4
100
AcDbEntity
8
05
100
AcDbLine
62
7
6
CONTINUOUS
10
186.6202690000
20
10.2530940000
11
187.0602470000
21
10.6930720000
0
LINE
5
2E5
100
AcDbEntity
8
05
100
AcDbLine
62
7
6
CONTINUOUS
10
185.5024150000
20
9.1352400000
11
185.7923930000
21
9.4252180000
0
LINE
5
2E6
100
AcDbEntity
8
05
100
AcDbLine
62
7
6
CONTINUOUS
10
184.2579290000
20
8.2089520000
11
184.9501160000
21
8.9011390000
0
LINE
5
2E7
100
AcDbEntity
8
05
100
AcDbLine
62
7
6
CONTINUOUS
10
186.3020710000
20
10.2530940000
11
186.7420490000
21
10.6930720000
0
LINE
5
2E8
100
AcDbEntity
8
05
100
AcDbLine
62
7
6
CONTINUOUS
10
185.1842170000
20
9.1352400000
11
185.4741950000
21
9.4252180000
0
LINE
5
2E9
100
AcDbEntity
8
05
100
AcDbLine
62
7
6
CONTINUOUS
10
183.9397310000
20
8.2089520000
11
185.1559970000
21
9.4252180000
0
LINE
5
2EA
100
AcDbEntity
8
05
100
AcDbLine
62
7
6
CONTINUOUS
10
185.9838730000
20
10.2530940000
11
186.4238510000
21
10.6930720000
0
LINE
5
2EB
100
AcDbEntity
8
05
100
AcDbLine
62
7
6
CONTINUOUS
10
183.6215330000
20
8.2089520000
11
185.1313890000
21
9.7188080000
0
LINE
5
2EC
100
AcDbEntity
8
05
100
AcDbLine
62
7
6
CONTINUOUS
10
185.6656750000
20
10.2530940000
11
186.1056530000
21
10.6930720000
0
LINE
5
2ED
100
AcDbEntity
8
05
100
AcDbLine
62
7
6
CONTINUOUS
10
183.3033350000
20
8.2089520000
11
185.2220250000
21
10.1276420000
0
LINE
5
2EE
100
AcDbEntity
8
05
100
AcDbLine
62
7
6
CONTINUOUS
10
185.3474770000
20
10.2530940000
11
185.7874550000
21
10.6930720000
0
LINE
5
2EF
100
AcDbEntity
8
05
100
AcDbLine
62
7
6
CONTINUOUS
10
183.1183660000
20
8.3421810000
11
185.4692570000
21
10.6930720000
0
LINE
5
2F0
100
AcDbEntity
8
05
100
AcDbLine
62
7
6
CONTINUOUS
10
183.2090020000
20
8.7510150000
11
185.1510590000
21
10.6930720000
0
LINE
5
2F1
100
AcDbEntity
8
05
100
AcDbLine
62
7
6
CONTINUOUS
10
183.2996390000
20
9.1598500000
11
184.8328610000
21
10.6930720000
0
LINE
5
2F2
100
AcDbEntity
8
05
100
AcDbLine
62
7
6
CONTINUOUS
10
183.3902750000
20
9.5686840000
11
184.5146630000
21
10.6930720000
0
LINE
5
2F3
100
AcDbEntity
8
05
100
AcDbLine
62
7
6
CONTINUOUS
10
183.4809110000
20
9.9775190000
11
184.1964650000
21
10.6930720000
0
LINE
5
2F4
100
AcDbEntity
8
05
100
AcDbLine
62
7
6
CONTINUOUS
10
183.5715480000
20
10.3863530000
11
183.8782670000
21
10.6930720000
0
LINE
5
2F5
100
AcDbEntity
8
05
100
AcDbLine
62
7
6
CONTINUOUS
10
182.9390390000
20
10.0720420000
11
182.9639990000
21
10.0970020000
0
LINE
5
2F6
100
AcDbEntity
8
05
100
AcDbLine
62
7
6
CONTINUOUS
10
180.7577510000
20
8.2089520000
11
180.9600800000
21
8.4112820000
0
LINE
5
2F7
100
AcDbEntity
8
05
100
AcDbLine
62
7
6
CONTINUOUS
10
182.6208410000
20
10.0720420000
11
183.0546360000
21
10.5058370000
0
LINE
5
2F8
100
AcDbEntity
8
05
100
AcDbLine
62
7
6
CONTINUOUS
10
180.4395530000
20
8.2089520000
11
181.0507170000
21
8.8201160000
0
LINE
5
2F9
100
AcDbEntity
8
05
100
AcDbLine
62
7
6
CONTINUOUS
10
182.3026430000
20
10.0720420000
11
182.9236730000
21
10.6930720000
0
LINE
5
2FA
100
AcDbEntity
8
05
100
AcDbLine
62
7
6
CONTINUOUS
10
180.1213550000
20
8.2089520000
11
181.1413530000
21
9.2289510000
0
LINE
5
2FB
100
AcDbEntity
8
05
100
AcDbLine
62
7
6
CONTINUOUS
10
181.9844450000
20
10.0720420000
11
182.6054740000
21
10.6930720000
0
LINE
5
2FC
100
AcDbEntity
8
05
100
AcDbLine
62
7
6
CONTINUOUS
10
179.8031570000
20
8.2089520000
11
181.2319900000
21
9.6377850000
0
LINE
5
2FD
100
AcDbEntity
8
05
100
AcDbLine
62
7
6
CONTINUOUS
10
181.6662460000
20
10.0720420000
11
182.2872760000
21
10.6930720000
0
LINE
5
2FE
100
AcDbEntity
8
05
100
AcDbLine
62
7
6
CONTINUOUS
10
179.4849590000
20
8.2089520000
11
181.3226260000
21
10.0466200000
0
LINE
5
2FF
100
AcDbEntity
8
05
100
AcDbLine
62
7
6
CONTINUOUS
10
181.3480480000
20
10.0720420000
11
181.9690780000
21
10.6930720000
0
LINE
5
300
100
AcDbEntity
8
05
100
AcDbLine
62
7
6
CONTINUOUS
10
179.2189660000
20
8.2611580000
11
181.6508800000
21
10.6930720000
0
LINE
5
301
100
AcDbEntity
8
05
100
AcDbLine
62
7
6
CONTINUOUS
10
179.3096030000
20
8.6699920000
11
181.3326820000
21
10.6930720000
0
LINE
5
302
100
AcDbEntity
8
05
100
AcDbLine
62
7
6
CONTINUOUS
10
179.4002390000
20
9.0788270000
11
181.0144840000
21
10.6930720000
0
LINE
5
303
100
AcDbEntity
8
05
100
AcDbLine
62
7
6
CONTINUOUS
10
179.4908760000
20
9.4876610000
11
180.6962860000
21
10.6930720000
0
LINE
5
304
100
AcDbEntity
8
05
100
AcDbLine
62
7
6
CONTINUOUS
10
179.5815120000
20
9.8964960000
11
180.3780880000
21
10.6930720000
0
LINE
5
305
100
AcDbEntity
8
05
100
AcDbLine
62
7
6
CONTINUOUS
10
179.4388600000
20
10.0720420000
11
180.0598900000
21
10.6930720000
0
LINE
5
306
100
AcDbEntity
8
05
100
AcDbLine
62
7
6
CONTINUOUS
10
179.1206620000
20
10.0720420000
11
179.7416920000
21
10.6930720000
0
LINE
5
307
100
AcDbEntity
8
05
100
AcDbLine
62
7
6
CONTINUOUS
10
178.8024640000
20
10.0720420000
11
179.4234940000
21
10.6930720000
0
LINE
5
308
100
AcDbEntity
8
05
100
AcDbLine
62
7
6
CONTINUOUS
10
176.8883760000
20
8.4761520000
11
177.3685390000
21
8.9563150000
0
LINE
5
309
100
AcDbEntity
8
05
100
AcDbLine
62
7
6
CONTINUOUS
10
178.4842660000
20
10.0720420000
11
179.1052960000
21
10.6930720000
0
LINE
5
30A
100
AcDbEntity
8
05
100
AcDbLine
62
7
6
CONTINUOUS
10
176.4054660000
20
8.3114400000
11
177.4591750000
21
9.3651490000
0
LINE
5
30B
100
AcDbEntity
8
05
100
AcDbLine
62
7
6
CONTINUOUS
10
178.1660680000
20
10.0720420000
11
178.7870980000
21
10.6930720000
0
LINE
5
30C
100
AcDbEntity
8
05
100
AcDbLine
62
7
6
CONTINUOUS
10
176.0027690000
20
8.2269410000
11
177.5498110000
21
9.7739840000
0
LINE
5
30D
100
AcDbEntity
8
05
100
AcDbLine
62
7
6
CONTINUOUS
10
178.1305160000
20
10.3546880000
11
178.4689000000
21
10.6930720000
0
LINE
5
30E
100
AcDbEntity
8
05
100
AcDbLine
62
7
6
CONTINUOUS
10
175.6368590000
20
8.1792300000
11
177.6404480000
21
10.1828180000
0
LINE
5
30F
100
AcDbEntity
8
05
100
AcDbLine
62
7
6
CONTINUOUS
10
175.2894110000
20
8.1499790000
11
177.7310840000
21
10.5916520000
0
LINE
5
310
100
AcDbEntity
8
05
100
AcDbLine
62
7
6
CONTINUOUS
10
174.9558910000
20
8.1346570000
11
177.5143060000
21
10.6930720000
0
LINE
5
311
100
AcDbEntity
8
05
100
AcDbLine
62
7
6
CONTINUOUS
10
174.6346880000
20
8.1316520000
11
175.3351190000
21
8.8320840000
0
LINE
5
312
100
AcDbEntity
8
05
100
AcDbLine
62
7
6
CONTINUOUS
10
175.7236060000
20
9.2205700000
11
177.1961080000
21
10.6930720000
0
LINE
5
313
100
AcDbEntity
8
05
100
AcDbLine
62
7
6
CONTINUOUS
10
174.3245180000
20
8.1396810000
11
174.9444690000
21
8.7596310000
0
LINE
5
314
100
AcDbEntity
8
05
100
AcDbLine
62
7
6
CONTINUOUS
10
175.8142420000
20
9.6294040000
11
176.8779100000
21
10.6930720000
0
LINE
5
315
100
AcDbEntity
8
05
100
AcDbLine
62
7
6
CONTINUOUS
10
174.0243430000
20
8.1577030000
11
174.6233120000
21
8.7566730000
0
LINE
5
316
100
AcDbEntity
8
05
100
AcDbLine
62
7
6
CONTINUOUS
10
175.9048780000
20
10.0382390000
11
176.5597110000
21
10.6930720000
0
LINE
5
317
100
AcDbEntity
8
05
100
AcDbLine
62
7
6
CONTINUOUS
10
173.7333060000
20
8.1848640000
11
174.3407990000
21
8.7923570000
0
LINE
5
318
100
AcDbEntity
8
05
100
AcDbLine
62
7
6
CONTINUOUS
10
175.9955150000
20
10.4470730000
11
176.2415130000
21
10.6930720000
0
LINE
5
319
100
AcDbEntity
8
05
100
AcDbLine
62
7
6
CONTINUOUS
10
173.4520070000
20
8.2217640000
11
174.0972290000
21
8.8669850000
0
LINE
5
31A
100
AcDbEntity
8
05
100
AcDbLine
62
7
6
CONTINUOUS
10
173.1841710000
20
8.2721250000
11
173.9024090000
21
8.9903630000
0
LINE
5
31B
100
AcDbEntity
8
05
100
AcDbLine
62
7
6
CONTINUOUS
10
172.9287580000
20
8.3349100000
11
173.8448360000
21
9.2509890000
0
LINE
5
31C
100
AcDbEntity
8
05
100
AcDbLine
62
7
6
CONTINUOUS
10
172.6873210000
20
8.4116710000
11
173.9354730000
21
9.6598230000
0
LINE
5
31D
100
AcDbEntity
8
05
100
AcDbLine
62
7
6
CONTINUOUS
10
172.4667180000
20
8.5092670000
11
174.0261090000
21
10.0686580000
0
LINE
5
31E
100
AcDbEntity
8
05
100
AcDbLine
62
7
6
CONTINUOUS
10
172.2651030000
20
8.6258500000
11
174.1167450000
21
10.4774920000
0
LINE
5
31F
100
AcDbEntity
8
05
100
AcDbLine
62
7
6
CONTINUOUS
10
172.1018940000
20
8.7808390000
11
174.0141270000
21
10.6930720000
0
LINE
5
320
100
AcDbEntity
8
05
100
AcDbLine
62
7
6
CONTINUOUS
10
172.1092480000
20
9.1063910000
11
173.6959290000
21
10.6930720000
0
LINE
5
321
100
AcDbEntity
8
05
100
AcDbLine
62
7
6
CONTINUOUS
10
170.8936110000
20
8.2089520000
11
171.2024780000
21
8.5178190000
0
LINE
5
322
100
AcDbEntity
8
05
100
AcDbLine
62
7
6
CONTINUOUS
10
172.1998850000
20
9.5152260000
11
173.3777310000
21
10.6930720000
0
LINE
5
323
100
AcDbEntity
8
05
100
AcDbLine
62
7
6
CONTINUOUS
10
170.5754130000
20
8.2089520000
11
171.0153920000
21
8.6489310000
0
LINE
5
324
100
AcDbEntity
8
05
100
AcDbLine
62
7
6
CONTINUOUS
10
172.2905210000
20
9.9240600000
11
173.0595330000
21
10.6930720000
0
LINE
5
325
100
AcDbEntity
8
05
100
AcDbLine
62
7
6
CONTINUOUS
10
170.2572150000
20
8.2089520000
11
170.6971940000
21
8.6489310000
0
LINE
5
326
100
AcDbEntity
8
05
100
AcDbLine
62
7
6
CONTINUOUS
10
172.3811580000
20
10.3328950000
11
172.7413350000
21
10.6930720000
0
LINE
5
327
100
AcDbEntity
8
05
100
AcDbLine
62
7
6
CONTINUOUS
10
169.9390170000
20
8.2089520000
11
170.3789960000
21
8.6489310000
0
LINE
5
328
100
AcDbEntity
8
05
100
AcDbLine
62
7
6
CONTINUOUS
10
171.0360880000
20
9.3060230000
11
171.1751650000
21
9.4451000000
0
LINE
5
329
100
AcDbEntity
8
05
100
AcDbLine
62
7
6
CONTINUOUS
10
169.6208190000
20
8.2089520000
11
170.0607970000
21
8.6489310000
0
LINE
5
32A
100
AcDbEntity
8
05
100
AcDbLine
62
7
6
CONTINUOUS
10
170.7178900000
20
9.3060230000
11
171.0078680000
21
9.5960010000
0
LINE
5
32B
100
AcDbEntity
8
05
100
AcDbLine
62
7
6
CONTINUOUS
10
169.3026210000
20
8.2089520000
11
169.7425990000
21
8.6489310000
0
LINE
5
32C
100
AcDbEntity
8
05
100
AcDbLine
62
7
6
CONTINUOUS
10
171.3467620000
20
10.2530940000
11
171.6556600000
21
10.5619910000
0
LINE
5
32D
100
AcDbEntity
8
05
100
AcDbLine
62
7
6
CONTINUOUS
10
170.3996920000
20
9.3060230000
11
170.6896700000
21
9.5960010000
0
LINE
5
32E
100
AcDbEntity
8
05
100
AcDbLine
62
7
6
CONTINUOUS
10
168.9844230000
20
8.2089520000
11
169.4244010000
21
8.6489310000
0
LINE
5
32F
100
AcDbEntity
8
05
100
AcDbLine
62
7
6
CONTINUOUS
10
171.0285640000
20
10.2530940000
11
171.4685430000
21
10.6930720000
0
LINE
5
330
100
AcDbEntity
8
05
100
AcDbLine
62
7
6
CONTINUOUS
10
170.0814940000
20
9.3060230000
11
170.3714720000
21
9.5960010000
0
LINE
5
331
100
AcDbEntity
8
05
100
AcDbLine
62
7
6
CONTINUOUS
10
168.6662250000
20
8.2089520000
11
169.1062030000
21
8.6489310000
0
LINE
5
332
100
AcDbEntity
8
05
100
AcDbLine
62
7
6
CONTINUOUS
10
170.7103660000
20
10.2530940000
11
171.1503450000
21
10.6930720000
0
LINE
5
333
100
AcDbEntity
8
05
100
AcDbLine
62
7
6
CONTINUOUS
10
169.7632960000
20
9.3060230000
11
170.0532740000
21
9.5960010000
0
LINE
5
334
100
AcDbEntity
8
05
100
AcDbLine
62
7
6
CONTINUOUS
10
168.3480270000
20
8.2089520000
11
168.7880050000
21
8.6489310000
0
LINE
5
335
100
AcDbEntity
8
05
100
AcDbLine
62
7
6
CONTINUOUS
10
170.3921680000
20
10.2530940000
11
170.8321470000
21
10.6930720000
0
LINE
5
336
100
AcDbEntity
8
05
100
AcDbLine
62
7
6
CONTINUOUS
10
169.4450970000
20
9.3060230000
11
169.7350760000
21
9.5960010000
0
LINE
5
337
100
AcDbEntity
8
05
100
AcDbLine
62
7
6
CONTINUOUS
10
168.0298290000
20
8.2089520000
11
168.4698070000
21
8.6489310000
0
LINE
5
338
100
AcDbEntity
8
05
100
AcDbLine
62
7
6
CONTINUOUS
10
170.0739700000
20
10.2530940000
11
170.5139480000
21
10.6930720000
0
LINE
5
339
100
AcDbEntity
8
05
100
AcDbLine
62
7
6
CONTINUOUS
10
169.1268990000
20
9.3060230000
11
169.4168780000
21
9.5960010000
0
LINE
5
33A
100
AcDbEntity
8
05
100
AcDbLine
62
7
6
CONTINUOUS
10
167.7116310000
20
8.2089520000
11
168.3186940000
21
8.8160160000
0
LINE
5
33B
100
AcDbEntity
8
05
100
AcDbLine
62
7
6
CONTINUOUS
10
169.7557720000
20
10.2530940000
11
170.1957500000
21
10.6930720000
0
LINE
5
33C
100
AcDbEntity
8
05
100
AcDbLine
62
7
6
CONTINUOUS
10
168.8087010000
20
9.3060230000
11
169.0986800000
21
9.5960010000
0
LINE
5
33D
100
AcDbEntity
8
05
100
AcDbLine
62
7
6
CONTINUOUS
10
167.3934330000
20
8.2089520000
11
168.4093310000
21
9.2248500000
0
LINE
5
33E
100
AcDbEntity
8
05
100
AcDbLine
62
7
6
CONTINUOUS
10
169.4375740000
20
10.2530940000
11
169.8775520000
21
10.6930720000
0
LINE
5
33F
100
AcDbEntity
8
05
100
AcDbLine
62
7
6
CONTINUOUS
10
168.4905030000
20
9.3060230000
11
168.7804820000
21
9.5960010000
0
LINE
5
340
100
AcDbEntity
8
05
100
AcDbLine
62
7
6
CONTINUOUS
10
167.0752350000
20
8.2089520000
11
168.4999670000
21
9.6336850000
0
LINE
5
341
100
AcDbEntity
8
05
100
AcDbLine
62
7
6
CONTINUOUS
10
169.1193760000
20
10.2530940000
11
169.5593540000
21
10.6930720000
0
LINE
5
342
100
AcDbEntity
8
05
100
AcDbLine
62
7
6
CONTINUOUS
10
166.7570370000
20
8.2089520000
11
168.5906030000
21
10.0425190000
0
LINE
5
343
100
AcDbEntity
8
05
100
AcDbLine
62
7
6
CONTINUOUS
10
168.8011780000
20
10.2530940000
11
169.2411560000
21
10.6930720000
0
LINE
5
344
100
AcDbEntity
8
05
100
AcDbLine
62
7
6
CONTINUOUS
10
166.4869440000
20
8.2570570000
11
168.9229580000
21
10.6930720000
0
LINE
5
345
100
AcDbEntity
8
05
100
AcDbLine
62
7
6
CONTINUOUS
10
166.5775800000
20
8.6658920000
11
168.6047600000
21
10.6930720000
0
LINE
5
346
100
AcDbEntity
8
05
100
AcDbLine
62
7
6
CONTINUOUS
10
166.6682170000
20
9.0747260000
11
168.2865620000
21
10.6930720000
0
LINE
5
347
100
AcDbEntity
8
05
100
AcDbLine
62
7
6
CONTINUOUS
10
165.4842440000
20
8.2089520000
11
165.6617050000
21
8.3864130000
0
LINE
5
348
100
AcDbEntity
8
05
100
AcDbLine
62
7
6
CONTINUOUS
10
166.7588530000
20
9.4835610000
11
167.9683640000
21
10.6930720000
0
LINE
5
349
100
AcDbEntity
8
05
100
AcDbLine
62
7
6
CONTINUOUS
10
165.1660460000
20
8.2089520000
11
165.7523410000
21
8.7952470000
0
LINE
5
34A
100
AcDbEntity
8
05
100
AcDbLine
62
7
6
CONTINUOUS
10
166.8494890000
20
9.8923950000
11
167.6501660000
21
10.6930720000
0
LINE
5
34B
100
AcDbEntity
8
05
100
AcDbLine
62
7
6
CONTINUOUS
10
164.8478480000
20
8.2089520000
11
165.8429780000
21
9.2040820000
0
LINE
5
34C
100
AcDbEntity
8
05
100
AcDbLine
62
7
6
CONTINUOUS
10
166.9401260000
20
10.3012300000
11
167.3319680000
21
10.6930720000
0
LINE
5
34D
100
AcDbEntity
8
05
100
AcDbLine
62
7
6
CONTINUOUS
10
164.5296500000
20
8.2089520000
11
165.9336140000
21
9.6129160000
0
LINE
5
34E
100
AcDbEntity
8
05
100
AcDbLine
62
7
6
CONTINUOUS
10
164.2114520000
20
8.2089520000
11
166.0242510000
21
10.0217510000
0
LINE
5
34F
100
AcDbEntity
8
05
100
AcDbLine
62
7
6
CONTINUOUS
10
163.8932540000
20
8.2089520000
11
166.1148870000
21
10.4305850000
0
LINE
5
350
100
AcDbEntity
8
05
100
AcDbLine
62
7
6
CONTINUOUS
10
163.6255330000
20
8.2594290000
11
166.0591760000
21
10.6930720000
0
LINE
5
351
100
AcDbEntity
8
05
100
AcDbLine
62
7
6
CONTINUOUS
10
163.4580220000
20
8.4101170000
11
165.7409780000
21
10.6930720000
0
LINE
5
352
100
AcDbEntity
8
05
100
AcDbLine
62
7
6
CONTINUOUS
10
163.2905120000
20
8.5608040000
11
165.4227800000
21
10.6930720000
0
LINE
5
353
100
AcDbEntity
8
05
100
AcDbLine
62
7
6
CONTINUOUS
10
163.1230020000
20
8.7114920000
11
164.1030810000
21
9.6915710000
0
LINE
5
354
100
AcDbEntity
8
05
100
AcDbLine
62
7
6
CONTINUOUS
10
164.2831370000
20
9.8716270000
11
165.1045820000
21
10.6930720000
0
LINE
5
355
100
AcDbEntity
8
05
100
AcDbLine
62
7
6
CONTINUOUS
10
162.9554910000
20
8.8621800000
11
163.9163070000
21
9.8229950000
0
LINE
5
356
100
AcDbEntity
8
05
100
AcDbLine
62
7
6
CONTINUOUS
10
164.3737730000
20
10.2804620000
11
164.7863840000
21
10.6930720000
0
LINE
5
357
100
AcDbEntity
8
05
100
AcDbLine
62
7
6
CONTINUOUS
10
162.7879810000
20
9.0128680000
11
163.7295320000
21
9.9544190000
0
LINE
5
358
100
AcDbEntity
8
05
100
AcDbLine
62
7
6
CONTINUOUS
10
164.4644100000
20
10.6892960000
11
164.4681860000
21
10.6930720000
0
LINE
5
359
100
AcDbEntity
8
05
100
AcDbLine
62
7
6
CONTINUOUS
10
161.6658680000
20
8.2089520000
11
161.8620460000
21
8.4051310000
0
LINE
5
35A
100
AcDbEntity
8
05
100
AcDbLine
62
7
6
CONTINUOUS
10
162.6204710000
20
9.1635550000
11
163.5427580000
21
10.0858420000
0
LINE
5
35B
100
AcDbEntity
8
05
100
AcDbLine
62
7
6
CONTINUOUS
10
161.3476700000
20
8.2089520000
11
161.9526830000
21
8.8139650000
0
LINE
5
35C
100
AcDbEntity
8
05
100
AcDbLine
62
7
6
CONTINUOUS
10
162.4529600000
20
9.3142430000
11
163.3559830000
21
10.2172660000
0
LINE
5
35D
100
AcDbEntity
8
05
100
AcDbLine
62
7
6
CONTINUOUS
10
161.0294720000
20
8.2089520000
11
162.0433190000
21
9.2228000000
0
LINE
5
35E
100
AcDbEntity
8
05
100
AcDbLine
62
7
6
CONTINUOUS
10
162.2854500000
20
9.4649310000
11
163.1692090000
21
10.3486900000
0
LINE
5
35F
100
AcDbEntity
8
05
100
AcDbLine
62
7
6
CONTINUOUS
10
160.7112740000
20
8.2089520000
11
162.9824350000
21
10.4801130000
0
LINE
5
360
100
AcDbEntity
8
05
100
AcDbLine
62
7
6
CONTINUOUS
10
160.3930760000
20
8.2089520000
11
162.7956600000
21
10.6115370000
0
LINE
5
361
100
AcDbEntity
8
05
100
AcDbLine
62
7
6
CONTINUOUS
10
160.1209320000
20
8.2550070000
11
162.5589970000
21
10.6930720000
0
LINE
5
362
100
AcDbEntity
8
05
100
AcDbLine
62
7
6
CONTINUOUS
10
160.2115690000
20
8.6638420000
11
162.2407990000
21
10.6930720000
0
LINE
5
363
100
AcDbEntity
8
05
100
AcDbLine
62
7
6
CONTINUOUS
10
160.3022050000
20
9.0726760000
11
161.9226010000
21
10.6930720000
0
LINE
5
364
100
AcDbEntity
8
05
100
AcDbLine
62
7
6
CONTINUOUS
10
160.3928420000
20
9.4815110000
11
161.6044030000
21
10.6930720000
0
LINE
5
365
100
AcDbEntity
8
05
100
AcDbLine
62
7
6
CONTINUOUS
10
160.4834780000
20
9.8903450000
11
161.2862050000
21
10.6930720000
0
LINE
5
366
100
AcDbEntity
8
05
100
AcDbLine
62
7
6
CONTINUOUS
10
160.5741150000
20
10.2991800000
11
160.9680070000
21
10.6930720000
0
LINE
5
367
100
AcDbEntity
8
05
100
AcDbLine
62
7
6
CONTINUOUS
10
185.8206130000
20
9.1352400000
11
186.1105910000
21
9.4252180000
0
LINE
5
368
100
AcDbEntity
8
05
100
AcDbLine
62
7
6
CONTINUOUS
10
186.8666600000
20
10.1812870000
11
187.3784450000
21
10.6930720000
0
LINE
5
369
100
AcDbEntity
8
05
100
AcDbLine
62
7
6
CONTINUOUS
10
186.1388110000
20
9.1352400000
11
186.4292410000
21
9.4256700000
0
LINE
5
36A
100
AcDbEntity
8
05
100
AcDbLine
62
7
6
CONTINUOUS
10
186.9467390000
20
9.9431670000
11
187.6966430000
21
10.6930720000
0
LINE
5
36B
100
AcDbEntity
8
05
100
AcDbLine
62
7
6
CONTINUOUS
10
186.4562560000
20
9.1344860000
11
188.0146710000
21
10.6929020000
0
LINE
5
36C
100
AcDbEntity
8
05
100
AcDbLine
62
7
6
CONTINUOUS
10
186.6305160000
20
8.9905480000
11
188.2989430000
21
10.6589760000
0
LINE
5
36D
100
AcDbEntity
8
05
100
AcDbLine
62
7
6
CONTINUOUS
10
186.6130000000
20
8.6548350000
11
188.5351130000
21
10.5769480000
0
LINE
5
36E
100
AcDbEntity
8
05
100
AcDbLine
62
7
6
CONTINUOUS
10
186.6052610000
20
8.3288970000
11
188.7250750000
21
10.4487110000
0
LINE
5
36F
100
AcDbEntity
8
05
100
AcDbLine
62
7
6
CONTINUOUS
10
186.8035140000
20
8.2089520000
11
188.8509000000
21
10.2563380000
0
LINE
5
370
100
AcDbEntity
8
05
100
AcDbLine
62
7
6
CONTINUOUS
10
187.1217120000
20
8.2089520000
11
188.2212130000
21
9.3084530000
0
LINE
5
371
100
AcDbEntity
8
05
100
AcDbLine
62
7
6
CONTINUOUS
10
188.2660830000
20
9.3533230000
11
188.8342290000
21
9.9214690000
0
LINE
5
372
100
AcDbEntity
8
05
100
AcDbLine
62
7
6
CONTINUOUS
10
187.4399100000
20
8.2089520000
11
188.3457580000
21
9.1148000000
0
LINE
5
373
100
AcDbEntity
8
05
100
AcDbLine
62
7
6
CONTINUOUS
10
189.6292330000
20
10.3982750000
11
189.9240300000
21
10.6930720000
0
LINE
5
374
100
AcDbEntity
8
05
100
AcDbLine
62
7
6
CONTINUOUS
10
187.7581080000
20
8.2089520000
11
188.3299420000
21
8.7807860000
0
LINE
5
375
100
AcDbEntity
8
05
100
AcDbLine
62
7
6
CONTINUOUS
10
189.5385960000
20
9.9894400000
11
190.2422280000
21
10.6930720000
0
LINE
5
376
100
AcDbEntity
8
05
100
AcDbLine
62
7
6
CONTINUOUS
10
188.0763060000
20
8.2089520000
11
188.3071930000
21
8.4398390000
0
LINE
5
377
100
AcDbEntity
8
05
100
AcDbLine
62
7
6
CONTINUOUS
10
189.4479600000
20
9.5806060000
11
190.5604260000
21
10.6930720000
0
LINE
5
378
100
AcDbEntity
8
05
100
AcDbLine
62
7
6
CONTINUOUS
10
189.3573230000
20
9.1717720000
11
190.8786240000
21
10.6930720000
0
LINE
5
379
100
AcDbEntity
8
05
100
AcDbLine
62
7
6
CONTINUOUS
10
189.2666870000
20
8.7629370000
11
191.1968220000
21
10.6930720000
0
LINE
5
37A
100
AcDbEntity
8
05
100
AcDbLine
62
7
6
CONTINUOUS
10
189.1760510000
20
8.3541030000
11
191.3703470000
21
10.5483990000
0
LINE
5
37B
100
AcDbEntity
8
05
100
AcDbLine
62
7
6
CONTINUOUS
10
189.3490980000
20
8.2089520000
11
191.2797100000
21
10.1395640000
0
LINE
5
37C
100
AcDbEntity
8
05
100
AcDbLine
62
7
6
CONTINUOUS
10
189.6672960000
20
8.2089520000
11
191.1890740000
21
9.7307300000
0
LINE
5
37D
100
AcDbEntity
8
05
100
AcDbLine
62
7
6
CONTINUOUS
10
189.9854940000
20
8.2089520000
11
191.0984370000
21
9.3218950000
0
LINE
5
37E
100
AcDbEntity
8
05
100
AcDbLine
62
7
6
CONTINUOUS
10
192.3950670000
20
10.6185250000
11
192.4696140000
21
10.6930720000
0
LINE
5
37F
100
AcDbEntity
8
05
100
AcDbLine
62
7
6
CONTINUOUS
10
190.3036920000
20
8.2089520000
11
191.0078010000
21
8.9130610000
0
LINE
5
380
100
AcDbEntity
8
05
100
AcDbLine
62
7
6
CONTINUOUS
10
192.3044300000
20
10.2096900000
11
192.7878120000
21
10.6930720000
0
LINE
5
381
100
AcDbEntity
8
05
100
AcDbLine
62
7
6
CONTINUOUS
10
190.6218900000
20
8.2089520000
11
190.9171640000
21
8.5042260000
0
LINE
5
382
100
AcDbEntity
8
05
100
AcDbLine
62
7
6
CONTINUOUS
10
192.2137940000
20
9.8008560000
11
193.1060100000
21
10.6930720000
0
LINE
5
383
100
AcDbEntity
8
05
100
AcDbLine
62
7
6
CONTINUOUS
10
192.1231580000
20
9.3920210000
11
193.4242080000
21
10.6930720000
0
LINE
5
384
100
AcDbEntity
8
05
100
AcDbLine
62
7
6
CONTINUOUS
10
192.0325210000
20
8.9831870000
11
193.7424060000
21
10.6930720000
0
LINE
5
385
100
AcDbEntity
8
05
100
AcDbLine
62
7
6
CONTINUOUS
10
191.9418850000
20
8.5743520000
11
194.0364400000
21
10.6689080000
0
LINE
5
386
100
AcDbEntity
8
05
100
AcDbLine
62
7
6
CONTINUOUS
10
191.8946830000
20
8.2089520000
11
193.9458040000
21
10.2600730000
0
LINE
5
387
100
AcDbEntity
8
05
100
AcDbLine
62
7
6
CONTINUOUS
10
192.2128810000
20
8.2089520000
11
193.8577180000
21
9.8537890000
0
LINE
5
388
100
AcDbEntity
8
05
100
AcDbLine
62
7
6
CONTINUOUS
10
192.5310790000
20
8.2089520000
11
194.4121960000
21
10.0900700000
0
LINE
5
389
100
AcDbEntity
8
05
100
AcDbLine
62
7
6
CONTINUOUS
10
192.8492770000
20
8.2089520000
11
194.9666750000
21
10.3263510000
0
LINE
5
38A
100
AcDbEntity
8
05
100
AcDbLine
62
7
6
CONTINUOUS
10
193.1674750000
20
8.2089520000
11
193.5832580000
21
8.6247350000
0
LINE
5
38B
100
AcDbEntity
8
05
100
AcDbLine
62
7
6
CONTINUOUS
10
193.9071250000
20
8.9486020000
11
195.5211540000
21
10.5626310000
0
LINE
5
38C
100
AcDbEntity
8
05
100
AcDbLine
62
7
6
CONTINUOUS
10
193.4856730000
20
8.2089520000
11
193.4926210000
21
8.2159010000
0
LINE
5
38D
100
AcDbEntity
8
05
100
AcDbLine
62
7
6
CONTINUOUS
10
194.3871300000
20
9.1104090000
11
195.9697930000
21
10.6930720000
0
LINE
5
38E
100
AcDbEntity
8
05
100
AcDbLine
62
7
6
CONTINUOUS
10
194.5451590000
20
8.9502400000
11
196.2879910000
21
10.6930720000
0
LINE
5
38F
100
AcDbEntity
8
05
100
AcDbLine
62
7
6
CONTINUOUS
10
194.7031880000
20
8.7900710000
11
196.6061890000
21
10.6930720000
0
LINE
5
390
100
AcDbEntity
8
05
100
AcDbLine
62
7
6
CONTINUOUS
10
194.8612170000
20
8.6299020000
11
196.0334790000
21
9.8021650000
0
LINE
5
391
100
AcDbEntity
8
05
100
AcDbLine
62
7
6
CONTINUOUS
10
196.1250400000
20
9.8937250000
11
196.9243870000
21
10.6930720000
0
LINE
5
392
100
AcDbEntity
8
05
100
AcDbLine
62
7
6
CONTINUOUS
10
195.0192460000
20
8.4697330000
11
196.1915080000
21
9.6419950000
0
LINE
5
393
100
AcDbEntity
8
05
100
AcDbLine
62
7
6
CONTINUOUS
10
196.6795190000
20
10.1300060000
11
197.2425850000
21
10.6930720000
0
LINE
5
394
100
AcDbEntity
8
05
100
AcDbLine
62
7
6
CONTINUOUS
10
195.1772750000
20
8.3095640000
11
196.3495370000
21
9.4818260000
0
LINE
5
395
100
AcDbEntity
8
05
100
AcDbLine
62
7
6
CONTINUOUS
10
197.2339980000
20
10.3662870000
11
197.5607830000
21
10.6930720000
0
LINE
5
396
100
AcDbEntity
8
05
100
AcDbLine
62
7
6
CONTINUOUS
10
195.3948610000
20
8.2089520000
11
196.5075660000
21
9.3216570000
0
LINE
5
397
100
AcDbEntity
8
05
100
AcDbLine
62
7
6
CONTINUOUS
10
197.7884760000
20
10.6025670000
11
197.8789810000
21
10.6930720000
0
LINE
5
398
100
AcDbEntity
8
05
100
AcDbLine
62
7
6
CONTINUOUS
10
195.7130590000
20
8.2089520000
11
196.6655950000
21
9.1614880000
0
LINE
5
399
100
AcDbEntity
8
05
100
AcDbLine
62
7
6
CONTINUOUS
10
196.0312570000
20
8.2089520000
11
196.8236240000
21
9.0013190000
0
LINE
5
39A
100
AcDbEntity
8
05
100
AcDbLine
62
7
6
CONTINUOUS
10
196.3494550000
20
8.2089520000
11
196.9816530000
21
8.8411500000
0
LINE
5
39B
100
AcDbEntity
8
05
100
AcDbLine
62
7
6
CONTINUOUS
10
196.6676530000
20
8.2089520000
11
197.1396820000
21
8.6809810000
0
LINE
5
39C
100
AcDbEntity
8
05
100
AcDbLine
62
7
6
CONTINUOUS
10
196.9858510000
20
8.2089520000
11
197.2977110000
21
8.5208120000
0
LINE
5
39D
100
AcDbEntity
8
05
100
AcDbLine
62
7
6
CONTINUOUS
10
197.3040500000
20
8.2089520000
11
197.4557400000
21
8.3606430000
0
LINE
5
39E
100
AcDbEntity
8
05
100
AcDbLine
62
7
6
CONTINUOUS
10
202.3077010000
20
10.6670200000
11
202.3344820000
21
10.6938010000
0
LINE
5
39F
100
AcDbEntity
8
05
100
AcDbLine
62
7
6
CONTINUOUS
10
201.3531070000
20
9.3942270000
11
202.6526800000
21
10.6938010000
0
LINE
5
3A0
100
AcDbEntity
8
05
100
AcDbLine
62
7
6
CONTINUOUS
10
200.4860300000
20
8.2089520000
11
202.9708790000
21
10.6938010000
0
LINE
5
3A1
100
AcDbEntity
8
05
100
AcDbLine
62
7
6
CONTINUOUS
10
200.8042280000
20
8.2089520000
11
203.2890770000
21
10.6938010000
0
LINE
5
3A2
100
AcDbEntity
8
05
100
AcDbLine
62
7
6
CONTINUOUS
10
201.1224260000
20
8.2089520000
11
203.6072750000
21
10.6938010000
0
LINE
5
3A3
100
AcDbEntity
8
05
100
AcDbLine
62
7
6
CONTINUOUS
10
201.4406240000
20
8.2089520000
11
203.9254730000
21
10.6938010000
0
LINE
5
3A4
100
AcDbEntity
8
05
100
AcDbLine
62
7
6
CONTINUOUS
10
201.7588220000
20
8.2089520000
11
203.2846820000
21
9.7348120000
0
LINE
5
3A5
100
AcDbEntity
8
05
100
AcDbLine
62
7
6
CONTINUOUS
10
203.8285960000
20
10.2787260000
11
204.2436710000
21
10.6938010000
0
LINE
5
3A6
100
AcDbEntity
8
05
100
AcDbLine
62
7
6
CONTINUOUS
10
202.0770200000
20
8.2089520000
11
202.3300880000
21
8.4620200000
0
LINE
5
3A7
100
AcDbEntity
8
05
100
AcDbLine
62
7
6
CONTINUOUS
10
203.8922360000
20
10.0241680000
11
204.5618690000
21
10.6938010000
0
LINE
5
3A8
100
AcDbEntity
8
05
100
AcDbLine
62
7
6
CONTINUOUS
10
202.5570520000
20
8.6889840000
11
202.9302400000
21
9.0621710000
0
LINE
5
3A9
100
AcDbEntity
8
05
100
AcDbLine
62
7
6
CONTINUOUS
10
202.8752500000
20
8.6889840000
11
203.2484380000
21
9.0621710000
0
LINE
5
3AA
100
AcDbEntity
8
05
100
AcDbLine
62
7
6
CONTINUOUS
10
203.9558760000
20
9.7696100000
11
204.8800670000
21
10.6938010000
0
LINE
5
3AB
100
AcDbEntity
8
05
100
AcDbLine
62
7
6
CONTINUOUS
10
203.1934480000
20
8.6889840000
11
203.5666360000
21
9.0621710000
0
LINE
5
3AC
100
AcDbEntity
8
05
100
AcDbLine
62
7
6
CONTINUOUS
10
204.0195150000
20
9.5150510000
11
205.1982650000
21
10.6938010000
0
LINE
5
3AD
100
AcDbEntity
8
05
100
AcDbLine
62
7
6
CONTINUOUS
10
203.5116460000
20
8.6889840000
11
203.8848340000
21
9.0621710000
0
LINE
5
3AE
100
AcDbEntity
8
05
100
AcDbLine
62
7
6
CONTINUOUS
10
204.0831550000
20
9.2604930000
11
205.3292860000
21
10.5066230000
0
LINE
5
3AF
100
AcDbEntity
8
05
100
AcDbLine
62
7
6
CONTINUOUS
10
203.8298440000
20
8.6889840000
11
205.3929250000
21
10.2520650000
0
LINE
5
3B0
100
AcDbEntity
8
05
100
AcDbLine
62
7
6
CONTINUOUS
10
204.1480420000
20
8.6889840000
11
205.4565650000
21
9.9975060000
0
LINE
5
3B1
100
AcDbEntity
8
05
100
AcDbLine
62
7
6
CONTINUOUS
10
204.2740740000
20
8.4968170000
11
205.5202040000
21
9.7429480000
0
LINE
5
3B2
100
AcDbEntity
8
05
100
AcDbLine
62
7
6
CONTINUOUS
10
204.3377130000
20
8.2422590000
11
205.5838440000
21
9.4883900000
0
LINE
5
3B3
100
AcDbEntity
8
05
100
AcDbLine
62
7
6
CONTINUOUS
10
204.6226050000
20
8.2089520000
11
205.6474840000
21
9.2338310000
0
LINE
5
3B4
100
AcDbEntity
8
05
100
AcDbLine
62
7
6
CONTINUOUS
10
204.9408030000
20
8.2089520000
11
205.7111230000
21
8.9792730000
0
LINE
5
3B5
100
AcDbEntity
8
05
100
AcDbLine
62
7
6
CONTINUOUS
10
206.8640330000
20
10.1321820000
11
207.2440540000
21
10.5122030000
0
LINE
5
3B6
100
AcDbEntity
8
05
100
AcDbLine
62
7
6
CONTINUOUS
10
205.2590010000
20
8.2089520000
11
205.7747630000
21
8.7247140000
0
LINE
5
3B7
100
AcDbEntity
8
05
100
AcDbLine
62
7
6
CONTINUOUS
10
206.7959150000
20
9.7458660000
11
207.6185860000
21
10.5685370000
0
LINE
5
3B8
100
AcDbEntity
8
05
100
AcDbLine
62
7
6
CONTINUOUS
10
205.5771990000
20
8.2089520000
11
205.8384020000
21
8.4701560000
0
LINE
5
3B9
100
AcDbEntity
8
05
100
AcDbLine
62
7
6
CONTINUOUS
10
206.7277970000
20
9.3595500000
11
207.9813030000
21
10.6130560000
0
LINE
5
3BA
100
AcDbEntity
8
05
100
AcDbLine
62
7
6
CONTINUOUS
10
205.8953970000
20
8.2089520000
11
205.9020420000
21
8.2155970000
0
LINE
5
3BB
100
AcDbEntity
8
05
100
AcDbLine
62
7
6
CONTINUOUS
10
206.6596790000
20
8.9732340000
11
208.3333580000
21
10.6469130000
0
LINE
5
3BC
100
AcDbEntity
8
05
100
AcDbLine
62
7
6
CONTINUOUS
10
206.6152770000
20
8.6106340000
11
208.6757100000
21
10.6710670000
0
LINE
5
3BD
100
AcDbEntity
8
05
100
AcDbLine
62
7
6
CONTINUOUS
10
206.7378940000
20
8.4150530000
11
209.0091650000
21
10.6863240000
0
LINE
5
3BE
100
AcDbEntity
8
05
100
AcDbLine
62
7
6
CONTINUOUS
10
206.9839510000
20
8.3429130000
11
208.3408190000
21
9.6997800000
0
LINE
5
3BF
100
AcDbEntity
8
05
100
AcDbLine
62
7
6
CONTINUOUS
10
208.8827100000
20
10.2416710000
11
209.3344090000
21
10.6933700000
0
LINE
5
3C0
100
AcDbEntity
8
05
100
AcDbLine
62
7
6
CONTINUOUS
10
207.2652030000
20
8.3059660000
11
208.2727010000
21
9.3134640000
0
LINE
5
3C1
100
AcDbEntity
8
05
100
AcDbLine
62
7
6
CONTINUOUS
10
209.2192190000
20
10.2599820000
11
209.6520320000
21
10.6927950000
0
LINE
5
3C2
100
AcDbEntity
8
05
100
AcDbLine
62
7
6
CONTINUOUS
10
207.5518220000
20
8.2743870000
11
208.2250940000
21
8.9476590000
0
LINE
5
3C3
100
AcDbEntity
8
05
100
AcDbLine
62
7
6
CONTINUOUS
10
209.5263210000
20
10.2488860000
11
209.9625450000
21
10.6851100000
0
LINE
5
3C4
100
AcDbEntity
8
05
100
AcDbLine
62
7
6
CONTINUOUS
10
207.8440880000
20
8.2484550000
11
208.3438720000
21
8.7482390000
0
LINE
5
3C5
100
AcDbEntity
8
05
100
AcDbLine
62
7
6
CONTINUOUS
10
209.8104210000
20
10.2147880000
11
210.2663950000
21
10.6707620000
0
LINE
5
3C6
100
AcDbEntity
8
05
100
AcDbLine
62
7
6
CONTINUOUS
10
208.1423120000
20
8.2284810000
11
208.5883040000
21
8.6744730000
0
LINE
5
3C7
100
AcDbEntity
8
05
100
AcDbLine
62
7
6
CONTINUOUS
10
210.0259950000
20
10.1121640000
11
210.5639730000
21
10.6501420000
0
LINE
5
3C8
100
AcDbEntity
8
05
100
AcDbLine
62
7
6
CONTINUOUS
10
208.4468470000
20
8.2148180000
11
208.8836220000
21
8.6515930000
0
LINE
5
3C9
100
AcDbEntity
8
05
100
AcDbLine
62
7
6
CONTINUOUS
10
210.1960220000
20
9.9639930000
11
210.8556280000
21
10.6235990000
0
LINE
5
3CA
100
AcDbEntity
8
05
100
AcDbLine
62
7
6
CONTINUOUS
10
209.3537820000
20
9.1217520000
11
209.5334060000
21
9.3013760000
0
LINE
5
3CB
100
AcDbEntity
8
05
100
AcDbLine
62
7
6
CONTINUOUS
10
208.7580900000
20
8.2078620000
11
209.2048330000
21
8.6546050000
0
LINE
5
3CC
100
AcDbEntity
8
05
100
AcDbLine
62
7
6
CONTINUOUS
10
210.5142200000
20
9.9639930000
11
211.1416670000
21
10.5914400000
0
LINE
5
3CD
100
AcDbEntity
8
05
100
AcDbLine
62
7
6
CONTINUOUS
10
209.6288760000
20
9.0786490000
11
209.8516040000
21
9.3013760000
0
LINE
5
3CE
100
AcDbEntity
8
05
100
AcDbLine
62
7
6
CONTINUOUS
10
209.0764930000
20
8.2080680000
11
209.5603930000
21
8.6919670000
0
LINE
5
3CF
100
AcDbEntity
8
05
100
AcDbLine
62
7
6
CONTINUOUS
10
210.8324180000
20
9.9639930000
11
211.4223670000
21
10.5539410000
0
LINE
5
3D0
100
AcDbEntity
8
05
100
AcDbLine
62
7
6
CONTINUOUS
10
209.9470740000
20
9.0786490000
11
210.1698020000
21
9.3013760000
0
LINE
5
3D1
100
AcDbEntity
8
05
100
AcDbLine
62
7
6
CONTINUOUS
10
209.4025750000
20
8.2159520000
11
210.4880000000
21
9.3013760000
0
LINE
5
3D2
100
AcDbEntity
8
05
100
AcDbLine
62
7
6
CONTINUOUS
10
211.1506160000
20
9.9639930000
11
211.6387420000
21
10.4521180000
0
LINE
5
3D3
100
AcDbEntity
8
05
100
AcDbLine
62
7
6
CONTINUOUS
10
209.7369360000
20
8.2321150000
11
210.8061980000
21
9.3013760000
0
LINE
5
3D4
100
AcDbEntity
8
05
100
AcDbLine
62
7
6
CONTINUOUS
10
211.4688140000
20
9.9639930000
11
211.7195490000
21
10.2147280000
0
LINE
5
3D5
100
AcDbEntity
8
05
100
AcDbLine
62
7
6
CONTINUOUS
10
210.0319720000
20
8.2089520000
11
211.1243960000
21
9.3013760000
0
LINE
5
3D6
100
AcDbEntity
8
05
100
AcDbLine
62
7
6
CONTINUOUS
10
210.3501700000
20
8.2089520000
11
211.4425940000
21
9.3013760000
0
LINE
5
3D7
100
AcDbEntity
8
05
100
AcDbLine
62
7
6
CONTINUOUS
10
210.6683680000
20
8.2089520000
11
211.5166470000
21
9.0572320000
0
LINE
5
3D8
100
AcDbEntity
8
05
100
AcDbLine
62
7
6
CONTINUOUS
10
210.9865660000
20
8.2089520000
11
211.4485290000
21
8.6709160000
0
LINE
5
3D9
100
AcDbEntity
8
05
100
AcDbLine
62
7
6
CONTINUOUS
10
211.3047640000
20
8.2089520000
11
211.3804110000
21
8.2846000000
0
LINE
5
3DA
100
AcDbEntity
8
05
100
AcDbLine
62
7
6
CONTINUOUS
10
186.8961450000
20
8.2089520000
11
186.6025370000
21
8.5025600000
0
LINE
5
3DB
100
AcDbEntity
8
05
100
AcDbLine
62
7
6
CONTINUOUS
10
185.1776440000
20
9.9274530000
11
184.4120250000
21
10.6930720000
0
LINE
5
3DC
100
AcDbEntity
8
05
100
AcDbLine
62
7
6
CONTINUOUS
10
185.9698570000
20
9.1352400000
11
185.6798790000
21
9.4252180000
0
LINE
5
3DD
100
AcDbEntity
8
05
100
AcDbLine
62
7
6
CONTINUOUS
10
185.6516590000
20
9.1352400000
11
185.3616810000
21
9.4252180000
0
LINE
5
3DE
100
AcDbEntity
8
05
100
AcDbLine
62
7
6
CONTINUOUS
10
185.1199030000
20
9.6669960000
11
184.0938270000
21
10.6930720000
0
LINE
5
3DF
100
AcDbEntity
8
05
100
AcDbLine
62
7
6
CONTINUOUS
10
185.3334610000
20
9.1352400000
11
183.7756290000
21
10.6930720000
0
LINE
5
3E0
100
AcDbEntity
8
05
100
AcDbLine
62
7
6
CONTINUOUS
10
185.0152630000
20
9.1352400000
11
183.6064980000
21
10.5440050000
0
LINE
5
3E1
100
AcDbEntity
8
05
100
AcDbLine
62
7
6
CONTINUOUS
10
184.9466770000
20
8.8856280000
11
183.5487570000
21
10.2835480000
0
LINE
5
3E2
100
AcDbEntity
8
05
100
AcDbLine
62
7
6
CONTINUOUS
10
184.8889360000
20
8.6251710000
11
183.4910150000
21
10.0230920000
0
LINE
5
3E3
100
AcDbEntity
8
05
100
AcDbLine
62
7
6
CONTINUOUS
10
183.0462220000
20
10.4678850000
11
182.8210350000
21
10.6930720000
0
LINE
5
3E4
100
AcDbEntity
8
05
100
AcDbLine
62
7
6
CONTINUOUS
10
184.8311940000
20
8.3647150000
11
183.4332730000
21
9.7626360000
0
LINE
5
3E5
100
AcDbEntity
8
05
100
AcDbLine
62
7
6
CONTINUOUS
10
182.9884800000
20
10.2074290000
11
182.5028370000
21
10.6930720000
0
LINE
5
3E6
100
AcDbEntity
8
05
100
AcDbLine
62
7
6
CONTINUOUS
10
184.6687580000
20
8.2089520000
11
183.3755310000
21
9.5021790000
0
LINE
5
3E7
100
AcDbEntity
8
05
100
AcDbLine
62
7
6
CONTINUOUS
10
182.8056690000
20
10.0720420000
11
182.1846390000
21
10.6930720000
0
LINE
5
3E8
100
AcDbEntity
8
05
100
AcDbLine
62
7
6
CONTINUOUS
10
184.3505600000
20
8.2089520000
11
183.3177890000
21
9.2417230000
0
LINE
5
3E9
100
AcDbEntity
8
05
100
AcDbLine
62
7
6
CONTINUOUS
10
182.4874710000
20
10.0720420000
11
181.8664410000
21
10.6930720000
0
LINE
5
3EA
100
AcDbEntity
8
05
100
AcDbLine
62
7
6
CONTINUOUS
10
184.0323620000
20
8.2089520000
11
183.2600480000
21
8.9812670000
0
LINE
5
3EB
100
AcDbEntity
8
05
100
AcDbLine
62
7
6
CONTINUOUS
10
182.1692730000
20
10.0720420000
11
181.5482430000
21
10.6930720000
0
LINE
5
3EC
100
AcDbEntity
8
05
100
AcDbLine
62
7
6
CONTINUOUS
10
183.7141640000
20
8.2089520000
11
183.2023060000
21
8.7208110000
0
LINE
5
3ED
100
AcDbEntity
8
05
100
AcDbLine
62
7
6
CONTINUOUS
10
181.8510750000
20
10.0720420000
11
181.2300450000
21
10.6930720000
0
LINE
5
3EE
100
AcDbEntity
8
05
100
AcDbLine
62
7
6
CONTINUOUS
10
183.3959660000
20
8.2089520000
11
183.1445640000
21
8.4603540000
0
LINE
5
3EF
100
AcDbEntity
8
05
100
AcDbLine
62
7
6
CONTINUOUS
10
181.5328760000
20
10.0720420000
11
180.9118470000
21
10.6930720000
0
LINE
5
3F0
100
AcDbEntity
8
05
100
AcDbLine
62
7
6
CONTINUOUS
10
181.3076510000
20
9.9790700000
11
180.5936480000
21
10.6930720000
0
LINE
5
3F1
100
AcDbEntity
8
05
100
AcDbLine
62
7
6
CONTINUOUS
10
181.2499090000
20
9.7186140000
11
180.2754500000
21
10.6930720000
0
LINE
5
3F2
100
AcDbEntity
8
05
100
AcDbLine
62
7
6
CONTINUOUS
10
181.1921670000
20
9.4581570000
11
179.9572520000
21
10.6930720000
0
LINE
5
3F3
100
AcDbEntity
8
05
100
AcDbLine
62
7
6
CONTINUOUS
10
181.1344250000
20
9.1977010000
11
179.6390540000
21
10.6930720000
0
LINE
5
3F4
100
AcDbEntity
8
05
100
AcDbLine
62
7
6
CONTINUOUS
10
181.0766830000
20
8.9372450000
11
179.3208560000
21
10.6930720000
0
LINE
5
3F5
100
AcDbEntity
8
05
100
AcDbLine
62
7
6
CONTINUOUS
10
181.0189420000
20
8.6767880000
11
179.0026580000
21
10.6930720000
0
LINE
5
3F6
100
AcDbEntity
8
05
100
AcDbLine
62
7
6
CONTINUOUS
10
180.9612000000
20
8.4163320000
11
179.5632790000
21
9.8142530000
0
LINE
5
3F7
100
AcDbEntity
8
05
100
AcDbLine
62
7
6
CONTINUOUS
10
179.3054900000
20
10.0720420000
11
178.6844600000
21
10.6930720000
0
LINE
5
3F8
100
AcDbEntity
8
05
100
AcDbLine
62
7
6
CONTINUOUS
10
180.8503820000
20
8.2089520000
11
179.5055370000
21
9.5537970000
0
LINE
5
3F9
100
AcDbEntity
8
05
100
AcDbLine
62
7
6
CONTINUOUS
10
178.9872920000
20
10.0720420000
11
178.3662620000
21
10.6930720000
0
LINE
5
3FA
100
AcDbEntity
8
05
100
AcDbLine
62
7
6
CONTINUOUS
10
180.5321840000
20
8.2089520000
11
179.4477960000
21
9.2933400000
0
LINE
5
3FB
100
AcDbEntity
8
05
100
AcDbLine
62
7
6
CONTINUOUS
10
178.6690940000
20
10.0720420000
11
178.1769590000
21
10.5641770000
0
LINE
5
3FC
100
AcDbEntity
8
05
100
AcDbLine
62
7
6
CONTINUOUS
10
180.2139860000
20
8.2089520000
11
179.3900540000
21
9.0328840000
0
LINE
5
3FD
100
AcDbEntity
8
05
100
AcDbLine
62
7
6
CONTINUOUS
10
177.7492670000
20
10.6736710000
11
177.7298660000
21
10.6930720000
0
LINE
5
3FE
100
AcDbEntity
8
05
100
AcDbLine
62
7
6
CONTINUOUS
10
178.3508960000
20
10.0720420000
11
178.1192170000
21
10.3037210000
0
LINE
5
3FF
100
AcDbEntity
8
05
100
AcDbLine
62
7
6
CONTINUOUS
10
179.8957880000
20
8.2089520000
11
179.3323120000
21
8.7724280000
0
LINE
5
400
100
AcDbEntity
8
05
100
AcDbLine
62
7
6
CONTINUOUS
10
177.6915250000
20
10.4132140000
11
177.4116680000
21
10.6930720000
0
LINE
5
401
100
AcDbEntity
8
05
100
AcDbLine
62
7
6
CONTINUOUS
10
179.5775900000
20
8.2089520000
11
179.2745700000
21
8.5119710000
0
LINE
5
402
100
AcDbEntity
8
05
100
AcDbLine
62
7
6
CONTINUOUS
10
177.6337840000
20
10.1527580000
11
177.0934700000
21
10.6930720000
0
LINE
5
403
100
AcDbEntity
8
05
100
AcDbLine
62
7
6
CONTINUOUS
10
179.2593920000
20
8.2089520000
11
179.2168290000
21
8.2515150000
0
LINE
5
404
100
AcDbEntity
8
05
100
AcDbLine
62
7
6
CONTINUOUS
10
177.5760420000
20
9.8923020000
11
176.7752720000
21
10.6930720000
0
LINE
5
405
100
AcDbEntity
8
05
100
AcDbLine
62
7
6
CONTINUOUS
10
177.5183000000
20
9.6318460000
11
176.4570740000
21
10.6930720000
0
LINE
5
406
100
AcDbEntity
8
05
100
AcDbLine
62
7
6
CONTINUOUS
10
177.4605580000
20
9.3713890000
11
176.1388760000
21
10.6930720000
0
LINE
5
407
100
AcDbEntity
8
05
100
AcDbLine
62
7
6
CONTINUOUS
10
177.4028170000
20
9.1109330000
11
176.0084280000
21
10.5053220000
0
LINE
5
408
100
AcDbEntity
8
05
100
AcDbLine
62
7
6
CONTINUOUS
10
177.3450750000
20
8.8504770000
11
175.9506860000
21
10.2448650000
0
LINE
5
409
100
AcDbEntity
8
05
100
AcDbLine
62
7
6
CONTINUOUS
10
177.2138080000
20
8.6635450000
11
175.8929450000
21
9.9844090000
0
LINE
5
40A
100
AcDbEntity
8
05
100
AcDbLine
62
7
6
CONTINUOUS
10
177.0174480000
20
8.5417070000
11
175.8352030000
21
9.7239530000
0
LINE
5
40B
100
AcDbEntity
8
05
100
AcDbLine
62
7
6
CONTINUOUS
10
176.8026520000
20
8.4383050000
11
175.7774610000
21
9.4634960000
0
LINE
5
40C
100
AcDbEntity
8
05
100
AcDbLine
62
7
6
CONTINUOUS
10
176.5671730000
20
8.3555860000
11
175.7197190000
21
9.2030400000
0
LINE
5
40D
100
AcDbEntity
8
05
100
AcDbLine
62
7
6
CONTINUOUS
10
176.3151830000
20
8.2893790000
11
175.6187120000
21
8.9858500000
0
LINE
5
40E
100
AcDbEntity
8
05
100
AcDbLine
62
7
6
CONTINUOUS
10
174.1186190000
20
10.4859430000
11
173.9114890000
21
10.6930720000
0
LINE
5
40F
100
AcDbEntity
8
05
100
AcDbLine
62
7
6
CONTINUOUS
10
176.0511440000
20
8.2352190000
11
175.4221760000
21
8.8641880000
0
LINE
5
410
100
AcDbEntity
8
05
100
AcDbLine
62
7
6
CONTINUOUS
10
174.0608770000
20
10.2254860000
11
173.5932910000
21
10.6930720000
0
LINE
5
411
100
AcDbEntity
8
05
100
AcDbLine
62
7
6
CONTINUOUS
10
175.7736700000
20
8.1944950000
11
175.1774040000
21
8.7907610000
0
LINE
5
412
100
AcDbEntity
8
05
100
AcDbLine
62
7
6
CONTINUOUS
10
174.0031350000
20
9.9650300000
11
173.2750930000
21
10.6930720000
0
LINE
5
413
100
AcDbEntity
8
05
100
AcDbLine
62
7
6
CONTINUOUS
10
175.4851820000
20
8.1647850000
11
174.8938350000
21
8.7561320000
0
LINE
5
414
100
AcDbEntity
8
05
100
AcDbLine
62
7
6
CONTINUOUS
10
173.9453930000
20
9.7045740000
11
172.9568950000
21
10.6930720000
0
LINE
5
415
100
AcDbEntity
8
05
100
AcDbLine
62
7
6
CONTINUOUS
10
175.1877790000
20
8.1439900000
11
174.5712750000
21
8.7604950000
0
LINE
5
416
100
AcDbEntity
8
05
100
AcDbLine
62
7
6
CONTINUOUS
10
173.8876520000
20
9.4441170000
11
172.6386970000
21
10.6930720000
0
LINE
5
417
100
AcDbEntity
8
05
100
AcDbLine
62
7
6
CONTINUOUS
10
174.8806500000
20
8.1329210000
11
174.1766500000
21
8.8369210000
0
LINE
5
418
100
AcDbEntity
8
05
100
AcDbLine
62
7
6
CONTINUOUS
10
173.8299100000
20
9.1836610000
11
172.4355100000
21
10.5780610000
0
LINE
5
419
100
AcDbEntity
8
05
100
AcDbLine
62
7
6
CONTINUOUS
10
174.5628170000
20
8.1325560000
11
172.3777680000
21
10.3176050000
0
LINE
5
41A
100
AcDbEntity
8
05
100
AcDbLine
62
7
6
CONTINUOUS
10
174.2330740000
20
8.1441010000
11
172.3200260000
21
10.0571490000
0
LINE
5
41B
100
AcDbEntity
8
05
100
AcDbLine
62
7
6
CONTINUOUS
10
171.6846080000
20
10.6925670000
11
171.6841030000
21
10.6930720000
0
LINE
5
41C
100
AcDbEntity
8
05
100
AcDbLine
62
7
6
CONTINUOUS
10
173.8899190000
20
8.1690580000
11
172.2622840000
21
9.7966920000
0
LINE
5
41D
100
AcDbEntity
8
05
100
AcDbLine
62
7
6
CONTINUOUS
10
171.6268660000
20
10.4321110000
11
171.3659050000
21
10.6930720000
0
LINE
5
41E
100
AcDbEntity
8
05
100
AcDbLine
62
7
6
CONTINUOUS
10
173.5309040000
20
8.2098750000
11
172.2045430000
21
9.5362360000
0
LINE
5
41F
100
AcDbEntity
8
05
100
AcDbLine
62
7
6
CONTINUOUS
10
171.4876850000
20
10.2530940000
11
171.0477070000
21
10.6930720000
0
LINE
5
420
100
AcDbEntity
8
05
100
AcDbLine
62
7
6
CONTINUOUS
10
173.1408320000
20
8.2817490000
11
172.1468010000
21
9.2757800000
0
LINE
5
421
100
AcDbEntity
8
05
100
AcDbLine
62
7
6
CONTINUOUS
10
171.1694870000
20
10.2530940000
11
170.7295090000
21
10.6930720000
0
LINE
5
422
100
AcDbEntity
8
05
100
AcDbLine
62
7
6
CONTINUOUS
10
172.6959590000
20
8.4084240000
11
172.0890590000
21
9.0153240000
0
LINE
5
423
100
AcDbEntity
8
05
100
AcDbLine
62
7
6
CONTINUOUS
10
170.8512890000
20
10.2530940000
11
170.4113110000
21
10.6930720000
0
LINE
5
424
100
AcDbEntity
8
05
100
AcDbLine
62
7
6
CONTINUOUS
10
171.2052730000
20
9.5809110000
11
171.1901830000
21
9.5960010000
0
LINE
5
425
100
AcDbEntity
8
05
100
AcDbLine
62
7
6
CONTINUOUS
10
170.5330910000
20
10.2530940000
11
170.0931130000
21
10.6930720000
0
LINE
5
426
100
AcDbEntity
8
05
100
AcDbLine
62
7
6
CONTINUOUS
10
171.1475320000
20
9.3204550000
11
170.8719850000
21
9.5960010000
0
LINE
5
427
100
AcDbEntity
8
05
100
AcDbLine
62
7
6
CONTINUOUS
10
170.2148930000
20
10.2530940000
11
169.7749150000
21
10.6930720000
0
LINE
5
428
100
AcDbEntity
8
05
100
AcDbLine
62
7
6
CONTINUOUS
10
170.8437660000
20
9.3060230000
11
170.5537870000
21
9.5960010000
0
LINE
5
429
100
AcDbEntity
8
05
100
AcDbLine
62
7
6
CONTINUOUS
10
169.8966950000
20
10.2530940000
11
169.4567170000
21
10.6930720000
0
LINE
5
42A
100
AcDbEntity
8
05
100
AcDbLine
62
7
6
CONTINUOUS
10
171.2226740000
20
8.6089170000
11
171.1826600000
21
8.6489310000
0
LINE
5
42B
100
AcDbEntity
8
05
100
AcDbLine
62
7
6
CONTINUOUS
10
169.5784970000
20
10.2530940000
11
169.1385190000
21
10.6930720000
0
LINE
5
42C
100
AcDbEntity
8
05
100
AcDbLine
62
7
6
CONTINUOUS
10
170.5255680000
20
9.3060230000
11
170.2355890000
21
9.5960010000
0
LINE
5
42D
100
AcDbEntity
8
05
100
AcDbLine
62
7
6
CONTINUOUS
10
171.1649320000
20
8.3484610000
11
170.8644620000
21
8.6489310000
0
LINE
5
42E
100
AcDbEntity
8
05
100
AcDbLine
62
7
6
CONTINUOUS
10
169.2602990000
20
10.2530940000
11
168.8203210000
21
10.6930720000
0
LINE
5
42F
100
AcDbEntity
8
05
100
AcDbLine
62
7
6
CONTINUOUS
10
170.2073700000
20
9.3060230000
11
169.9173910000
21
9.5960010000
0
LINE
5
430
100
AcDbEntity
8
05
100
AcDbLine
62
7
6
CONTINUOUS
10
170.9862420000
20
8.2089520000
11
170.5462640000
21
8.6489310000
0
LINE
5
431
100
AcDbEntity
8
05
100
AcDbLine
62
7
6
CONTINUOUS
10
168.9421010000
20
10.2530940000
11
168.5021230000
21
10.6930720000
0
LINE
5
432
100
AcDbEntity
8
05
100
AcDbLine
62
7
6
CONTINUOUS
10
169.8891720000
20
9.3060230000
11
169.5991930000
21
9.5960010000
0
LINE
5
433
100
AcDbEntity
8
05
100
AcDbLine
62
7
6
CONTINUOUS
10
170.6680440000
20
8.2089520000
11
170.2280660000
21
8.6489310000
0
LINE
5
434
100
AcDbEntity
8
05
100
AcDbLine
62
7
6
CONTINUOUS
10
168.6348580000
20
10.2421380000
11
168.1839240000
21
10.6930720000
0
LINE
5
435
100
AcDbEntity
8
05
100
AcDbLine
62
7
6
CONTINUOUS
10
169.5709740000
20
9.3060230000
11
169.2809950000
21
9.5960010000
0
LINE
5
436
100
AcDbEntity
8
05
100
AcDbLine
62
7
6
CONTINUOUS
10
170.3498460000
20
8.2089520000
11
169.9098680000
21
8.6489310000
0
LINE
5
437
100
AcDbEntity
8
05
100
AcDbLine
62
7
6
CONTINUOUS
10
168.5771160000
20
9.9816820000
11
167.8657260000
21
10.6930720000
0
LINE
5
438
100
AcDbEntity
8
05
100
AcDbLine
62
7
6
CONTINUOUS
10
169.2527750000
20
9.3060230000
11
168.9627970000
21
9.5960010000
0
LINE
5
439
100
AcDbEntity
8
05
100
AcDbLine
62
7
6
CONTINUOUS
10
170.0316480000
20
8.2089520000
11
169.5916700000
21
8.6489310000
0
LINE
5
43A
100
AcDbEntity
8
05
100
AcDbLine
62
7
6
CONTINUOUS
10
168.5193740000
20
9.7212260000
11
167.5475280000
21
10.6930720000
0
LINE
5
43B
100
AcDbEntity
8
05
100
AcDbLine
62
7
6
CONTINUOUS
10
168.9345770000
20
9.3060230000
11
168.6445990000
21
9.5960010000
0
LINE
5
43C
100
AcDbEntity
8
05
100
AcDbLine
62
7
6
CONTINUOUS
10
169.7134500000
20
8.2089520000
11
169.2734720000
21
8.6489310000
0
LINE
5
43D
100
AcDbEntity
8
05
100
AcDbLine
62
7
6
CONTINUOUS
10
168.6163790000
20
9.3060230000
11
167.2293300000
21
10.6930720000
0
LINE
5
43E
100
AcDbEntity
8
05
100
AcDbLine
62
7
6
CONTINUOUS
10
169.3952520000
20
8.2089520000
11
168.9552740000
21
8.6489310000
0
LINE
5
43F
100
AcDbEntity
8
05
100
AcDbLine
62
7
6
CONTINUOUS
10
168.4038910000
20
9.2003130000
11
167.0059700000
21
10.5982340000
0
LINE
5
440
100
AcDbEntity
8
05
100
AcDbLine
62
7
6
CONTINUOUS
10
169.0770540000
20
8.2089520000
11
168.6370750000
21
8.6489310000
0
LINE
5
441
100
AcDbEntity
8
05
100
AcDbLine
62
7
6
CONTINUOUS
10
168.3461490000
20
8.9398570000
11
166.9482280000
21
10.3377780000
0
LINE
5
442
100
AcDbEntity
8
05
100
AcDbLine
62
7
6
CONTINUOUS
10
168.7588560000
20
8.2089520000
11
168.3188770000
21
8.6489310000
0
LINE
5
443
100
AcDbEntity
8
05
100
AcDbLine
62
7
6
CONTINUOUS
10
168.2884070000
20
8.6794010000
11
166.8904870000
21
10.0773220000
0
LINE
5
444
100
AcDbEntity
8
05
100
AcDbLine
62
7
6
CONTINUOUS
10
168.4406580000
20
8.2089520000
11
166.8327450000
21
9.8168650000
0
LINE
5
445
100
AcDbEntity
8
05
100
AcDbLine
62
7
6
CONTINUOUS
10
166.1337840000
20
10.5158260000
11
165.9565380000
21
10.6930720000
0
LINE
5
446
100
AcDbEntity
8
05
100
AcDbLine
62
7
6
CONTINUOUS
10
168.1224600000
20
8.2089520000
11
166.7750030000
21
9.5564090000
0
LINE
5
447
100
AcDbEntity
8
05
100
AcDbLine
62
7
6
CONTINUOUS
10
166.0760430000
20
10.2553690000
11
165.6383400000
21
10.6930720000
0
LINE
5
448
100
AcDbEntity
8
05
100
AcDbLine
62
7
6
CONTINUOUS
10
167.8042620000
20
8.2089520000
11
166.7172610000
21
9.2959530000
0
LINE
5
449
100
AcDbEntity
8
05
100
AcDbLine
62
7
6
CONTINUOUS
10
166.0183010000
20
9.9949130000
11
165.3201420000
21
10.6930720000
0
LINE
5
44A
100
AcDbEntity
8
05
100
AcDbLine
62
7
6
CONTINUOUS
10
167.4860640000
20
8.2089520000
11
166.6595200000
21
9.0354960000
0
LINE
5
44B
100
AcDbEntity
8
05
100
AcDbLine
62
7
6
CONTINUOUS
10
165.9605590000
20
9.7344570000
11
165.0019440000
21
10.6930720000
0
LINE
5
44C
100
AcDbEntity
8
05
100
AcDbLine
62
7
6
CONTINUOUS
10
167.1678660000
20
8.2089520000
11
166.6017780000
21
8.7750400000
0
LINE
5
44D
100
AcDbEntity
8
05
100
AcDbLine
62
7
6
CONTINUOUS
10
165.9028170000
20
9.4740000000
11
164.6837460000
21
10.6930720000
0
LINE
5
44E
100
AcDbEntity
8
05
100
AcDbLine
62
7
6
CONTINUOUS
10
166.8496680000
20
8.2089520000
11
166.5440360000
21
8.5145840000
0
LINE
5
44F
100
AcDbEntity
8
05
100
AcDbLine
62
7
6
CONTINUOUS
10
165.8450760000
20
9.2135440000
11
164.4471550000
21
10.6114650000
0
LINE
5
450
100
AcDbEntity
8
05
100
AcDbLine
62
7
6
CONTINUOUS
10
166.5314700000
20
8.2089520000
11
166.4862940000
21
8.2541280000
0
LINE
5
451
100
AcDbEntity
8
05
100
AcDbLine
62
7
6
CONTINUOUS
10
165.7873340000
20
8.9530880000
11
164.3894130000
21
10.3510090000
0
LINE
5
452
100
AcDbEntity
8
05
100
AcDbLine
62
7
6
CONTINUOUS
10
165.7295920000
20
8.6926320000
11
164.3316710000
21
10.0905520000
0
LINE
5
453
100
AcDbEntity
8
05
100
AcDbLine
62
7
6
CONTINUOUS
10
165.6718500000
20
8.4321750000
11
164.2739300000
21
9.8300960000
0
LINE
5
454
100
AcDbEntity
8
05
100
AcDbLine
62
7
6
CONTINUOUS
10
165.5768750000
20
8.2089520000
11
164.0733040000
21
9.7125240000
0
LINE
5
455
100
AcDbEntity
8
05
100
AcDbLine
62
7
6
CONTINUOUS
10
165.2586770000
20
8.2089520000
11
162.9995820000
21
10.4680470000
0
LINE
5
456
100
AcDbEntity
8
05
100
AcDbLine
62
7
6
CONTINUOUS
10
164.9404790000
20
8.2089520000
11
162.4563600000
21
10.6930720000
0
LINE
5
457
100
AcDbEntity
8
05
100
AcDbLine
62
7
6
CONTINUOUS
10
164.6222810000
20
8.2089520000
11
162.1381610000
21
10.6930720000
0
LINE
5
458
100
AcDbEntity
8
05
100
AcDbLine
62
7
6
CONTINUOUS
10
164.3040830000
20
8.2089520000
11
161.8199630000
21
10.6930720000
0
LINE
5
459
100
AcDbEntity
8
05
100
AcDbLine
62
7
6
CONTINUOUS
10
163.9858850000
20
8.2089520000
11
161.5017650000
21
10.6930720000
0
LINE
5
45A
100
AcDbEntity
8
05
100
AcDbLine
62
7
6
CONTINUOUS
10
163.5426650000
20
8.3339750000
11
161.1835670000
21
10.6930720000
0
LINE
5
45B
100
AcDbEntity
8
05
100
AcDbLine
62
7
6
CONTINUOUS
10
162.0963650000
20
9.4620760000
11
160.8653690000
21
10.6930720000
0
LINE
5
45C
100
AcDbEntity
8
05
100
AcDbLine
62
7
6
CONTINUOUS
10
162.0386240000
20
9.2016200000
11
160.6407030000
21
10.5995400000
0
LINE
5
45D
100
AcDbEntity
8
05
100
AcDbLine
62
7
6
CONTINUOUS
10
161.9808820000
20
8.9411630000
11
160.5829610000
21
10.3390840000
0
LINE
5
45E
100
AcDbEntity
8
05
100
AcDbLine
62
7
6
CONTINUOUS
10
161.9231400000
20
8.6807070000
11
160.5252190000
21
10.0786280000
0
LINE
5
45F
100
AcDbEntity
8
05
100
AcDbLine
62
7
6
CONTINUOUS
10
161.8653980000
20
8.4202510000
11
160.4674780000
21
9.8181710000
0
LINE
5
460
100
AcDbEntity
8
05
100
AcDbLine
62
7
6
CONTINUOUS
10
161.7584990000
20
8.2089520000
11
160.4097360000
21
9.5577150000
0
LINE
5
461
100
AcDbEntity
8
05
100
AcDbLine
62
7
6
CONTINUOUS
10
161.4403010000
20
8.2089520000
11
160.3519940000
21
9.2972590000
0
LINE
5
462
100
AcDbEntity
8
05
100
AcDbLine
62
7
6
CONTINUOUS
10
161.1221030000
20
8.2089520000
11
160.2942520000
21
9.0368030000
0
LINE
5
463
100
AcDbEntity
8
05
100
AcDbLine
62
7
6
CONTINUOUS
10
160.8039050000
20
8.2089520000
11
160.2365110000
21
8.7763460000
0
LINE
5
464
100
AcDbEntity
8
05
100
AcDbLine
62
7
6
CONTINUOUS
10
160.4857070000
20
8.2089520000
11
160.1787690000
21
8.5158900000
0
LINE
5
465
100
AcDbEntity
8
05
100
AcDbLine
62
7
6
CONTINUOUS
10
160.1675080000
20
8.2089520000
11
160.1210270000
21
8.2554340000
0
LINE
5
466
100
AcDbEntity
8
05
100
AcDbLine
62
7
6
CONTINUOUS
10
187.2143430000
20
8.2089520000
11
186.6229950000
21
8.8003000000
0
LINE
5
467
100
AcDbEntity
8
05
100
AcDbLine
62
7
6
CONTINUOUS
10
185.2353860000
20
10.1879090000
11
184.7302230000
21
10.6930720000
0
LINE
5
468
100
AcDbEntity
8
05
100
AcDbLine
62
7
6
CONTINUOUS
10
186.2880550000
20
9.1352400000
11
185.9980770000
21
9.4252180000
0
LINE
5
469
100
AcDbEntity
8
05
100
AcDbLine
62
7
6
CONTINUOUS
10
187.5325410000
20
8.2089520000
11
186.3162750000
21
9.4252180000
0
LINE
5
46A
100
AcDbEntity
8
05
100
AcDbLine
62
7
6
CONTINUOUS
10
185.4884000000
20
10.2530940000
11
185.0484210000
21
10.6930720000
0
LINE
5
46B
100
AcDbEntity
8
05
100
AcDbLine
62
7
6
CONTINUOUS
10
187.8507390000
20
8.2089520000
11
186.5865410000
21
9.4731500000
0
LINE
5
46C
100
AcDbEntity
8
05
100
AcDbLine
62
7
6
CONTINUOUS
10
185.8065980000
20
10.2530940000
11
185.3666190000
21
10.6930720000
0
LINE
5
46D
100
AcDbEntity
8
05
100
AcDbLine
62
7
6
CONTINUOUS
10
188.1689370000
20
8.2089520000
11
186.7895650000
21
9.5883250000
0
LINE
5
46E
100
AcDbEntity
8
05
100
AcDbLine
62
7
6
CONTINUOUS
10
186.1247960000
20
10.2530940000
11
185.6848170000
21
10.6930720000
0
LINE
5
46F
100
AcDbEntity
8
05
100
AcDbLine
62
7
6
CONTINUOUS
10
188.3114220000
20
8.3846650000
11
186.9276840000
21
9.7684040000
0
LINE
5
470
100
AcDbEntity
8
05
100
AcDbLine
62
7
6
CONTINUOUS
10
186.4429940000
20
10.2530940000
11
186.0030150000
21
10.6930720000
0
LINE
5
471
100
AcDbEntity
8
05
100
AcDbLine
62
7
6
CONTINUOUS
10
188.3236390000
20
8.6906470000
11
186.9146710000
21
10.0996140000
0
LINE
5
472
100
AcDbEntity
8
05
100
AcDbLine
62
7
6
CONTINUOUS
10
186.7916150000
20
10.2226700000
11
186.3212130000
21
10.6930720000
0
LINE
5
473
100
AcDbEntity
8
05
100
AcDbLine
62
7
6
CONTINUOUS
10
188.3444350000
20
8.9880480000
11
186.6394110000
21
10.6930720000
0
LINE
5
474
100
AcDbEntity
8
05
100
AcDbLine
62
7
6
CONTINUOUS
10
189.4417290000
20
8.2089520000
11
189.1979220000
21
8.4527590000
0
LINE
5
475
100
AcDbEntity
8
05
100
AcDbLine
62
7
6
CONTINUOUS
10
188.2866150000
20
9.3640660000
11
186.9576100000
21
10.6930720000
0
LINE
5
476
100
AcDbEntity
8
05
100
AcDbLine
62
7
6
CONTINUOUS
10
189.7599270000
20
8.2089520000
11
189.2556640000
21
8.7132160000
0
LINE
5
477
100
AcDbEntity
8
05
100
AcDbLine
62
7
6
CONTINUOUS
10
188.4817000000
20
9.4871790000
11
187.2758080000
21
10.6930720000
0
LINE
5
478
100
AcDbEntity
8
05
100
AcDbLine
62
7
6
CONTINUOUS
10
190.0781250000
20
8.2089520000
11
189.3134060000
21
8.9736720000
0
LINE
5
479
100
AcDbEntity
8
05
100
AcDbLine
62
7
6
CONTINUOUS
10
188.6502860000
20
9.6367910000
11
187.5940060000
21
10.6930720000
0
LINE
5
47A
100
AcDbEntity
8
05
100
AcDbLine
62
7
6
CONTINUOUS
10
190.3963230000
20
8.2089520000
11
189.3711480000
21
9.2341280000
0
LINE
5
47B
100
AcDbEntity
8
05
100
AcDbLine
62
7
6
CONTINUOUS
10
188.7853460000
20
9.8199300000
11
187.9122040000
21
10.6930720000
0
LINE
5
47C
100
AcDbEntity
8
05
100
AcDbLine
62
7
6
CONTINUOUS
10
190.7145210000
20
8.2089520000
11
189.4288890000
21
9.4945840000
0
LINE
5
47D
100
AcDbEntity
8
05
100
AcDbLine
62
7
6
CONTINUOUS
10
188.8709020000
20
10.0525710000
11
188.2554280000
21
10.6680460000
0
LINE
5
47E
100
AcDbEntity
8
05
100
AcDbLine
62
7
6
CONTINUOUS
10
190.8845520000
20
8.3571200000
11
189.4866310000
21
9.7550410000
0
LINE
5
47F
100
AcDbEntity
8
05
100
AcDbLine
62
7
6
CONTINUOUS
10
190.9422940000
20
8.6175760000
11
189.5443730000
21
10.0154970000
0
LINE
5
480
100
AcDbEntity
8
05
100
AcDbLine
62
7
6
CONTINUOUS
10
191.0000350000
20
8.8780330000
11
189.6021150000
21
10.2759530000
0
LINE
5
481
100
AcDbEntity
8
05
100
AcDbLine
62
7
6
CONTINUOUS
10
191.9873140000
20
8.2089520000
11
191.8838210000
21
8.3124450000
0
LINE
5
482
100
AcDbEntity
8
05
100
AcDbLine
62
7
6
CONTINUOUS
10
191.0577770000
20
9.1384890000
11
189.6598560000
21
10.5364100000
0
LINE
5
483
100
AcDbEntity
8
05
100
AcDbLine
62
7
6
CONTINUOUS
10
192.3055120000
20
8.2089520000
11
191.9415630000
21
8.5729010000
0
LINE
5
484
100
AcDbEntity
8
05
100
AcDbLine
62
7
6
CONTINUOUS
10
191.1155190000
20
9.3989450000
11
189.8213920000
21
10.6930720000
0
LINE
5
485
100
AcDbEntity
8
05
100
AcDbLine
62
7
6
CONTINUOUS
10
192.6237100000
20
8.2089520000
11
191.9993050000
21
8.8333570000
0
LINE
5
486
100
AcDbEntity
8
05
100
AcDbLine
62
7
6
CONTINUOUS
10
191.1732610000
20
9.6594010000
11
190.1395900000
21
10.6930720000
0
LINE
5
487
100
AcDbEntity
8
05
100
AcDbLine
62
7
6
CONTINUOUS
10
192.9419080000
20
8.2089520000
11
192.0570460000
21
9.0938140000
0
LINE
5
488
100
AcDbEntity
8
05
100
AcDbLine
62
7
6
CONTINUOUS
10
191.2310020000
20
9.9198580000
11
190.4577880000
21
10.6930720000
0
LINE
5
489
100
AcDbEntity
8
05
100
AcDbLine
62
7
6
CONTINUOUS
10
193.2601060000
20
8.2089520000
11
192.1147880000
21
9.3542700000
0
LINE
5
48A
100
AcDbEntity
8
05
100
AcDbLine
62
7
6
CONTINUOUS
10
191.2887440000
20
10.1803140000
11
190.7759860000
21
10.6930720000
0
LINE
5
48B
100
AcDbEntity
8
05
100
AcDbLine
62
7
6
CONTINUOUS
10
193.5069090000
20
8.2803470000
11
192.1725300000
21
9.6147260000
0
LINE
5
48C
100
AcDbEntity
8
05
100
AcDbLine
62
7
6
CONTINUOUS
10
191.3464860000
20
10.4407700000
11
191.0941840000
21
10.6930720000
0
LINE
5
48D
100
AcDbEntity
8
05
100
AcDbLine
62
7
6
CONTINUOUS
10
193.5646510000
20
8.5408040000
11
192.2302720000
21
9.8751820000
0
LINE
5
48E
100
AcDbEntity
8
05
100
AcDbLine
62
7
6
CONTINUOUS
10
193.6223920000
20
8.8012600000
11
192.2880140000
21
10.1356390000
0
LINE
5
48F
100
AcDbEntity
8
05
100
AcDbLine
62
7
6
CONTINUOUS
10
193.8272750000
20
8.9145760000
11
192.3457550000
21
10.3960950000
0
LINE
5
490
100
AcDbEntity
8
05
100
AcDbLine
62
7
6
CONTINUOUS
10
194.0503950000
20
9.0096540000
11
192.4034970000
21
10.6565510000
0
LINE
5
491
100
AcDbEntity
8
05
100
AcDbLine
62
7
6
CONTINUOUS
10
194.2735140000
20
9.1047320000
11
192.6851740000
21
10.6930720000
0
LINE
5
492
100
AcDbEntity
8
05
100
AcDbLine
62
7
6
CONTINUOUS
10
195.4874920000
20
8.2089520000
11
193.0033720000
21
10.6930720000
0
LINE
5
493
100
AcDbEntity
8
05
100
AcDbLine
62
7
6
CONTINUOUS
10
195.8056900000
20
8.2089520000
11
194.0702760000
21
9.9443670000
0
LINE
5
494
100
AcDbEntity
8
05
100
AcDbLine
62
7
6
CONTINUOUS
10
193.9111010000
20
10.1035410000
11
193.3215710000
21
10.6930720000
0
LINE
5
495
100
AcDbEntity
8
05
100
AcDbLine
62
7
6
CONTINUOUS
10
196.1238880000
20
8.2089520000
11
194.2933950000
21
10.0394450000
0
LINE
5
496
100
AcDbEntity
8
05
100
AcDbLine
62
7
6
CONTINUOUS
10
193.9688430000
20
10.3639980000
11
193.6397690000
21
10.6930720000
0
LINE
5
497
100
AcDbEntity
8
05
100
AcDbLine
62
7
6
CONTINUOUS
10
196.4420860000
20
8.2089520000
11
194.5165150000
21
10.1345230000
0
LINE
5
498
100
AcDbEntity
8
05
100
AcDbLine
62
7
6
CONTINUOUS
10
194.0265850000
20
10.6244540000
11
193.9579670000
21
10.6930720000
0
LINE
5
499
100
AcDbEntity
8
05
100
AcDbLine
62
7
6
CONTINUOUS
10
196.7602840000
20
8.2089520000
11
194.7396350000
21
10.2296020000
0
LINE
5
49A
100
AcDbEntity
8
05
100
AcDbLine
62
7
6
CONTINUOUS
10
197.0784820000
20
8.2089520000
11
194.9627550000
21
10.3246800000
0
LINE
5
49B
100
AcDbEntity
8
05
100
AcDbLine
62
7
6
CONTINUOUS
10
197.3966810000
20
8.2089520000
11
195.1858740000
21
10.4197580000
0
LINE
5
49C
100
AcDbEntity
8
05
100
AcDbLine
62
7
6
CONTINUOUS
10
196.0584720000
20
9.8653590000
11
195.4089940000
21
10.5148370000
0
LINE
5
49D
100
AcDbEntity
8
05
100
AcDbLine
62
7
6
CONTINUOUS
10
196.2815920000
20
9.9604370000
11
195.6321140000
21
10.6099150000
0
LINE
5
49E
100
AcDbEntity
8
05
100
AcDbLine
62
7
6
CONTINUOUS
10
196.5047120000
20
10.0555150000
11
195.8671550000
21
10.6930720000
0
LINE
5
49F
100
AcDbEntity
8
05
100
AcDbLine
62
7
6
CONTINUOUS
10
196.7278310000
20
10.1505930000
11
196.1853530000
21
10.6930720000
0
LINE
5
4A0
100
AcDbEntity
8
05
100
AcDbLine
62
7
6
CONTINUOUS
10
196.9509510000
20
10.2456720000
11
196.5035510000
21
10.6930720000
0
LINE
5
4A1
100
AcDbEntity
8
05
100
AcDbLine
62
7
6
CONTINUOUS
10
197.1740710000
20
10.3407500000
11
196.8217490000
21
10.6930720000
0
LINE
5
4A2
100
AcDbEntity
8
05
100
AcDbLine
62
7
6
CONTINUOUS
10
197.3971910000
20
10.4358280000
11
197.1399470000
21
10.6930720000
0
LINE
5
4A3
100
AcDbEntity
8
05
100
AcDbLine
62
7
6
CONTINUOUS
10
197.6203100000
20
10.5309070000
11
197.4581450000
21
10.6930720000
0
LINE
5
4A4
100
AcDbEntity
8
05
100
AcDbLine
62
7
6
CONTINUOUS
10
197.8434300000
20
10.6259850000
11
197.7763430000
21
10.6930720000
0
LINE
5
4A5
100
AcDbEntity
8
05
100
AcDbLine
62
7
6
CONTINUOUS
10
200.5786610000
20
8.2089520000
11
200.5132270000
21
8.2743870000
0
LINE
5
4A6
100
AcDbEntity
8
05
100
AcDbLine
62
7
6
CONTINUOUS
10
200.8968590000
20
8.2089520000
11
200.6495970000
21
8.4562140000
0
LINE
5
4A7
100
AcDbEntity
8
05
100
AcDbLine
62
7
6
CONTINUOUS
10
201.2150570000
20
8.2089520000
11
200.7859680000
21
8.6380420000
0
LINE
5
4A8
100
AcDbEntity
8
05
100
AcDbLine
62
7
6
CONTINUOUS
10
201.5332550000
20
8.2089520000
11
200.9223380000
21
8.8198690000
0
LINE
5
4A9
100
AcDbEntity
8
05
100
AcDbLine
62
7
6
CONTINUOUS
10
201.8514530000
20
8.2089520000
11
201.0587090000
21
9.0016960000
0
LINE
5
4AA
100
AcDbEntity
8
05
100
AcDbLine
62
7
6
CONTINUOUS
10
202.1528720000
20
8.2257320000
11
201.1950800000
21
9.1835240000
0
LINE
5
4AB
100
AcDbEntity
8
05
100
AcDbLine
62
7
6
CONTINUOUS
10
202.2892420000
20
8.4075590000
11
201.3314500000
21
9.3653510000
0
LINE
5
4AC
100
AcDbEntity
8
05
100
AcDbLine
62
7
6
CONTINUOUS
10
202.4256130000
20
8.5893870000
11
201.4678210000
21
9.5471790000
0
LINE
5
4AD
100
AcDbEntity
8
05
100
AcDbLine
62
7
6
CONTINUOUS
10
202.6442140000
20
8.6889840000
11
201.6041910000
21
9.7290060000
0
LINE
5
4AE
100
AcDbEntity
8
05
100
AcDbLine
62
7
6
CONTINUOUS
10
202.9624120000
20
8.6889840000
11
201.7405620000
21
9.9108340000
0
LINE
5
4AF
100
AcDbEntity
8
05
100
AcDbLine
62
7
6
CONTINUOUS
10
203.2806100000
20
8.6889840000
11
202.9074220000
21
9.0621710000
0
LINE
5
4B0
100
AcDbEntity
8
05
100
AcDbLine
62
7
6
CONTINUOUS
10
202.8347250000
20
9.1348690000
11
201.8769330000
21
10.0926610000
0
LINE
5
4B1
100
AcDbEntity
8
05
100
AcDbLine
62
7
6
CONTINUOUS
10
203.5988080000
20
8.6889840000
11
203.2256200000
21
9.0621710000
0
LINE
5
4B2
100
AcDbEntity
8
05
100
AcDbLine
62
7
6
CONTINUOUS
10
202.9710950000
20
9.3166960000
11
202.0133030000
21
10.2744890000
0
LINE
5
4B3
100
AcDbEntity
8
05
100
AcDbLine
62
7
6
CONTINUOUS
10
204.3970380000
20
8.2089520000
11
204.3290410000
21
8.2769490000
0
LINE
5
4B4
100
AcDbEntity
8
05
100
AcDbLine
62
7
6
CONTINUOUS
10
203.1074660000
20
9.4985240000
11
202.1496740000
21
10.4563160000
0
LINE
5
4B5
100
AcDbEntity
8
05
100
AcDbLine
62
7
6
CONTINUOUS
10
203.9170060000
20
8.6889840000
11
203.5438180000
21
9.0621710000
0
LINE
5
4B6
100
AcDbEntity
8
05
100
AcDbLine
62
7
6
CONTINUOUS
10
204.7152360000
20
8.2089520000
11
203.8620160000
21
9.0621710000
0
LINE
5
4B7
100
AcDbEntity
8
05
100
AcDbLine
62
7
6
CONTINUOUS
10
203.2438370000
20
9.6803510000
11
202.2860440000
21
10.6381440000
0
LINE
5
4B8
100
AcDbEntity
8
05
100
AcDbLine
62
7
6
CONTINUOUS
10
205.0334340000
20
8.2089520000
11
204.1169090000
21
9.1254770000
0
LINE
5
4B9
100
AcDbEntity
8
05
100
AcDbLine
62
7
6
CONTINUOUS
10
203.3802070000
20
9.8621790000
11
202.5485850000
21
10.6938010000
0
LINE
5
4BA
100
AcDbEntity
8
05
100
AcDbLine
62
7
6
CONTINUOUS
10
205.3516320000
20
8.2089520000
11
204.0108430000
21
9.5497410000
0
LINE
5
4BB
100
AcDbEntity
8
05
100
AcDbLine
62
7
6
CONTINUOUS
10
203.5165780000
20
10.0440060000
11
202.8667830000
21
10.6938010000
0
LINE
5
4BC
100
AcDbEntity
8
05
100
AcDbLine
62
7
6
CONTINUOUS
10
205.6698300000
20
8.2089520000
11
203.9047770000
21
9.9740050000
0
LINE
5
4BD
100
AcDbEntity
8
05
100
AcDbLine
62
7
6
CONTINUOUS
10
203.6529480000
20
10.2258340000
11
203.1849810000
21
10.6938010000
0
LINE
5
4BE
100
AcDbEntity
8
05
100
AcDbLine
62
7
6
CONTINUOUS
10
205.8755950000
20
8.3213850000
11
203.7987110000
21
10.3982690000
0
LINE
5
4BF
100
AcDbEntity
8
05
100
AcDbLine
62
7
6
CONTINUOUS
10
203.7893190000
20
10.4076610000
11
203.5031790000
21
10.6938010000
0
LINE
5
4C0
100
AcDbEntity
8
05
100
AcDbLine
62
7
6
CONTINUOUS
10
205.7695290000
20
8.7456490000
11
203.8213770000
21
10.6938010000
0
LINE
5
4C1
100
AcDbEntity
8
05
100
AcDbLine
62
7
6
CONTINUOUS
10
205.6634630000
20
9.1699130000
11
204.1395760000
21
10.6938010000
0
LINE
5
4C2
100
AcDbEntity
8
05
100
AcDbLine
62
7
6
CONTINUOUS
10
206.7324920000
20
8.4190820000
11
206.6739720000
21
8.4776020000
0
LINE
5
4C3
100
AcDbEntity
8
05
100
AcDbLine
62
7
6
CONTINUOUS
10
205.5573970000
20
9.5941770000
11
204.4577740000
21
10.6938010000
0
LINE
5
4C4
100
AcDbEntity
8
05
100
AcDbLine
62
7
6
CONTINUOUS
10
207.1492980000
20
8.3204740000
11
206.6352250000
21
8.8345480000
0
LINE
5
4C5
100
AcDbEntity
8
05
100
AcDbLine
62
7
6
CONTINUOUS
10
205.4513310000
20
10.0184410000
11
204.7759720000
21
10.6938010000
0
LINE
5
4C6
100
AcDbEntity
8
05
100
AcDbLine
62
7
6
CONTINUOUS
10
207.5092820000
20
8.2786890000
11
206.6829220000
21
9.1050490000
0
LINE
5
4C7
100
AcDbEntity
8
05
100
AcDbLine
62
7
6
CONTINUOUS
10
205.3452650000
20
10.4427050000
11
205.0941700000
21
10.6938010000
0
LINE
5
4C8
100
AcDbEntity
8
05
100
AcDbLine
62
7
6
CONTINUOUS
10
207.8588570000
20
8.2473120000
11
206.7306180000
21
9.3755500000
0
LINE
5
4C9
100
AcDbEntity
8
05
100
AcDbLine
62
7
6
CONTINUOUS
10
208.1989400000
20
8.2254260000
11
206.7783150000
21
9.6460520000
0
LINE
5
4CA
100
AcDbEntity
8
05
100
AcDbLine
62
7
6
CONTINUOUS
10
208.5303060000
20
8.2122580000
11
206.8260120000
21
9.9165530000
0
LINE
5
4CB
100
AcDbEntity
8
05
100
AcDbLine
62
7
6
CONTINUOUS
10
208.8536160000
20
8.2071470000
11
206.8737080000
21
10.1870540000
0
LINE
5
4CC
100
AcDbEntity
8
05
100
AcDbLine
62
7
6
CONTINUOUS
10
209.1694370000
20
8.2095230000
11
208.7175430000
21
8.6614180000
0
LINE
5
4CD
100
AcDbEntity
8
05
100
AcDbLine
62
7
6
CONTINUOUS
10
208.2416420000
20
9.1373190000
11
206.9704990000
21
10.4084620000
0
LINE
5
4CE
100
AcDbEntity
8
05
100
AcDbLine
62
7
6
CONTINUOUS
10
209.4782650000
20
8.2188940000
11
209.0476490000
21
8.6495100000
0
LINE
5
4CF
100
AcDbEntity
8
05
100
AcDbLine
62
7
6
CONTINUOUS
10
208.2893390000
20
9.4078200000
11
207.1933910000
21
10.5037670000
0
LINE
5
4D0
100
AcDbEntity
8
05
100
AcDbLine
62
7
6
CONTINUOUS
10
209.7805300000
20
8.2348260000
11
209.3498670000
21
8.6654900000
0
LINE
5
4D1
100
AcDbEntity
8
05
100
AcDbLine
62
7
6
CONTINUOUS
10
208.3370350000
20
9.6783210000
11
207.4681720000
21
10.5471850000
0
LINE
5
4D2
100
AcDbEntity
8
05
100
AcDbLine
62
7
6
CONTINUOUS
10
210.1246030000
20
8.2089520000
11
209.6300090000
21
8.7035460000
0
LINE
5
4D3
100
AcDbEntity
8
05
100
AcDbLine
62
7
6
CONTINUOUS
10
208.3847320000
20
9.9488230000
11
207.7480050000
21
10.5855500000
0
LINE
5
4D4
100
AcDbEntity
8
05
100
AcDbLine
62
7
6
CONTINUOUS
10
210.4428010000
20
8.2089520000
11
209.8555260000
21
8.7962270000
0
LINE
5
4D5
100
AcDbEntity
8
05
100
AcDbLine
62
7
6
CONTINUOUS
10
208.5029990000
20
10.1487530000
11
208.0331350000
21
10.6186170000
0
LINE
5
4D6
100
AcDbEntity
8
05
100
AcDbLine
62
7
6
CONTINUOUS
10
209.5731040000
20
9.0786490000
11
209.3801960000
21
9.2715570000
0
LINE
5
4D7
100
AcDbEntity
8
05
100
AcDbLine
62
7
6
CONTINUOUS
10
210.7609990000
20
8.2089520000
11
209.9559880000
21
9.0139630000
0
LINE
5
4D8
100
AcDbEntity
8
05
100
AcDbLine
62
7
6
CONTINUOUS
10
208.7450410000
20
10.2249100000
11
208.3238330000
21
10.6461180000
0
LINE
5
4D9
100
AcDbEntity
8
05
100
AcDbLine
62
7
6
CONTINUOUS
10
209.8913020000
20
9.0786490000
11
209.6685740000
21
9.3013760000
0
LINE
5
4DA
100
AcDbEntity
8
05
100
AcDbLine
62
7
6
CONTINUOUS
10
211.0791970000
20
8.2089520000
11
209.9867720000
21
9.3013760000
0
LINE
5
4DB
100
AcDbEntity
8
05
100
AcDbLine
62
7
6
CONTINUOUS
10
209.0342750000
20
10.2538740000
11
208.6204010000
21
10.6677480000
0
LINE
5
4DC
100
AcDbEntity
8
05
100
AcDbLine
62
7
6
CONTINUOUS
10
211.3716180000
20
8.2347290000
11
210.3049710000
21
9.3013760000
0
LINE
5
4DD
100
AcDbEntity
8
05
100
AcDbLine
62
7
6
CONTINUOUS
10
209.3477810000
20
10.2585660000
11
208.9231780000
21
10.6831690000
0
LINE
5
4DE
100
AcDbEntity
8
05
100
AcDbLine
62
7
6
CONTINUOUS
10
211.4193150000
20
8.5052300000
11
210.6231690000
21
9.3013760000
0
LINE
5
4DF
100
AcDbEntity
8
05
100
AcDbLine
62
7
6
CONTINUOUS
10
209.6928320000
20
10.2317130000
11
209.2325510000
21
10.6919940000
0
LINE
5
4E0
100
AcDbEntity
8
05
100
AcDbLine
62
7
6
CONTINUOUS
10
211.4670110000
20
8.7757320000
11
210.9413670000
21
9.3013760000
0
LINE
5
4E1
100
AcDbEntity
8
05
100
AcDbLine
62
7
6
CONTINUOUS
10
210.2787500000
20
9.9639930000
11
209.5489540000
21
10.6937890000
0
LINE
5
4E2
100
AcDbEntity
8
05
100
AcDbLine
62
7
6
CONTINUOUS
10
211.5147080000
20
9.0462330000
11
211.2595650000
21
9.3013760000
0
LINE
5
4E3
100
AcDbEntity
8
05
100
AcDbLine
62
7
6
CONTINUOUS
10
210.5969480000
20
9.9639930000
11
209.8728890000
21
10.6880520000
0
LINE
5
4E4
100
AcDbEntity
8
05
100
AcDbLine
62
7
6
CONTINUOUS
10
210.9151460000
20
9.9639930000
11
210.2049290000
21
10.6742100000
0
LINE
5
4E5
100
AcDbEntity
8
05
100
AcDbLine
62
7
6
CONTINUOUS
10
211.2333440000
20
9.9639930000
11
210.5457450000
21
10.6515930000
0
LINE
5
4E6
100
AcDbEntity
8
05
100
AcDbLine
62
7
6
CONTINUOUS
10
211.5515420000
20
9.9639930000
11
210.8961190000
21
10.6194160000
0
LINE
5
4E7
100
AcDbEntity
8
05
100
AcDbLine
62
7
6
CONTINUOUS
10
211.7054950000
20
10.1282390000
11
211.2569840000
21
10.5767500000
0
LINE
5
4E8
100
AcDbEntity
8
035
100
AcDbLine
62
3
6
CONTINUOUS
10
160.1107220000
20
8.2089520000
11
161.8185550000
21
8.2089520000
0
LINE
5
4E9
100
AcDbEntity
8
035
100
AcDbLine
62
3
6
CONTINUOUS
10
160.6614380000
20
10.6930720000
11
162.6797860000
21
10.6930720000
0
LINE
5
4EA
100
AcDbEntity
8
035
100
AcDbLine
62
3
6
CONTINUOUS
10
160.1107220000
20
8.2089520000
11
160.6614380000
21
10.6930720000
0
LINE
5
4EB
100
AcDbEntity
8
035
100
AcDbLine
62
3
6
CONTINUOUS
10
161.8185550000
20
8.2089520000
11
162.1283320000
21
9.6062700000
0
LINE
5
4EC
100
AcDbEntity
8
035
100
AcDbLine
62
3
6
CONTINUOUS
10
165.6223630000
20
8.2089520000
11
166.1730790000
21
10.6930720000
0
LINE
5
4ED
100
AcDbEntity
8
035
100
AcDbLine
62
3
6
CONTINUOUS
10
164.2243080000
20
9.6062700000
11
164.4652470000
21
10.6930720000
0
LINE
5
4EE
100
AcDbEntity
8
035
100
AcDbLine
62
3
6
CONTINUOUS
10
162.1283320000
20
9.6062700000
11
163.6816440000
21
8.2089520000
0
LINE
5
4EF
100
AcDbEntity
8
035
100
AcDbLine
62
3
6
CONTINUOUS
10
162.6797860000
20
10.6930720000
11
164.2243080000
21
9.6062700000
0
LINE
5
4F0
100
AcDbEntity
8
035
100
AcDbLine
62
3
6
CONTINUOUS
10
164.4652470000
20
10.6930720000
11
166.1730790000
21
10.6930720000
0
LINE
5
4F1
100
AcDbEntity
8
035
100
AcDbLine
62
3
6
CONTINUOUS
10
163.6816440000
20
8.2089520000
11
165.6223630000
21
8.2089520000
0
LINE
5
4F2
100
AcDbEntity
8
035
100
AcDbLine
62
3
6
CONTINUOUS
10
166.4762790000
20
8.2089520000
11
167.0269950000
21
10.6930720000
0
LINE
5
4F3
100
AcDbEntity
8
035
100
AcDbLine
62
3
6
CONTINUOUS
10
168.2816520000
20
8.6489310000
11
168.4273260000
21
9.3060230000
0
LINE
5
4F4
100
AcDbEntity
8
035
100
AcDbLine
62
3
6
CONTINUOUS
10
171.1443320000
20
9.3060230000
11
171.2086190000
21
9.5960010000
0
LINE
5
4F5
100
AcDbEntity
8
035
100
AcDbLine
62
3
6
CONTINUOUS
10
171.1340040000
20
8.2089520000
11
171.2315440000
21
8.6489310000
0
LINE
5
4F6
100
AcDbEntity
8
035
100
AcDbLine
62
3
6
CONTINUOUS
10
166.4762790000
20
8.2089520000
11
171.1340040000
21
8.2089520000
0
LINE
5
4F7
100
AcDbEntity
8
035
100
AcDbLine
62
3
6
CONTINUOUS
10
167.0269950000
20
10.6930720000
11
171.6847200000
21
10.6930720000
0
LINE
5
4F8
100
AcDbEntity
8
035
100
AcDbLine
62
3
6
CONTINUOUS
10
168.4916130000
20
9.5960010000
11
168.6372870000
21
10.2530940000
0
LINE
5
4F9
100
AcDbEntity
8
035
100
AcDbLine
62
3
6
CONTINUOUS
10
171.5871790000
20
10.2530940000
11
171.6847200000
21
10.6930720000
0
LINE
5
4FA
100
AcDbEntity
8
035
100
AcDbLine
62
3
6
CONTINUOUS
10
172.0785120000
20
8.9677470000
11
172.4610070000
21
10.6930720000
0
LINE
5
4FB
100
AcDbEntity
8
035
100
AcDbLine
62
3
6
CONTINUOUS
10
173.8294160000
20
9.1814320000
11
174.1645380000
21
10.6930720000
0
LINE
5
4FC
100
AcDbEntity
8
035
100
AcDbLine
62
3
6
CONTINUOUS
10
175.6970730000
20
9.1008870000
11
176.0500510000
21
10.6930720000
0
LINE
5
4FD
100
AcDbEntity
8
035
100
AcDbLine
62
3
6
CONTINUOUS
10
177.3443260000
20
8.8470990000
11
177.7535680000
21
10.6930720000
0
LINE
5
4FE
100
AcDbEntity
8
035
100
AcDbLine
62
3
6
CONTINUOUS
10
172.4610070000
20
10.6930720000
11
174.1645380000
21
10.6930720000
0
ARC
5
4FF
100
AcDbEntity
8
035
100
AcDbCircle
62
3
6
CONTINUOUS
10
172.3565382511
20
8.9076074747
40
0.2844562511
100
AcDbArc
50
167.7944635173
51
179.9992899294
0
ARC
5
500
100
AcDbEntity
8
035
100
AcDbCircle
62
3
6
CONTINUOUS
10
172.3565385413
20
8.9076113390
40
0.2844565413
100
AcDbArc
50
180.0000682898
51
234.6229224813
0
ARC
5
501
100
AcDbEntity
8
035
100
AcDbCircle
62
3
6
CONTINUOUS
10
173.4662366591
20
10.4704306902
40
2.2011814138
100
AcDbArc
50
234.6229020698
51
253.6104761870
0
ARC
5
502
100
AcDbEntity
8
035
100
AcDbCircle
62
3
6
CONTINUOUS
10
174.2145988754
20
13.0148393689
40
4.8533619377
100
AcDbArc
50
253.6103910211
51
263.0540333551
0
ARC
5
503
100
AcDbEntity
8
035
100
AcDbCircle
62
3
6
CONTINUOUS
10
174.7114581813
20
17.0931766141
40
8.9618536141
100
AcDbArc
50
263.0539945915
51
270.0000116273
0
ARC
5
504
100
AcDbEntity
8
035
100
AcDbCircle
62
3
6
CONTINUOUS
10
174.7114613187
20
17.0931683755
40
8.9618453755
100
AcDbArc
50
269.9999915694
51
276.9460086052
0
ARC
5
505
100
AcDbEntity
8
035
100
AcDbCircle
62
3
6
CONTINUOUS
10
175.2083201246
20
13.0148393689
40
4.8533619377
100
AcDbArc
50
276.9459666449
51
286.3896089789
0
ARC
5
506
100
AcDbEntity
8
035
100
AcDbCircle
62
3
6
CONTINUOUS
10
175.9566823409
20
10.4704306902
40
2.2011814138
100
AcDbArc
50
286.3895238130
51
305.3770979302
0
ARC
5
507
100
AcDbEntity
8
035
100
AcDbCircle
62
3
6
CONTINUOUS
10
177.0663810713
20
8.9076107687
40
0.2844557216
100
AcDbArc
50
305.3770434265
51
347.7177170673
0
ARC
5
508
100
AcDbEntity
8
035
100
AcDbCircle
62
3
6
CONTINUOUS
10
174.0025297663
20
9.1404964568
40
0.1778877663
100
AcDbArc
50
179.9998250514
51
225.0422913416
0
ARC
5
509
100
AcDbEntity
8
035
100
AcDbCircle
62
3
6
CONTINUOUS
10
174.3618635061
20
9.5003622419
40
0.6864387665
100
AcDbArc
50
225.0423614170
51
247.5300128082
0
ARC
5
50A
100
AcDbEntity
8
035
100
AcDbCircle
62
3
6
CONTINUOUS
10
174.6034918176
20
10.0845620937
40
1.3186362892
100
AcDbArc
50
247.5298821870
51
260.2785491795
0
ARC
5
50B
100
AcDbEntity
8
035
100
AcDbCircle
62
3
6
CONTINUOUS
10
174.7630903846
20
11.0161117087
40
2.2637587087
100
AcDbArc
50
260.2783770082
51
269.9999902662
0
ARC
5
50C
100
AcDbEntity
8
035
100
AcDbCircle
62
3
6
CONTINUOUS
10
174.7630896154
20
11.0161117087
40
2.2637587087
100
AcDbArc
50
270.0000097338
51
279.7216229918
0
ARC
5
50D
100
AcDbEntity
8
035
100
AcDbCircle
62
3
6
CONTINUOUS
10
174.9226881824
20
10.0845620937
40
1.3186362892
100
AcDbArc
50
279.7214508205
51
292.4701178130
0
ARC
5
50E
100
AcDbEntity
8
035
100
AcDbCircle
62
3
6
CONTINUOUS
10
175.1643164939
20
9.5003622419
40
0.6864387665
100
AcDbArc
50
292.4699871918
51
314.9576385830
0
ARC
5
50F
100
AcDbEntity
8
035
100
AcDbCircle
62
3
6
CONTINUOUS
10
175.5236507293
20
9.1404979651
40
0.1778884834
100
AcDbArc
50
314.9572524508
51
347.1339192357
0
ARC
5
510
100
AcDbEntity
8
035
100
AcDbCircle
62
3
6
CONTINUOUS
10
174.0025290776
20
9.1404969937
40
0.1778870776
100
AcDbArc
50
166.6959850486
51
179.9999979692
0
LINE
5
511
100
AcDbEntity
8
035
100
AcDbLine
62
3
6
CONTINUOUS
10
176.0500510000
20
10.6930720000
11
177.7535680000
21
10.6930720000
0
LINE
5
512
100
AcDbEntity
8
035
100
AcDbLine
62
3
6
CONTINUOUS
10
178.0678550000
20
10.0720420000
11
178.2055340000
21
10.6930720000
0
LINE
5
513
100
AcDbEntity
8
035
100
AcDbLine
62
3
6
CONTINUOUS
10
179.2073930000
20
8.2089520000
11
179.6204300000
21
10.0720420000
0
LINE
5
514
100
AcDbEntity
8
035
100
AcDbLine
62
3
6
CONTINUOUS
10
180.9152250000
20
8.2089520000
11
181.3282620000
21
10.0720420000
0
LINE
5
515
100
AcDbEntity
8
035
100
AcDbLine
62
3
6
CONTINUOUS
10
182.9584660000
20
10.0720420000
11
183.0961450000
21
10.6930720000
0
LINE
5
516
100
AcDbEntity
8
035
100
AcDbLine
62
3
6
CONTINUOUS
10
178.0678550000
20
10.0720420000
11
179.6204300000
21
10.0720420000
0
LINE
5
517
100
AcDbEntity
8
035
100
AcDbLine
62
3
6
CONTINUOUS
10
179.2073930000
20
8.2089520000
11
180.9152250000
21
8.2089520000
0
LINE
5
518
100
AcDbEntity
8
035
100
AcDbLine
62
3
6
CONTINUOUS
10
178.2055340000
20
10.6930720000
11
183.0961450000
21
10.6930720000
0
LINE
5
519
100
AcDbEntity
8
035
100
AcDbLine
62
3
6
CONTINUOUS
10
181.3282620000
20
10.0720420000
11
182.9584660000
21
10.0720420000
0
LINE
5
51A
100
AcDbEntity
8
035
100
AcDbLine
62
3
6
CONTINUOUS
10
183.0888300000
20
8.2089520000
11
183.6395460000
21
10.6930720000
0
LINE
5
51B
100
AcDbEntity
8
035
100
AcDbLine
62
3
6
CONTINUOUS
10
184.7966620000
20
8.2089520000
11
185.0020150000
21
9.1352400000
0
LINE
5
51C
100
AcDbEntity
8
035
100
AcDbLine
62
3
6
CONTINUOUS
10
183.0888300000
20
8.2089520000
11
184.7966620000
21
8.2089520000
0
LINE
5
51D
100
AcDbEntity
8
035
100
AcDbLine
62
3
6
CONTINUOUS
10
183.6395460000
20
10.6930720000
11
187.9979220000
21
10.6930720000
0
LINE
5
51E
100
AcDbEntity
8
035
100
AcDbLine
62
3
6
CONTINUOUS
10
188.3081340000
20
8.4689140000
11
188.3485860000
21
9.0474050000
0
LINE
5
51F
100
AcDbEntity
8
035
100
AcDbLine
62
3
6
CONTINUOUS
10
186.5959630000
20
8.4068680000
11
186.6272290000
21
8.8619210000
0
LINE
5
520
100
AcDbEntity
8
035
100
AcDbLine
62
3
6
CONTINUOUS
10
185.0663020000
20
9.4252180000
11
185.2498370000
21
10.2530940000
0
ARC
5
521
100
AcDbEntity
8
035
100
AcDbCircle
62
3
6
CONTINUOUS
10
188.6953320000
20
8.4418380000
40
0.3881440000
100
AcDbArc
50
176.0000000000
51
216.8698980000
0
ARC
5
522
100
AcDbEntity
8
035
100
AcDbCircle
62
3
6
CONTINUOUS
10
186.9697530000
20
8.4119050000
40
0.3738240000
100
AcDbArc
50
180.7720050000
51
212.8818750000
0
LINE
5
523
100
AcDbEntity
8
035
100
AcDbLine
62
3
6
CONTINUOUS
10
186.6558180000
20
8.2089520000
11
188.3848170000
21
8.2089520000
0
ARC
5
524
100
AcDbEntity
8
035
100
AcDbCircle
62
3
6
CONTINUOUS
10
188.0645091256
20
9.0692414046
40
0.2849148980
100
AcDbArc
50
355.6044351018
51
14.9998321139
0
ARC
5
525
100
AcDbEntity
8
035
100
AcDbCircle
62
3
6
CONTINUOUS
10
188.0645115927
20
9.0692393407
40
0.2849130492
100
AcDbArc
50
15.0003614107
51
49.8062951149
0
ARC
5
526
100
AcDbEntity
8
035
100
AcDbCircle
62
3
6
CONTINUOUS
10
187.8802286242
20
8.8511285638
40
0.5704520544
100
AcDbArc
50
49.8058236467
51
55.6063554031
0
ARC
5
527
100
AcDbEntity
8
035
100
AcDbCircle
62
3
6
CONTINUOUS
10
187.3132482994
20
11.1994672129
40
2.0775325922
100
AcDbArc
50
295.3416402972
51
298.8636783469
0
ARC
5
528
100
AcDbEntity
8
035
100
AcDbCircle
62
3
6
CONTINUOUS
10
187.6415395293
20
10.6038639832
40
1.3974455839
100
AcDbArc
50
298.8639281557
51
315.7882926038
0
ARC
5
529
100
AcDbEntity
8
035
100
AcDbCircle
62
3
6
CONTINUOUS
10
187.9889757242
20
10.2658585190
40
0.9127192659
100
AcDbArc
50
315.7883093494
51
340.1939355680
0
ARC
5
52A
100
AcDbEntity
8
035
100
AcDbCircle
62
3
6
CONTINUOUS
10
188.4188091494
20
10.1110581593
40
0.4558605079
100
AcDbArc
50
340.1938658204
51
14.9997995246
0
ARC
5
52B
100
AcDbEntity
8
035
100
AcDbCircle
62
3
6
CONTINUOUS
10
188.4188087341
20
10.1110565785
40
0.4558613183
100
AcDbArc
50
14.9999779363
51
49.8059116405
0
ARC
5
52C
100
AcDbEntity
8
035
100
AcDbCircle
62
3
6
CONTINUOUS
10
188.1239631890
20
9.7620752320
40
0.9127222113
100
AcDbArc
50
49.8061438314
51
74.2117700500
0
ARC
5
52D
100
AcDbEntity
8
035
100
AcDbCircle
62
3
6
CONTINUOUS
10
187.9920781414
20
9.2956381767
40
1.3974460423
100
AcDbArc
50
74.2117641360
51
89.7603990413
0
LINE
5
52E
100
AcDbEntity
8
035
100
AcDbLine
62
3
6
CONTINUOUS
10
189.1438710000
20
8.2089520000
11
189.6945880000
21
10.6930720000
0
LINE
5
52F
100
AcDbEntity
8
035
100
AcDbLine
62
3
6
CONTINUOUS
10
190.8517040000
20
8.2089520000
11
191.4024200000
21
10.6930720000
0
LINE
5
530
100
AcDbEntity
8
035
100
AcDbLine
62
3
6
CONTINUOUS
10
189.1438710000
20
8.2089520000
11
190.8517040000
21
8.2089520000
0
LINE
5
531
100
AcDbEntity
8
035
100
AcDbLine
62
3
6
CONTINUOUS
10
189.6945880000
20
10.6930720000
11
191.4024200000
21
10.6930720000
0
LINE
5
532
100
AcDbEntity
8
035
100
AcDbLine
62
3
6
CONTINUOUS
10
191.8608770000
20
8.2089520000
11
192.4115940000
21
10.6930720000
0
LINE
5
533
100
AcDbEntity
8
035
100
AcDbLine
62
3
6
CONTINUOUS
10
193.4910810000
20
8.2089520000
11
193.6287600000
21
8.8299820000
0
LINE
5
534
100
AcDbEntity
8
035
100
AcDbLine
62
3
6
CONTINUOUS
10
192.4115940000
20
10.6930720000
11
194.0417970000
21
10.6930720000
0
LINE
5
535
100
AcDbEntity
8
035
100
AcDbLine
62
3
6
CONTINUOUS
10
191.8608770000
20
8.2089520000
11
193.4910810000
21
8.2089520000
0
LINE
5
536
100
AcDbEntity
8
035
100
AcDbLine
62
3
6
CONTINUOUS
10
193.6287600000
20
8.8299820000
11
194.3574440000
21
9.1404970000
0
LINE
5
537
100
AcDbEntity
8
035
100
AcDbLine
62
3
6
CONTINUOUS
10
193.8555250000
20
9.8528550000
11
195.8272580000
21
10.6930720000
0
LINE
5
538
100
AcDbEntity
8
035
100
AcDbLine
62
3
6
CONTINUOUS
10
195.8272580000
20
10.6930720000
11
198.0008630000
21
10.6930720000
0
LINE
5
539
100
AcDbEntity
8
035
100
AcDbLine
62
3
6
CONTINUOUS
10
194.3574440000
20
9.1404970000
11
195.2765420000
21
8.2089520000
0
LINE
5
53A
100
AcDbEntity
8
035
100
AcDbLine
62
3
6
CONTINUOUS
10
195.9969820000
20
9.8391560000
11
197.6054040000
21
8.2089520000
0
LINE
5
53B
100
AcDbEntity
8
035
100
AcDbLine
62
3
6
CONTINUOUS
10
195.9969820000
20
9.8391560000
11
198.0008630000
21
10.6930720000
0
LINE
5
53C
100
AcDbEntity
8
035
100
AcDbLine
62
3
6
CONTINUOUS
10
193.8555250000
20
9.8528550000
11
194.0417970000
21
10.6930720000
0
LINE
5
53D
100
AcDbEntity
8
035
100
AcDbLine
62
3
6
CONTINUOUS
10
195.2765420000
20
8.2089520000
11
197.6054040000
21
8.2089520000
0
LINE
5
53E
100
AcDbEntity
8
035
100
AcDbLine
62
3
6
CONTINUOUS
10
200.4641510000
20
8.2089520000
11
202.1402870000
21
8.2089520000
0
LINE
5
53F
100
AcDbEntity
8
035
100
AcDbLine
62
3
6
CONTINUOUS
10
202.3277870000
20
10.6938010000
11
205.2824910000
21
10.6938010000
0
LINE
5
540
100
AcDbEntity
8
035
100
AcDbLine
62
3
6
CONTINUOUS
10
200.4641510000
20
8.2089520000
11
202.3277870000
21
10.6938010000
0
LINE
5
541
100
AcDbEntity
8
035
100
AcDbLine
62
3
6
CONTINUOUS
10
205.2824910000
20
10.6938010000
11
205.9037030000
21
8.2089520000
0
LINE
5
542
100
AcDbEntity
8
035
100
AcDbLine
62
3
6
CONTINUOUS
10
202.5003110000
20
8.6889840000
11
204.2260320000
21
8.6889840000
0
LINE
5
543
100
AcDbEntity
8
035
100
AcDbLine
62
3
6
CONTINUOUS
10
202.7802020000
20
9.0621710000
11
204.1327350000
21
9.0621710000
0
LINE
5
544
100
AcDbEntity
8
035
100
AcDbLine
62
3
6
CONTINUOUS
10
206.6150190000
20
8.7199520000
11
206.8833800000
21
10.2419070000
0
LINE
5
545
100
AcDbEntity
8
035
100
AcDbLine
62
3
6
CONTINUOUS
10
211.3670730000
20
8.2089520000
11
211.5596970000
21
9.3013760000
0
LINE
5
546
100
AcDbEntity
8
035
100
AcDbLine
62
3
6
CONTINUOUS
10
208.2261250000
20
9.0493180000
11
208.3860210000
21
9.9561340000
0
LINE
5
547
100
AcDbEntity
8
035
100
AcDbLine
62
3
6
CONTINUOUS
10
209.8140420000
20
8.2089520000
11
209.8190480000
21
8.2373380000
0
LINE
5
548
100
AcDbEntity
8
035
100
AcDbLine
62
3
6
CONTINUOUS
10
209.3461810000
20
9.0786490000
11
209.3854540000
21
9.3013760000
0
LINE
5
549
100
AcDbEntity
8
035
100
AcDbLine
62
3
6
CONTINUOUS
10
209.3461810000
20
9.0786490000
11
209.9673930000
21
9.0786490000
0
ARC
5
54A
100
AcDbEntity
8
035
100
AcDbCircle
62
3
6
CONTINUOUS
10
209.4684270000
20
-3.0031280000
40
13.6971530000
100
AcDbArc
50
81.6598950000
51
99.8027900000
0
ARC
5
54B
100
AcDbEntity
8
035
100
AcDbCircle
62
3
6
CONTINUOUS
10
208.9084660000
20
21.9041900000
40
13.6971530000
100
AcDbArc
50
261.4614730000
51
273.8118150000
0
ARC
5
54C
100
AcDbEntity
8
035
100
AcDbCircle
62
3
6
CONTINUOUS
10
207.1892670000
20
10.1879710000
40
0.3106060000
100
AcDbArc
50
99.8027900000
51
170.0000000000
0
ARC
5
54D
100
AcDbEntity
8
035
100
AcDbCircle
62
3
6
CONTINUOUS
10
206.9209060000
20
8.6660160000
40
0.3106060000
100
AcDbArc
50
170.0000000000
51
261.4614730000
0
ARC
5
54E
100
AcDbEntity
8
035
100
AcDbCircle
62
3
6
CONTINUOUS
10
211.4101300000
20
10.2418500000
40
0.3106060000
100
AcDbArc
50
350.0000000000
51
81.6598950000
0
LINE
5
54F
100
AcDbEntity
8
035
100
AcDbLine
62
3
6
CONTINUOUS
10
210.1015710000
20
9.9639930000
11
211.6765340000
21
9.9639930000
0
LINE
5
550
100
AcDbEntity
8
035
100
AcDbLine
62
3
6
CONTINUOUS
10
211.6765340000
20
9.9639930000
11
211.7160170000
21
10.1879140000
0
LINE
5
551
100
AcDbEntity
8
035
100
AcDbLine
62
3
6
CONTINUOUS
10
209.9478530000
20
8.9678320000
11
209.9673930000
21
9.0786490000
0
ARC
5
552
100
AcDbEntity
8
035
100
AcDbCircle
62
3
6
CONTINUOUS
10
209.2442760000
20
6.6982740000
40
3.5617970000
100
AcDbArc
50
80.2083390000
51
99.7818250000
0
ARC
5
553
100
AcDbEntity
8
035
100
AcDbCircle
62
3
6
CONTINUOUS
10
209.0108590000
20
12.2111170000
40
3.5617970000
100
AcDbArc
50
261.5304680000
51
281.1930680000
0
ARC
5
554
100
AcDbEntity
8
035
100
AcDbCircle
62
3
6
CONTINUOUS
10
208.6919080000
20
9.9021980000
40
0.3106060000
100
AcDbArc
50
99.7818250000
51
170.0000000000
0
ARC
5
555
100
AcDbEntity
8
035
100
AcDbCircle
62
3
6
CONTINUOUS
10
209.7971930000
20
9.9021030000
40
0.3106060000
100
AcDbArc
50
11.4934250000
51
80.2083390000
0
ARC
5
556
100
AcDbEntity
8
035
100
AcDbCircle
62
3
6
CONTINUOUS
10
208.5320120000
20
8.9953820000
40
0.3106060000
100
AcDbArc
50
170.0000000000
51
261.5304680000
0
ARC
5
557
100
AcDbEntity
8
035
100
AcDbCircle
62
3
6
CONTINUOUS
10
209.6419660000
20
9.0217680000
40
0.3106060000
100
AcDbArc
50
281.1930680000
51
350.0000000000
0
LINE
5
558
100
AcDbEntity
8
035
100
AcDbLine
62
3
6
CONTINUOUS
10
209.8140420000
20
8.2089520000
11
211.3670730000
21
8.2089520000
0
LINE
5
559
100
AcDbEntity
8
035
100
AcDbLine
62
3
6
CONTINUOUS
10
204.3460400000
20
8.2089520000
11
205.9037030000
21
8.2089520000
0
LINE
5
55A
100
AcDbEntity
8
035
100
AcDbLine
62
3
6
CONTINUOUS
10
168.6372870000
20
10.2530940000
11
171.5871790000
21
10.2530940000
0
LINE
5
55B
100
AcDbEntity
8
035
100
AcDbLine
62
3
6
CONTINUOUS
10
168.4916130000
20
9.5960010000
11
171.2086190000
21
9.5960010000
0
LINE
5
55C
100
AcDbEntity
8
035
100
AcDbLine
62
3
6
CONTINUOUS
10
168.4273260000
20
9.3060230000
11
171.1443320000
21
9.3060230000
0
LINE
5
55D
100
AcDbEntity
8
035
100
AcDbLine
62
3
6
CONTINUOUS
10
168.2816520000
20
8.6489310000
11
171.2315440000
21
8.6489310000
0
LINE
5
55E
100
AcDbEntity
8
035
100
AcDbLine
62
3
6
CONTINUOUS
10
185.2498370000
20
10.2530940000
11
186.6563970000
21
10.2530940000
0
LINE
5
55F
100
AcDbEntity
8
035
100
AcDbLine
62
3
6
CONTINUOUS
10
185.0663020000
20
9.4252180000
11
186.4266270000
21
9.4252180000
0
LINE
5
560
100
AcDbEntity
8
035
100
AcDbLine
62
3
6
CONTINUOUS
10
185.0020150000
20
9.1352400000
11
186.4509000000
21
9.1352400000
0
LINE
5
561
100
AcDbEntity
8
035
100
AcDbLine
62
3
6
CONTINUOUS
10
186.6563970000
20
10.2530940000
11
186.7674140000
21
10.2349300000
0
LINE
5
562
100
AcDbEntity
8
035
100
AcDbLine
62
3
6
CONTINUOUS
10
186.7674140000
20
10.2349300000
11
186.8636110000
21
10.1861990000
0
LINE
5
563
100
AcDbEntity
8
035
100
AcDbLine
62
3
6
CONTINUOUS
10
186.8636110000
20
10.1861990000
11
186.9097870000
21
10.1118220000
0
LINE
5
564
100
AcDbEntity
8
035
100
AcDbLine
62
3
6
CONTINUOUS
10
186.9097870000
20
10.1118220000
11
186.9456990000
21
10.0220570000
0
LINE
5
565
100
AcDbEntity
8
035
100
AcDbLine
62
3
6
CONTINUOUS
10
186.9456990000
20
10.0220570000
11
186.9469830000
21
9.9246000000
0
LINE
5
566
100
AcDbEntity
8
035
100
AcDbLine
62
3
6
CONTINUOUS
10
186.9469830000
20
9.9246000000
11
186.9367220000
21
9.7835390000
0
LINE
5
567
100
AcDbEntity
8
035
100
AcDbLine
62
3
6
CONTINUOUS
10
186.9367220000
20
9.7835390000
11
186.8854140000
21
9.6976240000
0
LINE
5
568
100
AcDbEntity
8
035
100
AcDbLine
62
3
6
CONTINUOUS
10
186.8854140000
20
9.6976240000
11
186.7943500000
21
9.5911860000
0
LINE
5
569
100
AcDbEntity
8
035
100
AcDbLine
62
3
6
CONTINUOUS
10
186.7943500000
20
9.5911860000
11
186.6571060000
21
9.5091160000
0
LINE
5
56A
100
AcDbEntity
8
035
100
AcDbLine
62
3
6
CONTINUOUS
10
186.6571060000
20
9.5091160000
11
186.5262760000
21
9.4424340000
0
LINE
5
56B
100
AcDbEntity
8
035
100
AcDbLine
62
3
6
CONTINUOUS
10
186.5262760000
20
9.4424340000
11
186.4266270000
21
9.4252180000
0
LINE
5
56C
100
AcDbEntity
8
035
100
AcDbLine
62
3
6
CONTINUOUS
10
186.4509000000
20
9.1352400000
11
186.5337810000
21
9.1235790000
0
LINE
5
56D
100
AcDbEntity
8
035
100
AcDbLine
62
3
6
CONTINUOUS
10
186.5337810000
20
9.1235790000
11
186.5869810000
21
9.0899330000
0
LINE
5
56E
100
AcDbEntity
8
035
100
AcDbLine
62
3
6
CONTINUOUS
10
186.5869810000
20
9.0899330000
11
186.6195510000
21
9.0367450000
0
LINE
5
56F
100
AcDbEntity
8
035
100
AcDbLine
62
3
6
CONTINUOUS
10
186.6195510000
20
9.0367450000
11
186.6347510000
21
8.9727040000
0
LINE
5
570
100
AcDbEntity
8
035
100
AcDbLine
62
3
6
CONTINUOUS
10
186.6347510000
20
8.9727040000
11
186.6272290000
21
8.8619210000
0
LINE
5
571
100
AcDbEntity
8
035
100
AcDbLine
62
3
6
CONTINUOUS
10
203.7946020000
20
10.4147050000
11
204.1327350000
21
9.0621710000
0
LINE
5
572
100
AcDbEntity
8
035
100
AcDbLine
62
3
6
CONTINUOUS
10
202.7802020000
20
9.0621710000
11
203.7946020000
21
10.4147050000
0
LINE
5
573
100
AcDbEntity
8
035
100
AcDbLine
62
3
6
CONTINUOUS
10
204.2260320000
20
8.6889840000
11
204.3460400000
21
8.2089520000
0
LINE
5
574
100
AcDbEntity
8
035
100
AcDbLine
62
3
6
CONTINUOUS
10
202.1402870000
20
8.2089520000
11
202.5003110000
21
8.6889840000
0
LINE
5
575
100
AcDbEntity
8
035
100
AcDbLine
62
3
6
CONTINUOUS
10
209.3854540000
20
9.3013760000
11
211.5596970000
21
9.3013760000
0
LINE
5
576
100
AcDbEntity
8
035
100
AcDbLine
62
3
6
CONTINUOUS
10
203.7359300000
20
124.6110190000
11
203.7359300000
21
129.1526190000
0
LINE
5
577
100
AcDbEntity
8
035
100
AcDbLine
62
3
6
CONTINUOUS
10
209.5830600000
20
124.6110190000
11
209.5830600000
21
129.2378460000
0
LINE
5
578
100
AcDbEntity
8
035
100
AcDbLine
62
3
6
CONTINUOUS
10
245.5523960000
20
127.6978650000
11
245.5523960000
21
124.4022810000
0
LINE
5
579
100
AcDbEntity
8
035
100
AcDbLine
62
3
6
CONTINUOUS
10
246.2515500000
20
131.2829400000
11
246.2515500000
21
125.1014340000
0
LINE
5
57A
100
AcDbEntity
8
035
100
AcDbLine
62
3
6
CONTINUOUS
10
266.2449600000
20
126.9411710000
11
266.2449600000
21
129.5041200000
0
LINE
5
57B
100
AcDbEntity
8
035
100
AcDbLine
62
3
6
CONTINUOUS
10
102.9243230000
20
124.6110190000
11
102.9243230000
21
129.1526190000
0
LINE
5
57C
100
AcDbEntity
8
035
100
AcDbLine
62
3
6
CONTINUOUS
10
97.0771920000
20
124.6110190000
11
97.0771920000
21
129.2378460000
0
LINE
5
57D
100
AcDbEntity
8
035
100
AcDbLine
62
3
6
CONTINUOUS
10
61.1078560000
20
127.6978650000
11
61.1078560000
21
124.4022810000
0
LINE
5
57E
100
AcDbEntity
8
035
100
AcDbLine
62
3
6
CONTINUOUS
10
60.4087030000
20
131.2829400000
11
60.4087030000
21
125.1014340000
0
LINE
5
57F
100
AcDbEntity
8
035
100
AcDbLine
62
3
6
CONTINUOUS
10
40.4152930000
20
129.4729920000
11
40.4152930000
21
126.9100430000
0
LINE
5
580
100
AcDbEntity
8
05
100
AcDbLine
62
4
6
CONTINUOUS
10
92.0000000000
20
16.0000000000
11
159.0000000000
21
16.0000000000
0
LINE
5
581
100
AcDbEntity
8
05
100
AcDbLine
62
4
6
CONTINUOUS
10
92.0000000000
20
21.0000000000
11
159.0000000000
21
21.0000000000
0
LINE
5
582
100
AcDbEntity
8
05
100
AcDbLine
62
4
6
CONTINUOUS
10
92.0000000000
20
26.0000000000
11
159.0000000000
21
26.0000000000
0
LINE
5
583
100
AcDbEntity
8
05
100
AcDbLine
62
4
6
CONTINUOUS
10
92.0000000000
20
31.0000000000
11
159.0000000000
21
31.0000000000
0
LINE
5
584
100
AcDbEntity
8
05
100
AcDbLine
62
4
6
CONTINUOUS
10
92.0000000000
20
36.0000000000
11
159.0000000000
21
36.0000000000
0
LINE
5
585
100
AcDbEntity
8
05
100
AcDbLine
62
4
6
CONTINUOUS
10
92.0000000000
20
41.0000000000
11
159.0000000000
21
41.0000000000
0
LINE
5
586
100
AcDbEntity
8
05
100
AcDbLine
62
4
6
CONTINUOUS
10
92.0000000000
20
46.0000000000
11
159.0000000000
21
46.0000000000
0
LINE
5
587
100
AcDbEntity
8
05
100
AcDbLine
62
4
6
CONTINUOUS
10
197.9116940000
20
10.6550740000
11
197.9496920000
21
10.6930720000
0
LINE
5
588
100
AcDbEntity
8
05
100
AcDbLine
62
4
6
CONTINUOUS
10
197.5868920000
20
8.2089520000
11
197.5962100000
21
8.2182700000
0
LINE
5
589
100
AcDbEntity
8
025
100
AcDbLine
62
4
6
CONTINUOUS
10
238.1093826568
20
126.7029580833
11
238.2084466185
21
127.2647777282
0
LINE
5
58A
100
AcDbEntity
8
025
100
AcDbLine
62
4
6
CONTINUOUS
10
238.2084466185
20
127.2647777282
11
239.1206580176
21
126.7029580833
0
LINE
5
58B
100
AcDbEntity
8
025
100
AcDbLine
62
4
6
CONTINUOUS
10
239.1206580176
20
126.7029580833
11
239.7386596270
21
126.7029580833
0
LINE
5
58C
100
AcDbEntity
8
025
100
AcDbLine
62
4
6
CONTINUOUS
10
239.7386596270
20
126.7029580833
11
239.8971619657
21
127.6018695151
0
LINE
5
58D
100
AcDbEntity
8
025
100
AcDbLine
62
4
6
CONTINUOUS
10
239.8971619657
20
127.6018695151
11
239.2791603563
21
127.6018695151
0
LINE
5
58E
100
AcDbEntity
8
025
100
AcDbLine
62
4
6
CONTINUOUS
10
239.2791603563
20
127.6018695151
11
239.1800963946
21
127.0400498703
0
LINE
5
58F
100
AcDbEntity
8
025
100
AcDbLine
62
4
6
CONTINUOUS
10
239.1800963946
20
127.0400498703
11
238.2678849955
21
127.6018695151
0
LINE
5
590
100
AcDbEntity
8
025
100
AcDbLine
62
4
6
CONTINUOUS
10
238.2678849955
20
127.6018695151
11
237.6498833862
21
127.6018695151
0
LINE
5
591
100
AcDbEntity
8
025
100
AcDbLine
62
4
6
CONTINUOUS
10
237.6498833862
20
127.6018695151
11
237.4913810475
21
126.7029580833
0
LINE
5
592
100
AcDbEntity
8
025
100
AcDbLine
62
4
6
CONTINUOUS
10
237.4913810475
20
126.7029580833
11
238.1093826568
21
126.7029580833
0
LINE
5
593
100
AcDbEntity
8
025
100
AcDbLine
62
4
6
CONTINUOUS
10
236.5197312714
20
126.9276859413
11
235.5646378751
21
126.9276859413
0
LINE
5
594
100
AcDbEntity
8
025
100
AcDbLine
62
4
6
CONTINUOUS
10
235.5646378751
20
126.9276859413
11
235.5250122904
21
126.7029580833
0
LINE
5
595
100
AcDbEntity
8
025
100
AcDbLine
62
4
6
CONTINUOUS
10
235.5250122904
20
126.7029580833
11
237.0419253316
21
126.7029580833
0
LINE
5
596
100
AcDbEntity
8
025
100
AcDbLine
62
4
6
CONTINUOUS
10
237.0419253316
20
126.7029580833
11
237.2004276703
21
127.6018695151
0
LINE
5
597
100
AcDbEntity
8
025
100
AcDbLine
62
4
6
CONTINUOUS
10
237.2004276703
20
127.6018695151
11
235.6835146291
21
127.6018695151
0
LINE
5
598
100
AcDbEntity
8
025
100
AcDbLine
62
4
6
CONTINUOUS
10
235.6835146291
20
127.6018695151
11
235.6438890444
21
127.3771416572
0
LINE
5
599
100
AcDbEntity
8
025
100
AcDbLine
62
4
6
CONTINUOUS
10
235.6438890444
20
127.3771416572
11
236.5989824407
21
127.3771416572
0
LINE
5
59A
100
AcDbEntity
8
025
100
AcDbLine
62
4
6
CONTINUOUS
10
236.5989824407
20
127.3771416572
11
236.5791696484
21
127.2647777282
0
LINE
5
59B
100
AcDbEntity
8
025
100
AcDbLine
62
4
6
CONTINUOUS
10
236.5791696484
20
127.2647777282
11
235.7926221455
21
127.2647777282
0
LINE
5
59C
100
AcDbEntity
8
025
100
AcDbLine
62
4
6
CONTINUOUS
10
235.7926221455
20
127.2647777282
11
235.7529965609
21
127.0400498703
0
LINE
5
59D
100
AcDbEntity
8
025
100
AcDbLine
62
4
6
CONTINUOUS
10
235.7529965609
20
127.0400498703
11
236.5395440637
21
127.0400498703
0
LINE
5
59E
100
AcDbEntity
8
025
100
AcDbLine
62
4
6
CONTINUOUS
10
236.5395440637
20
127.0400498703
11
236.5197312714
21
126.9276859413
0
LINE
5
59F
100
AcDbEntity
8
025
100
AcDbLine
62
4
6
CONTINUOUS
10
235.1879205035
20
126.7029580833
11
235.3010335762
21
127.3444541964
0
ARC
5
5A0
100
AcDbEntity
8
025
100
AcDbCircle
62
4
6
CONTINUOUS
10
235.1350482736
20
127.3737218836
40
0.1685458935
100
AcDbArc
50
350.0000000000
51
80.4781100235
0
ARC
5
5A1
100
AcDbEntity
8
025
100
AcDbCircle
62
4
6
CONTINUOUS
10
234.4194204281
20
123.1073123561
40
4.4945571590
100
AcDbArc
50
80.4781100235
51
100.1185015803
0
ARC
5
5A2
100
AcDbEntity
8
025
100
AcDbCircle
62
4
6
CONTINUOUS
10
233.6692770630
20
127.3107308687
40
0.2247278580
100
AcDbArc
50
100.1185015804
51
170.0000000000
0
LINE
5
5A3
100
AcDbEntity
8
025
100
AcDbLine
62
4
6
CONTINUOUS
10
233.4479633261
20
127.3497544517
11
233.3339156754
21
126.7029580833
0
LINE
5
5A4
100
AcDbEntity
8
025
100
AcDbLine
62
4
6
CONTINUOUS
10
233.3339156754
20
126.7029580833
11
233.8957353202
21
126.7029580833
0
LINE
5
5A5
100
AcDbEntity
8
025
100
AcDbLine
62
4
6
CONTINUOUS
10
233.8957353202
20
126.7029580833
11
233.9762352296
21
127.1594957558
0
ARC
5
5A6
100
AcDbEntity
8
025
100
AcDbCircle
62
4
6
CONTINUOUS
10
234.1975489664
20
127.1204721728
40
0.2247278580
100
AcDbArc
50
106.3845475543
51
170.0000000000
0
ARC
5
5A7
100
AcDbEntity
8
025
100
AcDbCircle
62
4
6
CONTINUOUS
10
234.4194204281
20
126.3658662964
40
1.0112753608
100
AcDbArc
50
79.7006171523
51
106.3845475543
0
ARC
5
5A8
100
AcDbEntity
8
025
100
AcDbCircle
62
4
6
CONTINUOUS
10
234.5751158247
20
127.2226551846
40
0.1404549112
100
AcDbArc
50
350.0000000000
51
79.7006171523
0
LINE
5
5A9
100
AcDbEntity
8
025
100
AcDbLine
62
4
6
CONTINUOUS
10
234.7134369102
20
127.1982654452
11
234.6261008586
21
126.7029580833
0
LINE
5
5AA
100
AcDbEntity
8
025
100
AcDbLine
62
4
6
CONTINUOUS
10
234.6261008586
20
126.7029580833
11
235.1879205035
21
126.7029580833
0
LINE
5
5AB
100
AcDbEntity
8
025
100
AcDbLine
62
4
6
CONTINUOUS
10
232.2564147953
20
127.6018695151
11
232.1375380413
21
126.9276859413
0
LINE
5
5AC
100
AcDbEntity
8
025
100
AcDbLine
62
4
6
CONTINUOUS
10
232.1375380413
20
126.9276859413
11
231.6880823254
21
126.9276859413
0
LINE
5
5AD
100
AcDbEntity
8
025
100
AcDbLine
62
4
6
CONTINUOUS
10
231.6880823254
20
126.9276859413
11
231.6484567407
21
126.7029580833
0
LINE
5
5AE
100
AcDbEntity
8
025
100
AcDbLine
62
4
6
CONTINUOUS
10
231.6484567407
20
126.7029580833
11
233.1653697819
21
126.7029580833
0
LINE
5
5AF
100
AcDbEntity
8
025
100
AcDbLine
62
4
6
CONTINUOUS
10
233.1653697819
20
126.7029580833
11
233.2049953666
21
126.9276859413
0
LINE
5
5B0
100
AcDbEntity
8
025
100
AcDbLine
62
4
6
CONTINUOUS
10
233.2049953666
20
126.9276859413
11
232.7555396507
21
126.9276859413
0
LINE
5
5B1
100
AcDbEntity
8
025
100
AcDbLine
62
4
6
CONTINUOUS
10
232.7555396507
20
126.9276859413
11
232.8744164047
21
127.6018695151
0
LINE
5
5B2
100
AcDbEntity
8
025
100
AcDbLine
62
4
6
CONTINUOUS
10
232.8744164047
20
127.6018695151
11
232.2564147953
21
127.6018695151
0
LINE
5
5B3
100
AcDbEntity
8
025
100
AcDbLine
62
4
6
CONTINUOUS
10
228.8293149616
20
127.6018695151
11
228.6708126229
21
126.7029580833
0
LINE
5
5B4
100
AcDbEntity
8
025
100
AcDbLine
62
4
6
CONTINUOUS
10
228.6708126229
20
126.7029580833
11
229.2888142322
21
126.7029580833
0
LINE
5
5B5
100
AcDbEntity
8
025
100
AcDbLine
62
4
6
CONTINUOUS
10
229.2888142322
20
126.7029580833
11
229.4473165709
21
127.6018695151
0
LINE
5
5B6
100
AcDbEntity
8
025
100
AcDbLine
62
4
6
CONTINUOUS
10
229.4473165709
20
127.6018695151
11
228.8293149616
21
127.6018695151
0
LINE
5
5B7
100
AcDbEntity
8
025
100
AcDbLine
62
4
6
CONTINUOUS
10
226.9753101335
20
127.6018695151
11
226.1887626307
21
127.6018695151
0
LINE
5
5B8
100
AcDbEntity
8
025
100
AcDbLine
62
4
6
CONTINUOUS
10
226.1887626307
20
127.6018695151
11
227.0084228931
21
127.1524137992
0
LINE
5
5B9
100
AcDbEntity
8
025
100
AcDbLine
62
4
6
CONTINUOUS
10
227.0084228931
20
127.1524137992
11
226.0302602920
21
126.7029580833
0
LINE
5
5BA
100
AcDbEntity
8
025
100
AcDbLine
62
4
6
CONTINUOUS
10
226.0302602920
20
126.7029580833
11
226.8729897593
21
126.7029580833
0
LINE
5
5BB
100
AcDbEntity
8
025
100
AcDbLine
62
4
6
CONTINUOUS
10
226.8729897593
20
126.7029580833
11
227.6165181063
21
127.0962318347
0
LINE
5
5BC
100
AcDbEntity
8
025
100
AcDbLine
62
4
6
CONTINUOUS
10
227.6165181063
20
127.0962318347
11
227.5471733331
21
126.7029580833
0
LINE
5
5BD
100
AcDbEntity
8
025
100
AcDbLine
62
4
6
CONTINUOUS
10
227.5471733331
20
126.7029580833
11
228.1651749425
21
126.7029580833
0
LINE
5
5BE
100
AcDbEntity
8
025
100
AcDbLine
62
4
6
CONTINUOUS
10
228.1651749425
20
126.7029580833
11
228.3236772812
21
127.6018695151
0
LINE
5
5BF
100
AcDbEntity
8
025
100
AcDbLine
62
4
6
CONTINUOUS
10
228.3236772812
20
127.6018695151
11
227.7056756718
21
127.6018695151
0
LINE
5
5C0
100
AcDbEntity
8
025
100
AcDbLine
62
4
6
CONTINUOUS
10
227.7056756718
20
127.6018695151
11
227.6363308986
21
127.2085957637
0
LINE
5
5C1
100
AcDbEntity
8
025
100
AcDbLine
62
4
6
CONTINUOUS
10
227.6363308986
20
127.2085957637
11
226.9753101335
21
127.6018695151
0
ARC
5
5C2
100
AcDbEntity
8
025
100
AcDbCircle
62
4
6
CONTINUOUS
10
230.3353165266
20
126.9838679058
40
0.0596660479
100
AcDbArc
50
140.3607280000
51
180.0000000000
0
ARC
5
5C3
100
AcDbEntity
8
025
100
AcDbCircle
62
4
6
CONTINUOUS
10
230.3353165266
20
126.9838679058
40
0.0596660479
100
AcDbArc
50
180.0000000000
51
219.6392720000
0
ARC
5
5C4
100
AcDbEntity
8
025
100
AcDbCircle
62
4
6
CONTINUOUS
10
230.4136417709
20
126.9189811489
40
0.1613770852
100
AcDbArc
50
219.6392720000
51
243.4349490000
0
ARC
5
5C5
100
AcDbEntity
8
025
100
AcDbCircle
62
4
6
CONTINUOUS
10
230.4659317640
20
126.8144011626
40
0.2783010644
100
AcDbArc
50
243.4349490000
51
258.2990800000
0
ARC
5
5C6
100
AcDbEntity
8
025
100
AcDbCircle
62
4
6
CONTINUOUS
10
230.5003783366
20
126.6480783969
40
0.4481534378
100
AcDbArc
50
258.2990800000
51
270.0000000000
0
LINE
5
5C7
100
AcDbEntity
8
025
100
AcDbLine
62
4
6
CONTINUOUS
10
230.5003783366
20
127.0962318347
11
230.8750720466
21
127.0962318347
0
LINE
5
5C8
100
AcDbEntity
8
025
100
AcDbLine
62
4
6
CONTINUOUS
10
230.8750720466
20
127.0962318347
11
230.8354464619
21
126.8715039768
0
LINE
5
5C9
100
AcDbEntity
8
025
100
AcDbLine
62
4
6
CONTINUOUS
10
230.8354464619
20
126.8715039768
11
230.5003783366
21
126.8715039768
0
ARC
5
5CA
100
AcDbEntity
8
025
100
AcDbCircle
62
4
6
CONTINUOUS
10
230.5003783366
20
127.3196574146
40
0.4481534378
100
AcDbArc
50
90.0000000000
51
101.7009200000
0
ARC
5
5CB
100
AcDbEntity
8
025
100
AcDbCircle
62
4
6
CONTINUOUS
10
230.4659317640
20
127.1533346489
40
0.2783010644
100
AcDbArc
50
101.7009200000
51
116.5650510000
0
ARC
5
5CC
100
AcDbEntity
8
025
100
AcDbCircle
62
4
6
CONTINUOUS
10
230.4136417709
20
127.0487546627
40
0.1613770852
100
AcDbArc
50
116.5650510000
51
140.3607280000
0
LINE
5
5CD
100
AcDbEntity
8
025
100
AcDbLine
62
4
6
CONTINUOUS
10
230.1984560008
20
127.2486536833
11
229.6720444289
21
127.6018695151
0
LINE
5
5CE
100
AcDbEntity
8
025
100
AcDbLine
62
4
6
CONTINUOUS
10
229.6720444289
20
127.6018695151
11
230.4024099672
21
127.6018695151
0
LINE
5
5CF
100
AcDbEntity
8
025
100
AcDbLine
62
4
6
CONTINUOUS
10
230.4024099672
20
127.6018695151
11
230.9047912351
21
127.2647777282
0
LINE
5
5D0
100
AcDbEntity
8
025
100
AcDbLine
62
4
6
CONTINUOUS
10
230.9047912351
20
127.2647777282
11
230.9642296121
21
127.6018695151
0
LINE
5
5D1
100
AcDbEntity
8
025
100
AcDbLine
62
4
6
CONTINUOUS
10
230.9642296121
20
127.6018695151
11
231.5822312215
21
127.6018695151
0
LINE
5
5D2
100
AcDbEntity
8
025
100
AcDbLine
62
4
6
CONTINUOUS
10
231.5822312215
20
127.6018695151
11
231.4237288828
21
126.7029580833
0
LINE
5
5D3
100
AcDbEntity
8
025
100
AcDbLine
62
4
6
CONTINUOUS
10
231.4237288828
20
126.7029580833
11
230.3496215739
21
126.7029580833
0
ARC
5
5D4
100
AcDbEntity
8
025
100
AcDbCircle
62
4
6
CONTINUOUS
10
230.3496215739
20
127.4196211596
40
0.7166630762
100
AcDbArc
50
90.0000000000
51
104.5142790000
0
ARC
5
5D5
100
AcDbEntity
8
025
100
AcDbCircle
62
4
6
CONTINUOUS
10
230.3245815742
20
127.5023975347
40
0.7918010935
100
AcDbArc
50
101.2572510000
51
115.0773880000
0
ARC
5
5D6
100
AcDbEntity
8
025
100
AcDbCircle
62
4
6
CONTINUOUS
10
230.1663752521
20
127.0690622393
40
0.3347029970
100
AcDbArc
50
122.0053830000
51
146.4659040000
0
ARC
5
5D7
100
AcDbEntity
8
025
100
AcDbCircle
62
4
6
CONTINUOUS
10
230.0378269300
20
126.9838679058
40
0.1804864429
100
AcDbArc
50
146.4659040000
51
180.0000000000
0
ARC
5
5D8
100
AcDbEntity
8
025
100
AcDbCircle
62
4
6
CONTINUOUS
10
230.0378269300
20
126.9838679058
40
0.1804864429
100
AcDbArc
50
180.0000000000
51
213.5340960000
0
ARC
5
5D9
100
AcDbEntity
8
025
100
AcDbCircle
62
4
6
CONTINUOUS
10
230.1663752521
20
126.8986735723
40
0.3347029970
100
AcDbArc
50
213.5340960000
51
237.9946170000
0
ARC
5
5DA
100
AcDbEntity
8
025
100
AcDbCircle
62
4
6
CONTINUOUS
10
230.3245815742
20
126.4653382769
40
0.7918010935
100
AcDbArc
50
244.9226120000
51
258.7427490000
0
ARC
5
5DB
100
AcDbEntity
8
025
100
AcDbCircle
62
4
6
CONTINUOUS
10
230.3496215739
20
126.5481146520
40
0.7166630762
100
AcDbArc
50
255.4857210000
51
257.8231560000
0
SOLID
5
5DC
100
AcDbEntity
8
025
100
AcDbTrace
62
4
6
CONTINUOUS
10
230.1081393649
20
128.2640416390
11
230.1700105651
21
128.2789648368
12
230.1389249624
22
128.2721251450
13
230.1389249624
23
128.2721251450
0
SOLID
5
5DD
100
AcDbEntity
8
025
100
AcDbTrace
62
4
6
CONTINUOUS
10
230.0777035196
20
128.2547273811
11
230.1700105651
21
128.2789648368
12
230.1081393649
22
128.2640416390
13
230.1081393649
23
128.2640416390
0
SOLID
5
5DE
100
AcDbEntity
8
025
100
AcDbTrace
62
4
6
CONTINUOUS
10
230.0476666082
20
128.2441974223
11
230.1700105651
21
128.2789648368
12
230.0777035196
22
128.2547273811
13
230.0777035196
23
128.2547273811
0
SOLID
5
5DF
100
AcDbEntity
8
025
100
AcDbTrace
62
4
6
CONTINUOUS
10
230.0476666082
20
128.2441974223
11
230.0180771678
21
128.2324687781
12
230.1700105651
22
128.2789648368
13
230.1700105651
23
128.2789648368
0
SOLID
5
5E0
100
AcDbEntity
8
025
100
AcDbTrace
62
4
6
CONTINUOUS
10
230.2891779654
20
128.1337307695
11
230.3496215739
21
128.1362842358
12
230.3193728136
22
128.1356455847
13
230.3193728136
23
128.1356455847
0
SOLID
5
5E1
100
AcDbEntity
8
025
100
AcDbTrace
62
4
6
CONTINUOUS
10
230.2590908453
20
128.1305432031
11
230.3496215739
21
128.1362842358
12
230.2891779654
22
128.1337307695
13
230.2891779654
23
128.1337307695
0
SOLID
5
5E2
100
AcDbEntity
8
025
100
AcDbTrace
62
4
6
CONTINUOUS
10
230.2291650773
20
128.1260885666
11
230.3496215739
21
128.1362842358
12
230.2590908453
22
128.1305432031
13
230.2590908453
23
128.1305432031
0
SOLID
5
5E3
100
AcDbEntity
8
025
100
AcDbTrace
62
4
6
CONTINUOUS
10
230.2291650773
20
128.1260885666
11
230.1994539979
21
128.1203747996
12
230.3496215739
22
128.1362842358
13
230.3496215739
23
128.1362842358
0
SOLID
5
5E4
100
AcDbEntity
8
025
100
AcDbTrace
62
4
6
CONTINUOUS
10
230.4698946572
20
127.7667728909
11
230.5003783366
21
127.7678108524
12
230.4851276639
22
127.7675512869
13
230.4851276639
23
127.7675512869
0
SOLID
5
5E5
100
AcDbEntity
8
025
100
AcDbTrace
62
4
6
CONTINUOUS
10
230.4546969621
20
127.7654765661
11
230.5003783366
21
127.7678108524
12
230.4698946572
22
127.7667728909
13
230.4698946572
23
127.7667728909
0
SOLID
5
5E6
100
AcDbEntity
8
025
100
AcDbTrace
62
4
6
CONTINUOUS
10
230.4395521833
20
127.7636638142
11
230.5003783366
21
127.7678108524
12
230.4546969621
22
127.7654765661
13
230.4546969621
23
127.7654765661
0
SOLID
5
5E7
100
AcDbEntity
8
025
100
AcDbTrace
62
4
6
CONTINUOUS
10
230.4395521833
20
127.7636638142
11
230.4244778642
21
127.7613367351
12
230.5003783366
22
127.7678108524
13
230.5003783366
23
127.7678108524
0
SOLID
5
5E8
100
AcDbEntity
8
025
100
AcDbTrace
62
4
6
CONTINUOUS
10
234.2859904186
20
127.5998885089
11
234.7259290218
21
127.5914060815
12
234.5060635869
22
127.6010343122
13
234.5060635869
23
127.6010343122
0
SOLID
5
5E9
100
AcDbEntity
8
025
100
AcDbTrace
62
4
6
CONTINUOUS
10
234.7259290218
20
127.5914060815
11
234.2859904186
21
127.5998885089
12
234.0662371586
22
127.5879714186
13
234.0662371586
23
127.5879714186
0
SOLID
5
5EA
100
AcDbEntity
8
025
100
AcDbTrace
62
4
6
CONTINUOUS
10
234.0662371586
20
127.5879714186
11
234.9450595794
21
127.5710269010
12
234.7259290218
22
127.5914060815
13
234.7259290218
23
127.5914060815
0
SOLID
5
5EB
100
AcDbEntity
8
025
100
AcDbTrace
62
4
6
CONTINUOUS
10
234.9450595794
20
127.5710269010
11
234.0662371586
21
127.5879714186
12
233.8473306820
22
127.5653116134
13
233.8473306820
23
127.5653116134
0
SOLID
5
5EC
100
AcDbEntity
8
025
100
AcDbTrace
62
4
6
CONTINUOUS
10
233.8473306820
20
127.5653116134
11
235.1629298780
21
127.5399456315
12
234.9450595794
22
127.5710269010
13
234.9450595794
23
127.5710269010
0
SOLID
5
5ED
100
AcDbEntity
8
025
100
AcDbTrace
62
4
6
CONTINUOUS
10
235.1629298780
20
127.5399456315
11
233.6297958332
21
127.5319634220
12
235.1802425890
22
127.5360955024
13
235.1802425890
23
127.5360955024
0
SOLID
5
5EE
100
AcDbEntity
8
025
100
AcDbTrace
62
4
6
CONTINUOUS
10
235.1629298780
20
127.5399456315
11
233.8473306820
21
127.5653116134
12
233.6297958332
22
127.5319634220
13
233.6297958332
23
127.5319634220
0
SOLID
5
5EF
100
AcDbEntity
8
025
100
AcDbTrace
62
4
6
CONTINUOUS
10
233.6297958332
20
127.5319634220
11
235.1970548716
21
127.5304474399
12
235.1802425890
22
127.5360955024
13
235.1802425890
23
127.5360955024
0
SOLID
5
5F0
100
AcDbEntity
8
025
100
AcDbTrace
62
4
6
CONTINUOUS
10
235.1970548716
20
127.5304474399
11
233.6297958332
21
127.5319634220
12
233.6092438275
22
127.5272917626
13
233.6092438275
23
127.5272917626
0
SOLID
5
5F1
100
AcDbEntity
8
025
100
AcDbTrace
62
4
6
CONTINUOUS
10
233.6092438275
20
127.5272917626
11
235.2131805666
21
127.5230639842
12
235.1970548716
22
127.5304474399
13
235.1970548716
23
127.5304474399
0
SOLID
5
5F2
100
AcDbEntity
8
025
100
AcDbTrace
62
4
6
CONTINUOUS
10
235.2131805666
20
127.5230639842
11
233.6092438275
21
127.5272917626
12
233.5892198603
22
127.5207152835
13
233.5892198603
23
127.5207152835
0
SOLID
5
5F3
100
AcDbEntity
8
025
100
AcDbTrace
62
4
6
CONTINUOUS
10
233.5892198603
20
127.5207152835
11
235.2284411170
21
127.5140268907
12
235.2131805666
22
127.5230639842
13
235.2131805666
23
127.5230639842
0
SOLID
5
5F4
100
AcDbEntity
8
025
100
AcDbTrace
62
4
6
CONTINUOUS
10
235.2284411170
20
127.5140268907
11
233.5892198603
21
127.5207152835
12
233.5699000579
22
127.5122918297
13
233.5699000579
23
127.5122918297
0
SOLID
5
5F5
100
AcDbEntity
8
025
100
AcDbTrace
62
4
6
CONTINUOUS
10
233.5699000579
20
127.5122918297
11
235.2426675456
21
127.5034362256
12
235.2284411170
22
127.5140268907
13
235.2284411170
23
127.5140268907
0
SOLID
5
5F6
100
AcDbEntity
8
025
100
AcDbTrace
62
4
6
CONTINUOUS
10
235.2426675456
20
127.5034362256
11
233.5699000579
21
127.5122918297
12
233.5514543527
22
127.5020954921
13
233.5514543527
23
127.5020954921
0
SOLID
5
5F7
100
AcDbEntity
8
025
100
AcDbTrace
62
4
6
CONTINUOUS
10
233.5514543527
20
127.5020954921
11
235.2557023256
21
127.4914092573
12
235.2426675456
22
127.5034362256
13
235.2426675456
23
127.5034362256
0
SOLID
5
5F8
100
AcDbEntity
8
025
100
AcDbTrace
62
4
6
CONTINUOUS
10
235.2557023256
20
127.4914092573
11
233.5514543527
21
127.5020954921
12
233.5340449890
22
127.4902159553
13
233.5340449890
23
127.4902159553
0
SOLID
5
5F9
100
AcDbEntity
8
025
100
AcDbTrace
62
4
6
CONTINUOUS
10
233.5340449890
20
127.4902159553
11
235.2674011255
21
127.4780791584
12
235.2557023256
22
127.4914092573
13
235.2557023256
23
127.4914092573
0
SOLID
5
5FA
100
AcDbEntity
8
025
100
AcDbTrace
62
4
6
CONTINUOUS
10
235.2674011255
20
127.4780791584
11
233.5340449890
21
127.4902159553
12
233.5178250955
22
127.4767577089
13
233.5178250955
23
127.4767577089
0
SOLID
5
5FB
100
AcDbEntity
8
025
100
AcDbTrace
62
4
6
CONTINUOUS
10
233.5178250955
20
127.4767577089
11
235.2776344065
21
127.4635935304
12
235.2674011255
22
127.4780791584
13
235.2674011255
23
127.4780791584
0
SOLID
5
5FC
100
AcDbEntity
8
025
100
AcDbTrace
62
4
6
CONTINUOUS
10
235.2776344065
20
127.4635935304
11
233.5178250955
21
127.4767577089
12
233.5029373386
22
127.4618391287
13
233.5029373386
23
127.4618391287
0
SOLID
5
5FD
100
AcDbEntity
8
025
100
AcDbTrace
62
4
6
CONTINUOUS
10
233.5029373386
20
127.4618391287
11
235.2862888574
21
127.4481127702
12
235.2776344065
22
127.4635935304
13
235.2776344065
23
127.4635935304
0
SOLID
5
5FE
100
AcDbEntity
8
025
100
AcDbTrace
62
4
6
CONTINUOUS
10
235.2862888574
20
127.4481127702
11
233.5029373386
21
127.4618391287
12
233.4895126677
22
127.4455914350
13
233.4895126677
23
127.4455914350
0
SOLID
5
5FF
100
AcDbEntity
8
025
100
AcDbTrace
62
4
6
CONTINUOUS
10
233.4895126677
20
127.4455914350
11
235.2932686490
21
127.4318082933
12
235.2862888574
22
127.4481127702
13
235.2862888574
23
127.4481127702
0
SOLID
5
600
100
AcDbEntity
8
025
100
AcDbTrace
62
4
6
CONTINUOUS
10
235.2932686490
20
127.4318082933
11
233.4895126677
21
127.4455914350
12
233.4776691631
22
127.4281575388
13
233.4776691631
23
127.4281575388
0
SOLID
5
601
100
AcDbEntity
8
025
100
AcDbTrace
62
4
6
CONTINUOUS
10
233.4776691631
20
127.4281575388
11
235.2984964955
21
127.4148606363
12
235.2932686490
22
127.4318082933
13
235.2932686490
23
127.4318082933
0
SOLID
5
602
100
AcDbEntity
8
025
100
AcDbTrace
62
4
6
CONTINUOUS
10
235.2984964955
20
127.4148606363
11
233.4776691631
21
127.4281575388
12
233.4675109974
22
127.4096907846
13
233.4675109974
23
127.4096907846
0
SOLID
5
603
100
AcDbEntity
8
025
100
AcDbTrace
62
4
6
CONTINUOUS
10
233.4675109974
20
127.4096907846
11
235.3019145097
21
127.3974574574
12
235.2984964955
22
127.4148606363
13
235.2984964955
23
127.4148606363
0
SOLID
5
604
100
AcDbEntity
8
025
100
AcDbTrace
62
4
6
CONTINUOUS
10
235.3019145097
20
127.3974574574
11
233.4675109974
21
127.4096907846
12
233.4591275197
22
127.3903536017
13
233.4591275197
23
127.3903536017
0
SOLID
5
605
100
AcDbEntity
8
025
100
AcDbTrace
62
4
6
CONTINUOUS
10
233.4591275197
20
127.3903536017
11
235.3034848446
21
127.3797914588
12
235.3019145097
22
127.3974574574
13
235.3019145097
23
127.3974574574
0
SOLID
5
606
100
AcDbEntity
8
025
100
AcDbTrace
62
4
6
CONTINUOUS
10
237.2004276703
20
127.6018694280
11
235.6835146291
21
127.6018694280
12
235.6438890444
22
127.3771417050
13
235.6438890444
23
127.3771417050
0
SOLID
5
607
100
AcDbEntity
8
025
100
AcDbTrace
62
4
6
CONTINUOUS
10
234.3657438276
20
127.3757161258
11
233.4525924690
21
127.3703160756
12
234.3070792418
22
127.3708823725
13
234.3070792418
23
127.3708823725
0
SOLID
5
608
100
AcDbEntity
8
025
100
AcDbTrace
62
4
6
CONTINUOUS
10
234.4245902733
20
127.3771284424
11
233.4525924690
21
127.3703160756
12
234.3657438276
22
127.3757161258
13
234.3657438276
23
127.3757161258
0
SOLID
5
609
100
AcDbEntity
8
025
100
AcDbTrace
62
4
6
CONTINUOUS
10
233.4591275197
20
127.3903536017
11
234.4245902733
21
127.3771284424
12
235.3034848446
22
127.3797914588
13
235.3034848446
23
127.3797914588
0
SOLID
5
60A
100
AcDbEntity
8
025
100
AcDbTrace
62
4
6
CONTINUOUS
10
234.4245902733
20
127.3771284424
11
233.4591275197
21
127.3903536017
12
233.4525924690
22
127.3703160756
13
233.4525924690
23
127.3703160756
0
SOLID
5
60B
100
AcDbEntity
8
025
100
AcDbTrace
62
4
6
CONTINUOUS
10
233.4525924690
20
127.3703160756
11
234.2487952751
21
127.3626435596
12
234.3070792418
22
127.3708823725
13
234.3070792418
23
127.3708823725
0
SOLID
5
60C
100
AcDbEntity
8
025
100
AcDbTrace
62
4
6
CONTINUOUS
10
234.4834192032
20
127.3751145375
11
235.3034848446
21
127.3797914588
12
234.4245902733
22
127.3771284424
13
234.4245902733
23
127.3771284424
0
SOLID
5
60D
100
AcDbEntity
8
025
100
AcDbTrace
62
4
6
CONTINUOUS
10
234.5420313011
20
127.3696812341
11
235.3034848446
21
127.3797914588
12
234.4834192032
22
127.3751145375
13
234.4834192032
23
127.3751145375
0
SOLID
5
60E
100
AcDbEntity
8
025
100
AcDbTrace
62
4
6
CONTINUOUS
10
234.5420313011
20
127.3696812341
11
235.3031901123
21
127.3620582530
12
235.3034848446
22
127.3797914588
13
235.3034848446
23
127.3797914588
0
SOLID
5
60F
100
AcDbEntity
8
025
100
AcDbTrace
62
4
6
CONTINUOUS
10
235.3031901123
20
127.3620582530
11
234.5420313011
21
127.3696812341
12
234.6002279854
22
127.3608469407
13
234.6002279854
23
127.3608469407
0
SOLID
5
610
100
AcDbEntity
8
025
100
AcDbTrace
62
4
6
CONTINUOUS
10
234.2487952751
20
127.3626435596
11
233.4479633261
21
127.3497544517
12
234.1910893975
22
127.3510276009
13
234.1910893975
23
127.3510276009
0
SOLID
5
611
100
AcDbEntity
8
025
100
AcDbTrace
62
4
6
CONTINUOUS
10
234.2487952751
20
127.3626435596
11
233.4525924690
21
127.3703160756
12
233.4479633261
22
127.3497544517
13
233.4479633261
23
127.3497544517
0
SOLID
5
612
100
AcDbEntity
8
025
100
AcDbTrace
62
4
6
CONTINUOUS
10
234.6144884272
20
127.3574786998
11
235.3031901123
21
127.3620582530
12
234.6002279854
22
127.3608469407
13
234.6002279854
23
127.3608469407
0
SOLID
5
613
100
AcDbEntity
8
025
100
AcDbTrace
62
4
6
CONTINUOUS
10
234.6283203571
20
127.3526431064
11
235.3031901123
21
127.3620582530
12
234.6144884272
22
127.3574786998
13
234.6144884272
23
127.3574786998
0
SOLID
5
614
100
AcDbEntity
8
025
100
AcDbTrace
62
4
6
CONTINUOUS
10
234.6415732351
20
127.3463927887
11
235.3031901123
21
127.3620582530
12
234.6283203571
22
127.3526431064
13
234.6283203571
23
127.3526431064
0
SOLID
5
615
100
AcDbEntity
8
025
100
AcDbTrace
62
4
6
CONTINUOUS
10
234.6415732351
20
127.3463927887
11
235.3010335762
21
127.3444541964
12
235.3031901123
22
127.3620582530
13
235.3031901123
23
127.3620582530
0
SOLID
5
616
100
AcDbEntity
8
025
100
AcDbTrace
62
4
6
CONTINUOUS
10
235.3010335762
20
127.3444541964
11
234.6415732351
21
127.3463927887
12
234.6541028236
22
127.3387957722
13
234.6541028236
23
127.3387957722
0
SOLID
5
617
100
AcDbEntity
8
025
100
AcDbTrace
62
4
6
CONTINUOUS
10
233.4479633261
20
127.3497544517
11
234.1341571202
21
127.3360738518
12
234.1910893975
22
127.3510276009
13
234.1910893975
23
127.3510276009
0
SOLID
5
618
100
AcDbEntity
8
025
100
AcDbTrace
62
4
6
CONTINUOUS
10
229.9597572089
20
127.3323777923
11
229.9889830194
21
127.3528898137
12
229.9740963954
22
127.3430238013
13
229.9740963954
23
127.3430238013
0
SOLID
5
619
100
AcDbEntity
8
025
100
AcDbTrace
62
4
6
CONTINUOUS
10
229.9460062852
20
127.3209820969
11
229.9889830194
21
127.3528898137
12
229.9597572089
22
127.3323777923
13
229.9597572089
23
127.3323777923
0
SOLID
5
61A
100
AcDbEntity
8
025
100
AcDbTrace
62
4
6
CONTINUOUS
10
229.9328827745
20
127.3088691598
11
229.9889830194
21
127.3528898137
12
229.9460062852
22
127.3209820969
13
229.9460062852
23
127.3209820969
0
SOLID
5
61B
100
AcDbEntity
8
025
100
AcDbTrace
62
4
6
CONTINUOUS
10
229.9204240408
20
127.2960734679
11
229.9889830194
21
127.3528898137
12
229.9328827745
22
127.3088691598
13
229.9328827745
23
127.3088691598
0
SOLID
5
61C
100
AcDbEntity
8
025
100
AcDbTrace
62
4
6
CONTINUOUS
10
229.9086655555
20
127.2826314517
11
229.9889830194
21
127.3528898137
12
229.9204240408
22
127.2960734679
13
229.9204240408
23
127.2960734679
0
SOLID
5
61D
100
AcDbEntity
8
025
100
AcDbTrace
62
4
6
CONTINUOUS
10
229.9086655555
20
127.2826314517
11
229.8976407960
21
127.2685813821
12
229.9889830194
22
127.3528898137
13
229.9889830194
23
127.3528898137
0
SOLID
5
61E
100
AcDbEntity
8
025
100
AcDbTrace
62
4
6
CONTINUOUS
10
230.9047912351
20
127.2647776950
11
230.4094914680
21
127.4258524931
12
230.3523475201
22
127.4074017699
13
230.3523475201
23
127.4074017699
0
SOLID
5
61F
100
AcDbEntity
8
025
100
AcDbTrace
62
4
6
CONTINUOUS
10
230.4094914680
20
127.4258524931
11
230.9047912351
21
127.2647776950
12
230.4024099672
22
127.6018694280
13
230.4024099672
23
127.6018694280
0
SOLID
5
620
100
AcDbEntity
8
025
100
AcDbTrace
62
4
6
CONTINUOUS
10
231.5822312215
20
127.6018694280
11
230.9642296121
21
127.6018694280
12
230.9047912351
22
127.2647776950
13
230.9047912351
23
127.2647776950
0
SOLID
5
621
100
AcDbEntity
8
025
100
AcDbTrace
62
4
6
CONTINUOUS
10
230.3523475201
20
127.4074017699
11
230.1984560008
21
127.2486536833
12
230.9047912351
22
127.2647776950
13
230.9047912351
23
127.2647776950
0
SOLID
5
622
100
AcDbEntity
8
025
100
AcDbTrace
62
4
6
CONTINUOUS
10
230.4024099672
20
127.6018694280
11
230.3977647615
21
127.4231581879
12
230.4094914680
22
127.4258524931
13
230.4094914680
23
127.4258524931
0
SOLID
5
623
100
AcDbEntity
8
025
100
AcDbTrace
62
4
6
CONTINUOUS
10
230.4024099672
20
127.6018694280
11
230.3861654750
21
127.4199595194
12
230.3977647615
22
127.4231581879
13
230.3977647615
23
127.4231581879
0
SOLID
5
624
100
AcDbEntity
8
025
100
AcDbTrace
62
4
6
CONTINUOUS
10
230.4024099672
20
127.6018694280
11
230.3747152903
21
127.4162624667
12
230.3861654750
22
127.4199595194
13
230.3861654750
23
127.4199595194
0
SOLID
5
625
100
AcDbEntity
8
025
100
AcDbTrace
62
4
6
CONTINUOUS
10
230.4024099672
20
127.6018694280
11
230.3634356106
21
127.4120739404
12
230.3747152903
22
127.4162624667
13
230.3747152903
23
127.4162624667
0
SOLID
5
626
100
AcDbEntity
8
025
100
AcDbTrace
62
4
6
CONTINUOUS
10
230.4024099672
20
127.6018694280
11
230.3523475201
21
127.4074017699
12
230.3634356106
22
127.4120739404
13
230.3634356106
23
127.4120739404
0
SOLID
5
627
100
AcDbEntity
8
025
100
AcDbTrace
62
4
6
CONTINUOUS
10
230.4024099672
20
127.6018694280
11
230.1984560008
21
127.2486536833
12
230.3523475201
22
127.4074017699
13
230.3523475201
23
127.4074017699
0
SOLID
5
628
100
AcDbEntity
8
025
100
AcDbTrace
62
4
6
CONTINUOUS
10
230.4024099672
20
127.6018694280
11
229.6720444289
21
127.6018694280
12
230.1984560008
22
127.2486536833
13
230.1984560008
23
127.2486536833
0
SOLID
5
629
100
AcDbEntity
8
025
100
AcDbTrace
62
4
6
CONTINUOUS
10
228.3236772812
20
127.6018694280
11
227.7056756718
21
127.6018694280
12
227.6363308986
22
127.2085957637
13
227.6363308986
23
127.2085957637
0
SOLID
5
62A
100
AcDbEntity
8
025
100
AcDbTrace
62
4
6
CONTINUOUS
10
226.9753101335
20
127.6018694280
11
227.0084228931
21
127.1524137992
12
227.6363308986
22
127.2085957637
13
227.6363308986
23
127.2085957637
0
SOLID
5
62B
100
AcDbEntity
8
025
100
AcDbTrace
62
4
6
CONTINUOUS
10
226.9753101335
20
127.6018694280
11
226.1887626307
21
127.6018694280
12
227.0084228931
22
127.1524137992
13
227.0084228931
23
127.1524137992
0
SOLID
5
62C
100
AcDbEntity
8
025
100
AcDbTrace
62
4
6
CONTINUOUS
10
236.5791696484
20
127.2647776950
11
235.7926221455
21
127.2647776950
12
235.7529965609
22
127.0400499720
13
235.7529965609
23
127.0400499720
0
SOLID
5
62D
100
AcDbEntity
8
025
100
AcDbTrace
62
4
6
CONTINUOUS
10
238.2084466185
20
127.2647776950
11
239.1800963946
21
127.0400499720
12
238.2678849955
22
127.6018694280
13
238.2678849955
23
127.6018694280
0
SOLID
5
62E
100
AcDbEntity
8
025
100
AcDbTrace
62
4
6
CONTINUOUS
10
239.8971619657
20
127.6018694280
11
239.2791603563
21
127.6018694280
12
239.1800963946
22
127.0400499720
13
239.1800963946
23
127.0400499720
0
SOLID
5
62F
100
AcDbEntity
8
025
100
AcDbTrace
62
4
6
CONTINUOUS
10
230.2845582390
20
127.0152308380
11
230.2893691258
21
127.0219319786
12
230.2868477340
22
127.0186646501
13
230.2868477340
23
127.0186646501
0
SOLID
5
630
100
AcDbEntity
8
025
100
AcDbTrace
62
4
6
CONTINUOUS
10
230.2825115950
20
127.0116469712
11
230.2893691258
21
127.0219319786
12
230.2845582390
22
127.0152308380
13
230.2845582390
23
127.0152308380
0
SOLID
5
631
100
AcDbEntity
8
025
100
AcDbTrace
62
4
6
CONTINUOUS
10
230.2807175941
20
127.0079301966
11
230.2893691258
21
127.0219319786
12
230.2825115950
22
127.0116469712
13
230.2825115950
23
127.0116469712
0
SOLID
5
632
100
AcDbEntity
8
025
100
AcDbTrace
62
4
6
CONTINUOUS
10
230.2791848195
20
127.0040982970
11
230.2893691258
21
127.0219319786
12
230.2807175941
22
127.0079301966
13
230.2807175941
23
127.0079301966
0
SOLID
5
633
100
AcDbEntity
8
025
100
AcDbTrace
62
4
6
CONTINUOUS
10
230.2779206047
20
127.0001696059
11
230.2893691258
21
127.0219319786
12
230.2791848195
22
127.0040982970
13
230.2791848195
23
127.0040982970
0
SOLID
5
634
100
AcDbEntity
8
025
100
AcDbTrace
62
4
6
CONTINUOUS
10
230.2769309984
20
126.9961629200
11
230.2893691258
21
127.0219319786
12
230.2779206047
22
127.0001696059
13
230.2779206047
23
127.0001696059
0
SOLID
5
635
100
AcDbEntity
8
025
100
AcDbTrace
62
4
6
CONTINUOUS
10
230.2762207353
20
126.9920974091
11
230.2893691258
21
127.0219319786
12
230.2769309984
22
126.9961629200
13
230.2769309984
23
126.9961629200
0
SOLID
5
636
100
AcDbEntity
8
025
100
AcDbTrace
62
4
6
CONTINUOUS
10
230.2757932136
20
126.9879925245
11
230.2893691258
21
127.0219319786
12
230.2762207353
22
126.9920974091
13
230.2762207353
23
126.9920974091
0
SOLID
5
637
100
AcDbEntity
8
025
100
AcDbTrace
62
4
6
CONTINUOUS
10
230.2756504787
20
126.9838679670
11
230.2893691258
21
127.0219319786
12
230.2757932136
22
126.9879925245
13
230.2757932136
23
126.9879925245
0
SOLID
5
638
100
AcDbEntity
8
025
100
AcDbTrace
62
4
6
CONTINUOUS
10
230.2757932136
20
126.9797432871
11
230.2893691258
21
127.0219319786
12
230.2756504787
22
126.9838679670
13
230.2756504787
23
126.9838679670
0
SOLID
5
639
100
AcDbEntity
8
025
100
AcDbTrace
62
4
6
CONTINUOUS
10
230.2762207353
20
126.9756384024
11
230.2893691258
21
127.0219319786
12
230.2757932136
22
126.9797432871
13
230.2757932136
23
126.9797432871
0
SOLID
5
63A
100
AcDbEntity
8
025
100
AcDbTrace
62
4
6
CONTINUOUS
10
230.2769309984
20
126.9715728915
11
230.2893691258
21
127.0219319786
12
230.2762207353
22
126.9756384024
13
230.2762207353
23
126.9756384024
0
SOLID
5
63B
100
AcDbEntity
8
025
100
AcDbTrace
62
4
6
CONTINUOUS
10
230.2779206047
20
126.9675662056
11
230.2893691258
21
127.0219319786
12
230.2769309984
22
126.9715728915
13
230.2769309984
23
126.9715728915
0
SOLID
5
63C
100
AcDbEntity
8
025
100
AcDbTrace
62
4
6
CONTINUOUS
10
230.2791848195
20
126.9636375145
11
230.2893691258
21
127.0219319786
12
230.2779206047
22
126.9675662056
13
230.2779206047
23
126.9675662056
0
SOLID
5
63D
100
AcDbEntity
8
025
100
AcDbTrace
62
4
6
CONTINUOUS
10
230.2807175941
20
126.9598056149
11
230.2893691258
21
127.0219319786
12
230.2791848195
22
126.9636375145
13
230.2791848195
23
126.9636375145
0
SOLID
5
63E
100
AcDbEntity
8
025
100
AcDbTrace
62
4
6
CONTINUOUS
10
230.2825115950
20
126.9560888404
11
230.2893691258
21
127.0219319786
12
230.2807175941
22
126.9598056149
13
230.2807175941
23
126.9598056149
0
SOLID
5
63F
100
AcDbEntity
8
025
100
AcDbTrace
62
4
6
CONTINUOUS
10
230.2845582390
20
126.9525049736
11
230.2893691258
21
127.0219319786
12
230.2825115950
22
126.9560888404
13
230.2825115950
23
126.9560888404
0
SOLID
5
640
100
AcDbEntity
8
025
100
AcDbTrace
62
4
6
CONTINUOUS
10
230.2845582390
20
126.9525049736
11
230.2868477340
21
126.9490711615
12
230.2893691258
22
127.0219319786
13
230.2893691258
23
127.0219319786
0
SOLID
5
641
100
AcDbEntity
8
025
100
AcDbTrace
62
4
6
CONTINUOUS
10
232.8744164047
20
127.6018694280
11
232.2564147953
21
127.6018694280
12
232.1375380413
22
126.9276859620
13
232.1375380413
23
126.9276859620
0
SOLID
5
642
100
AcDbEntity
8
025
100
AcDbTrace
62
4
6
CONTINUOUS
10
232.1375380413
20
126.9276859620
11
232.7555396507
21
126.9276859620
12
232.8744164047
22
127.6018694280
13
232.8744164047
23
127.6018694280
0
SOLID
5
643
100
AcDbEntity
8
025
100
AcDbTrace
62
4
6
CONTINUOUS
10
229.8757202934
20
127.0632202495
11
229.8873811517
21
127.0835745950
12
229.8812196892
22
127.0735870688
13
229.8812196892
23
127.0735870688
0
SOLID
5
644
100
AcDbEntity
8
025
100
AcDbTrace
62
4
6
CONTINUOUS
10
229.8709062132
20
127.0525179632
11
229.8873811517
21
127.0835745950
12
229.8757202934
22
127.0632202495
13
229.8757202934
23
127.0632202495
0
SOLID
5
645
100
AcDbEntity
8
025
100
AcDbTrace
62
4
6
CONTINUOUS
10
229.8667978005
20
127.0415254547
11
229.8873811517
21
127.0835745950
12
229.8709062132
22
127.0525179632
13
229.8709062132
23
127.0525179632
0
SOLID
5
646
100
AcDbEntity
8
025
100
AcDbTrace
62
4
6
CONTINUOUS
10
229.8634124239
20
127.0302891954
11
229.8873811517
21
127.0835745950
12
229.8667978005
22
127.0415254547
13
229.8667978005
23
127.0415254547
0
SOLID
5
647
100
AcDbEntity
8
025
100
AcDbTrace
62
4
6
CONTINUOUS
10
229.8607643951
20
127.0188566872
11
229.8873811517
21
127.0835745950
12
229.8634124239
22
127.0302891954
13
229.8634124239
23
127.0302891954
0
SOLID
5
648
100
AcDbEntity
8
025
100
AcDbTrace
62
4
6
CONTINUOUS
10
229.8588649090
20
127.0072762619
11
229.8873811517
21
127.0835745950
12
229.8607643951
22
127.0188566872
13
229.8607643951
23
127.0188566872
0
SOLID
5
649
100
AcDbEntity
8
025
100
AcDbTrace
62
4
6
CONTINUOUS
10
229.8577219958
20
126.9955968763
11
229.8873811517
21
127.0835745950
12
229.8588649090
22
127.0072762619
13
229.8588649090
23
127.0072762619
0
SOLID
5
64A
100
AcDbEntity
8
025
100
AcDbTrace
62
4
6
CONTINUOUS
10
229.8573404871
20
126.9838679670
11
229.8873811517
21
127.0835745950
12
229.8577219958
22
126.9955968763
13
229.8577219958
23
126.9955968763
0
SOLID
5
64B
100
AcDbEntity
8
025
100
AcDbTrace
62
4
6
CONTINUOUS
10
229.8577219958
20
126.9721389352
11
229.8873811517
21
127.0835745950
12
229.8573404871
22
126.9838679670
13
229.8573404871
23
126.9838679670
0
SOLID
5
64C
100
AcDbEntity
8
025
100
AcDbTrace
62
4
6
CONTINUOUS
10
229.8588649090
20
126.9604595496
11
229.8873811517
21
127.0835745950
12
229.8577219958
22
126.9721389352
13
229.8577219958
23
126.9721389352
0
SOLID
5
64D
100
AcDbEntity
8
025
100
AcDbTrace
62
4
6
CONTINUOUS
10
229.8607643951
20
126.9488791243
11
229.8873811517
21
127.0835745950
12
229.8588649090
22
126.9604595496
13
229.8588649090
23
126.9604595496
0
SOLID
5
64E
100
AcDbEntity
8
025
100
AcDbTrace
62
4
6
CONTINUOUS
10
229.8634124239
20
126.9374466162
11
229.8873811517
21
127.0835745950
12
229.8607643951
22
126.9488791243
13
229.8607643951
23
126.9488791243
0
SOLID
5
64F
100
AcDbEntity
8
025
100
AcDbTrace
62
4
6
CONTINUOUS
10
229.8667978005
20
126.9262103568
11
229.8873811517
21
127.0835745950
12
229.8634124239
22
126.9374466162
13
229.8634124239
23
126.9374466162
0
SOLID
5
650
100
AcDbEntity
8
025
100
AcDbTrace
62
4
6
CONTINUOUS
10
229.8709062132
20
126.9152178483
11
229.8873811517
21
127.0835745950
12
229.8667978005
22
126.9262103568
13
229.8667978005
23
126.9262103568
0
SOLID
5
651
100
AcDbEntity
8
025
100
AcDbTrace
62
4
6
CONTINUOUS
10
229.8757202934
20
126.9045155621
11
229.8873811517
21
127.0835745950
12
229.8709062132
22
126.9152178483
13
229.8709062132
23
126.9152178483
0
SOLID
5
652
100
AcDbEntity
8
025
100
AcDbTrace
62
4
6
CONTINUOUS
10
229.8757202934
20
126.9045155621
11
229.8812196892
21
126.8941487427
12
229.8873811517
22
127.0835745950
13
229.8873811517
23
127.0835745950
0
SOLID
5
653
100
AcDbEntity
8
025
100
AcDbTrace
62
4
6
CONTINUOUS
10
230.8750720466
20
127.0962319770
11
230.5003783366
21
127.0962319770
12
230.8354464619
22
126.8715039768
13
230.8354464619
23
126.8715039768
0
SOLID
5
654
100
AcDbEntity
8
025
100
AcDbTrace
62
4
6
CONTINUOUS
10
230.3007083793
20
126.8037049037
11
230.2893691256
21
126.8160303195
12
230.2948787508
22
126.8097204117
13
230.2948787508
23
126.8097204117
0
SOLID
5
655
100
AcDbEntity
8
025
100
AcDbTrace
62
4
6
CONTINUOUS
10
230.3068423035
20
126.7980000040
11
230.2893691256
21
126.8160303195
12
230.3007083793
22
126.8037049037
13
230.3007083793
23
126.8037049037
0
SOLID
5
656
100
AcDbEntity
8
025
100
AcDbTrace
62
4
6
CONTINUOUS
10
230.3132639957
20
126.7926210844
11
230.2893691256
21
126.8160303195
12
230.3068423035
22
126.7980000040
13
230.3068423035
23
126.7980000040
0
SOLID
5
657
100
AcDbEntity
8
025
100
AcDbTrace
62
4
6
CONTINUOUS
10
230.3199561528
20
126.7875826382
11
230.2893691256
21
126.8160303195
12
230.3132639957
22
126.7926210844
13
230.3132639957
23
126.7926210844
0
SOLID
5
658
100
AcDbEntity
8
025
100
AcDbTrace
62
4
6
CONTINUOUS
10
230.3269007429
20
126.7828982414
11
230.2893691256
21
126.8160303195
12
230.3199561528
22
126.7875826382
13
230.3199561528
23
126.7875826382
0
SOLID
5
659
100
AcDbEntity
8
025
100
AcDbTrace
62
4
6
CONTINUOUS
10
230.3269007429
20
126.7828982414
11
230.3340790542
21
126.7785805159
12
230.2893691256
22
126.8160303195
13
230.2893691256
23
126.8160303195
0
SOLID
5
65A
100
AcDbEntity
8
025
100
AcDbTrace
62
4
6
CONTINUOUS
10
227.6165181063
20
127.0962319770
11
227.0084228931
21
127.1524137992
12
226.0302602920
22
126.7029579420
13
226.0302602920
23
126.7029579420
0
SOLID
5
65B
100
AcDbEntity
8
025
100
AcDbTrace
62
4
6
CONTINUOUS
10
226.0302602920
20
126.7029579420
11
226.8729897593
21
126.7029579420
12
227.6165181063
22
127.0962319770
13
227.6165181063
23
127.0962319770
0
SOLID
5
65C
100
AcDbEntity
8
025
100
AcDbTrace
62
4
6
CONTINUOUS
10
227.6165181063
20
127.0962319770
11
227.6363308986
21
127.2085957637
12
227.0084228931
22
127.1524137992
13
227.0084228931
23
127.1524137992
0
SOLID
5
65D
100
AcDbEntity
8
025
100
AcDbTrace
62
4
6
CONTINUOUS
10
227.6165181063
20
127.0962319770
11
228.3236772812
21
127.6018694280
12
227.6363308986
22
127.2085957637
13
227.6363308986
23
127.2085957637
0
SOLID
5
65E
100
AcDbEntity
8
025
100
AcDbTrace
62
4
6
CONTINUOUS
10
227.5471733331
20
126.7029579420
11
228.3236772812
21
127.6018694280
12
227.6165181063
22
127.0962319770
13
227.6165181063
23
127.0962319770
0
SOLID
5
65F
100
AcDbEntity
8
025
100
AcDbTrace
62
4
6
CONTINUOUS
10
227.5471733331
20
126.7029579420
11
228.1651749425
21
126.7029579420
12
228.3236772812
22
127.6018694280
13
228.3236772812
23
127.6018694280
0
SOLID
5
660
100
AcDbEntity
8
025
100
AcDbTrace
62
4
6
CONTINUOUS
10
229.4473165709
20
127.6018694280
11
228.8293149616
21
127.6018694280
12
228.6708126229
22
126.7029579420
13
228.6708126229
23
126.7029579420
0
SOLID
5
661
100
AcDbEntity
8
025
100
AcDbTrace
62
4
6
CONTINUOUS
10
228.6708126229
20
126.7029579420
11
229.2888142322
21
126.7029579420
12
229.4473165709
22
127.6018694280
13
229.4473165709
23
127.6018694280
0
SOLID
5
662
100
AcDbEntity
8
025
100
AcDbTrace
62
4
6
CONTINUOUS
10
230.1984560008
20
127.2486536833
11
230.3340790542
21
127.1891552957
12
230.3414717448
22
127.1930947159
13
230.3414717448
23
127.1930947159
0
SOLID
5
663
100
AcDbEntity
8
025
100
AcDbTrace
62
4
6
CONTINUOUS
10
230.1984560008
20
127.2486536833
11
230.3269007429
21
127.1848375702
12
230.3340790542
22
127.1891552957
13
230.3340790542
23
127.1891552957
0
SOLID
5
664
100
AcDbEntity
8
025
100
AcDbTrace
62
4
6
CONTINUOUS
10
230.1984560008
20
127.2486536833
11
230.3199561528
21
127.1801531733
12
230.3269007429
22
127.1848375702
13
230.3269007429
23
127.1848375702
0
SOLID
5
665
100
AcDbEntity
8
025
100
AcDbTrace
62
4
6
CONTINUOUS
10
230.1984560008
20
127.2486536833
11
230.3132639957
21
127.1751147271
12
230.3199561528
22
127.1801531733
13
230.3199561528
23
127.1801531733
0
SOLID
5
666
100
AcDbEntity
8
025
100
AcDbTrace
62
4
6
CONTINUOUS
10
230.1984560008
20
127.2486536833
11
230.3068423035
21
127.1697358075
12
230.3132639957
22
127.1751147271
13
230.3132639957
23
127.1751147271
0
SOLID
5
667
100
AcDbEntity
8
025
100
AcDbTrace
62
4
6
CONTINUOUS
10
230.1984560008
20
127.2486536833
11
230.3007083793
21
127.1640309079
12
230.3068423035
22
127.1697358075
13
230.3068423035
23
127.1697358075
0
SOLID
5
668
100
AcDbEntity
8
025
100
AcDbTrace
62
4
6
CONTINUOUS
10
230.1984560008
20
127.2486536833
11
230.2948787508
21
127.1580153998
12
230.3007083793
22
127.1640309079
13
230.3007083793
23
127.1640309079
0
SOLID
5
669
100
AcDbEntity
8
025
100
AcDbTrace
62
4
6
CONTINUOUS
10
230.2948787508
20
127.1580153998
11
230.1984560008
21
127.2486536833
12
231.4237288828
22
126.7029579420
13
231.4237288828
23
126.7029579420
0
SOLID
5
66A
100
AcDbEntity
8
025
100
AcDbTrace
62
4
6
CONTINUOUS
10
230.3414717448
20
127.1930947159
11
230.9047912351
21
127.2647776950
12
230.1984560008
22
127.2486536833
13
230.1984560008
23
127.2486536833
0
SOLID
5
66B
100
AcDbEntity
8
025
100
AcDbTrace
62
4
6
CONTINUOUS
10
230.2948787508
20
127.1580153998
11
230.9047912351
21
127.2647776950
12
230.3414717448
22
127.1930947159
13
230.3414717448
23
127.1930947159
0
SOLID
5
66C
100
AcDbEntity
8
025
100
AcDbTrace
62
4
6
CONTINUOUS
10
231.4237288828
20
126.7029579420
11
230.9047912351
21
127.2647776950
12
230.2948787508
22
127.1580153998
13
230.2948787508
23
127.1580153998
0
SOLID
5
66D
100
AcDbEntity
8
025
100
AcDbTrace
62
4
6
CONTINUOUS
10
230.9047912351
20
127.2647776950
11
231.4237288828
21
126.7029579420
12
231.5822312215
22
127.6018694280
13
231.5822312215
23
127.6018694280
0
SOLID
5
66E
100
AcDbEntity
8
025
100
AcDbTrace
62
4
6
CONTINUOUS
10
232.7555396507
20
126.9276859620
11
231.6484567407
21
126.7029579420
12
233.2049953666
22
126.9276859620
13
233.2049953666
23
126.9276859620
0
SOLID
5
66F
100
AcDbEntity
8
025
100
AcDbTrace
62
4
6
CONTINUOUS
10
232.1375380413
20
126.9276859620
11
231.6484567407
21
126.7029579420
12
232.7555396507
22
126.9276859620
13
232.7555396507
23
126.9276859620
0
SOLID
5
670
100
AcDbEntity
8
025
100
AcDbTrace
62
4
6
CONTINUOUS
10
232.1375380413
20
126.9276859620
11
231.6880823254
21
126.9276859620
12
231.6484567407
22
126.7029579420
13
231.6484567407
23
126.7029579420
0
SOLID
5
671
100
AcDbEntity
8
025
100
AcDbTrace
62
4
6
CONTINUOUS
10
231.6484567407
20
126.7029579420
11
233.1653697819
21
126.7029579420
12
233.2049953666
22
126.9276859620
13
233.2049953666
23
126.9276859620
0
SOLID
5
672
100
AcDbEntity
8
025
100
AcDbTrace
62
4
6
CONTINUOUS
10
233.9803707824
20
127.1782324230
11
233.3339156754
21
126.7029579420
12
233.9762352296
22
127.1594957558
13
233.9762352296
23
127.1594957558
0
SOLID
5
673
100
AcDbEntity
8
025
100
AcDbTrace
62
4
6
CONTINUOUS
10
233.9860895704
20
127.1965480164
11
233.3339156754
21
126.7029579420
12
233.9803707824
22
127.1782324230
13
233.9803707824
23
127.1782324230
0
SOLID
5
674
100
AcDbEntity
8
025
100
AcDbTrace
62
4
6
CONTINUOUS
10
233.9933499036
20
127.2143090146
11
233.3339156754
21
126.7029579420
12
233.9860895704
22
127.1965480164
13
233.9860895704
23
127.1965480164
0
SOLID
5
675
100
AcDbEntity
8
025
100
AcDbTrace
62
4
6
CONTINUOUS
10
234.0020988539
20
127.2313859395
11
233.3339156754
21
126.7029579420
12
233.9933499036
22
127.2143090146
13
233.9933499036
23
127.2143090146
0
SOLID
5
676
100
AcDbEntity
8
025
100
AcDbTrace
62
4
6
CONTINUOUS
10
234.0122726412
20
127.2476542998
11
233.3339156754
21
126.7029579420
12
234.0020988539
22
127.2313859395
13
234.0020988539
23
127.2313859395
0
SOLID
5
677
100
AcDbEntity
8
025
100
AcDbTrace
62
4
6
CONTINUOUS
10
234.0237970983
20
127.2629954988
11
233.3339156754
21
126.7029579420
12
234.0122726412
22
127.2476542998
13
234.0122726412
23
127.2476542998
0
SOLID
5
678
100
AcDbEntity
8
025
100
AcDbTrace
62
4
6
CONTINUOUS
10
234.0365882115
20
127.2772976985
11
233.3339156754
21
126.7029579420
12
234.0237970983
22
127.2629954988
13
234.0237970983
23
127.2629954988
0
SOLID
5
679
100
AcDbEntity
8
025
100
AcDbTrace
62
4
6
CONTINUOUS
10
234.0505527334
20
127.2904566356
11
233.3339156754
21
126.7029579420
12
234.0365882115
22
127.2772976985
13
234.0365882115
23
127.2772976985
0
SOLID
5
67A
100
AcDbEntity
8
025
100
AcDbTrace
62
4
6
CONTINUOUS
10
233.4479633261
20
127.3497544517
11
234.1159965361
21
127.3298804134
12
234.1341571202
22
127.3360738518
13
234.1341571202
23
127.3360738518
0
SOLID
5
67B
100
AcDbEntity
8
025
100
AcDbTrace
62
4
6
CONTINUOUS
10
233.4479633261
20
127.3497544517
11
234.0984304715
21
127.3221603829
12
234.1159965361
22
127.3298804134
13
234.1159965361
23
127.3298804134
0
SOLID
5
67C
100
AcDbEntity
8
025
100
AcDbTrace
62
4
6
CONTINUOUS
10
233.4479633261
20
127.3497544517
11
234.0815869836
21
127.3129700395
12
234.0984304715
22
127.3221603829
13
234.0984304715
23
127.3221603829
0
SOLID
5
67D
100
AcDbEntity
8
025
100
AcDbTrace
62
4
6
CONTINUOUS
10
233.4479633261
20
127.3497544517
11
234.0655888620
21
127.3023763810
12
234.0815869836
22
127.3129700395
13
234.0815869836
23
127.3129700395
0
SOLID
5
67E
100
AcDbEntity
8
025
100
AcDbTrace
62
4
6
CONTINUOUS
10
233.4479633261
20
127.3497544517
11
234.0505527334
21
127.2904566356
12
234.0655888620
22
127.3023763810
13
234.0655888620
23
127.3023763810
0
SOLID
5
67F
100
AcDbEntity
8
025
100
AcDbTrace
62
4
6
CONTINUOUS
10
234.0505527334
20
127.2904566356
11
233.4479633261
21
127.3497544517
12
233.3339156754
22
126.7029579420
13
233.3339156754
23
126.7029579420
0
SOLID
5
680
100
AcDbEntity
8
025
100
AcDbTrace
62
4
6
CONTINUOUS
10
233.3339156754
20
126.7029579420
11
233.8957353202
21
126.7029579420
12
233.9762352296
22
127.1594957558
13
233.9762352296
23
127.1594957558
0
SOLID
5
681
100
AcDbEntity
8
025
100
AcDbTrace
62
4
6
CONTINUOUS
10
234.6657727566
20
127.3299347389
11
235.3010335762
21
127.3444541964
12
234.6541028236
22
127.3387957722
13
234.6541028236
23
127.3387957722
0
SOLID
5
682
100
AcDbEntity
8
025
100
AcDbTrace
62
4
6
CONTINUOUS
10
234.6764560244
20
127.3199061281
11
235.3010335762
21
127.3444541964
12
234.6657727566
22
127.3299347389
13
234.6657727566
23
127.3299347389
0
SOLID
5
683
100
AcDbEntity
8
025
100
AcDbTrace
62
4
6
CONTINUOUS
10
234.6860363556
20
127.3088190860
11
235.3010335762
21
127.3444541964
12
234.6764560244
22
127.3199061281
13
234.6764560244
23
127.3199061281
0
SOLID
5
684
100
AcDbEntity
8
025
100
AcDbTrace
62
4
6
CONTINUOUS
10
234.6944094826
20
127.2967942787
11
235.3010335762
21
127.3444541964
12
234.6860363556
22
127.3088190860
13
234.6860363556
23
127.3088190860
0
SOLID
5
685
100
AcDbEntity
8
025
100
AcDbTrace
62
4
6
CONTINUOUS
10
234.7014842764
20
127.2839625782
11
235.3010335762
21
127.3444541964
12
234.6944094826
22
127.2967942787
13
234.6944094826
23
127.2967942787
0
SOLID
5
686
100
AcDbEntity
8
025
100
AcDbTrace
62
4
6
CONTINUOUS
10
234.7071837385
20
127.2704636382
11
235.3010335762
21
127.3444541964
12
234.7014842764
22
127.2839625782
13
234.7014842764
23
127.2839625782
0
SOLID
5
687
100
AcDbEntity
8
025
100
AcDbTrace
62
4
6
CONTINUOUS
10
234.7114458387
20
127.2564443748
11
235.3010335762
21
127.3444541964
12
234.7071837385
22
127.2704636382
13
234.7071837385
23
127.2704636382
0
SOLID
5
688
100
AcDbEntity
8
025
100
AcDbTrace
62
4
6
CONTINUOUS
10
234.7142241905
20
127.2420573664
11
235.3010335762
21
127.3444541964
12
234.7114458387
22
127.2564443748
13
234.7114458387
23
127.2564443748
0
SOLID
5
689
100
AcDbEntity
8
025
100
AcDbTrace
62
4
6
CONTINUOUS
10
234.7154885556
20
127.2274591944
11
235.3010335762
21
127.3444541964
12
234.7142241905
22
127.2420573664
13
234.7142241905
23
127.2420573664
0
SOLID
5
68A
100
AcDbEntity
8
025
100
AcDbTrace
62
4
6
CONTINUOUS
10
234.7152251733
20
127.2128087378
11
235.3010335762
21
127.3444541964
12
234.7154885556
22
127.2274591944
13
234.7154885556
23
127.2274591944
0
SOLID
5
68B
100
AcDbEntity
8
025
100
AcDbTrace
62
4
6
CONTINUOUS
10
234.7134369102
20
127.1982654452
11
235.3010335762
21
127.3444541964
12
234.7152251733
22
127.2128087378
13
234.7152251733
23
127.2128087378
0
SOLID
5
68C
100
AcDbEntity
8
025
100
AcDbTrace
62
4
6
CONTINUOUS
10
234.6261008586
20
126.7029579420
11
235.3010335762
21
127.3444541964
12
234.7134369102
22
127.1982654452
13
234.7134369102
23
127.1982654452
0
SOLID
5
68D
100
AcDbEntity
8
025
100
AcDbTrace
62
4
6
CONTINUOUS
10
234.6261008586
20
126.7029579420
11
235.1879205035
21
126.7029579420
12
235.3010335762
22
127.3444541964
13
235.3010335762
23
127.3444541964
0
SOLID
5
68E
100
AcDbEntity
8
025
100
AcDbTrace
62
4
6
CONTINUOUS
10
236.5197312714
20
126.9276859620
11
235.5646378751
21
126.9276859620
12
235.5250122904
22
126.7029579420
13
235.5250122904
23
126.7029579420
0
SOLID
5
68F
100
AcDbEntity
8
025
100
AcDbTrace
62
4
6
CONTINUOUS
10
236.5989824407
20
127.3771417050
11
237.2004276703
21
127.6018694280
12
235.6438890444
22
127.3771417050
13
235.6438890444
23
127.3771417050
0
SOLID
5
690
100
AcDbEntity
8
025
100
AcDbTrace
62
4
6
CONTINUOUS
10
236.5791696484
20
127.2647776950
11
237.2004276703
21
127.6018694280
12
236.5989824407
22
127.3771417050
13
236.5989824407
23
127.3771417050
0
SOLID
5
691
100
AcDbEntity
8
025
100
AcDbTrace
62
4
6
CONTINUOUS
10
236.5395440637
20
127.0400499720
11
236.5791696484
21
127.2647776950
12
235.7529965609
22
127.0400499720
13
235.7529965609
23
127.0400499720
0
SOLID
5
692
100
AcDbEntity
8
025
100
AcDbTrace
62
4
6
CONTINUOUS
10
236.5395440637
20
127.0400499720
11
237.2004276703
21
127.6018694280
12
236.5791696484
22
127.2647776950
13
236.5791696484
23
127.2647776950
0
SOLID
5
693
100
AcDbEntity
8
025
100
AcDbTrace
62
4
6
CONTINUOUS
10
236.5197312714
20
126.9276859620
11
237.2004276703
21
127.6018694280
12
236.5395440637
22
127.0400499720
13
236.5395440637
23
127.0400499720
0
SOLID
5
694
100
AcDbEntity
8
025
100
AcDbTrace
62
4
6
CONTINUOUS
10
237.0419253316
20
126.7029579420
11
236.5197312714
21
126.9276859620
12
235.5250122904
22
126.7029579420
13
235.5250122904
23
126.7029579420
0
SOLID
5
695
100
AcDbEntity
8
025
100
AcDbTrace
62
4
6
CONTINUOUS
10
236.5197312714
20
126.9276859620
11
237.0419253316
21
126.7029579420
12
237.2004276703
22
127.6018694280
13
237.2004276703
23
127.6018694280
0
SOLID
5
696
100
AcDbEntity
8
025
100
AcDbTrace
62
4
6
CONTINUOUS
10
238.2678849955
20
127.6018694280
11
237.4913810475
21
126.7029579420
12
238.2084466185
22
127.2647776950
13
238.2084466185
23
127.2647776950
0
SOLID
5
697
100
AcDbEntity
8
025
100
AcDbTrace
62
4
6
CONTINUOUS
10
238.2678849955
20
127.6018694280
11
237.6498833862
21
127.6018694280
12
237.4913810475
22
126.7029579420
13
237.4913810475
23
126.7029579420
0
SOLID
5
698
100
AcDbEntity
8
025
100
AcDbTrace
62
4
6
CONTINUOUS
10
237.4913810475
20
126.7029579420
11
238.1093826568
21
126.7029579420
12
238.2084466185
22
127.2647776950
13
238.2084466185
23
127.2647776950
0
SOLID
5
699
100
AcDbEntity
8
025
100
AcDbTrace
62
4
6
CONTINUOUS
10
239.1800963946
20
127.0400499720
11
238.2084466185
21
127.2647776950
12
239.1206580176
22
126.7029579420
13
239.1206580176
23
126.7029579420
0
SOLID
5
69A
100
AcDbEntity
8
025
100
AcDbTrace
62
4
6
CONTINUOUS
10
239.1206580176
20
126.7029579420
11
239.8971619657
21
127.6018694280
12
239.1800963946
22
127.0400499720
13
239.1800963946
23
127.0400499720
0
SOLID
5
69B
100
AcDbEntity
8
025
100
AcDbTrace
62
4
6
CONTINUOUS
10
239.1206580176
20
126.7029579420
11
239.7386596270
21
126.7029579420
12
239.8971619657
22
127.6018694280
13
239.8971619657
23
127.6018694280
0
SOLID
5
69C
100
AcDbEntity
8
025
100
AcDbTrace
62
4
6
CONTINUOUS
10
229.9086655555
20
126.6851043598
11
229.8873811511
21
126.7137725505
12
229.8976407960
22
126.6991544294
13
229.8976407960
23
126.6991544294
0
SOLID
5
69D
100
AcDbEntity
8
025
100
AcDbTrace
62
4
6
CONTINUOUS
10
229.9204240408
20
126.6716623437
11
229.8873811511
21
126.7137725505
12
229.9086655555
22
126.6851043598
13
229.9086655555
23
126.6851043598
0
SOLID
5
69E
100
AcDbEntity
8
025
100
AcDbTrace
62
4
6
CONTINUOUS
10
229.9328827745
20
126.6588666517
11
229.8873811511
21
126.7137725505
12
229.9204240408
22
126.6716623437
13
229.9204240408
23
126.6716623437
0
SOLID
5
69F
100
AcDbEntity
8
025
100
AcDbTrace
62
4
6
CONTINUOUS
10
229.9460062852
20
126.6467537146
11
229.8873811511
21
126.7137725505
12
229.9328827745
22
126.6588666517
13
229.9328827745
23
126.6588666517
0
SOLID
5
6A0
100
AcDbEntity
8
025
100
AcDbTrace
62
4
6
CONTINUOUS
10
229.9597572089
20
126.6353580192
11
229.8873811511
21
126.7137725505
12
229.9460062852
22
126.6467537146
13
229.9460062852
23
126.6467537146
0
SOLID
5
6A1
100
AcDbEntity
8
025
100
AcDbTrace
62
4
6
CONTINUOUS
10
229.9597572089
20
126.6353580192
11
229.9740963954
21
126.6247120102
12
229.8873811511
22
126.7137725505
13
229.8873811511
23
126.7137725505
0
SOLID
5
6A2
100
AcDbEntity
8
025
100
AcDbTrace
62
4
6
CONTINUOUS
10
230.3634356106
20
126.5556618711
11
230.3414717451
21
126.5654811230
12
230.3523475201
22
126.5603340416
13
230.3523475201
23
126.5603340416
0
SOLID
5
6A3
100
AcDbEntity
8
025
100
AcDbTrace
62
4
6
CONTINUOUS
10
230.3747152903
20
126.5514733449
11
230.3414717451
21
126.5654811230
12
230.3634356106
22
126.5556618711
13
230.3634356106
23
126.5556618711
0
SOLID
5
6A4
100
AcDbEntity
8
025
100
AcDbTrace
62
4
6
CONTINUOUS
10
230.3861654750
20
126.5477762921
11
230.3414717451
21
126.5654811230
12
230.3747152903
22
126.5514733449
13
230.3747152903
23
126.5514733449
0
SOLID
5
6A5
100
AcDbEntity
8
025
100
AcDbTrace
62
4
6
CONTINUOUS
10
230.3861654750
20
126.5477762921
11
230.3977647615
21
126.5445776236
12
230.3414717451
22
126.5654811230
13
230.3414717451
23
126.5654811230
0
SOLID
5
6A6
100
AcDbEntity
8
025
100
AcDbTrace
62
4
6
CONTINUOUS
10
230.4395521833
20
126.2040719973
11
230.4094914666
21
126.2092377873
12
230.4244778642
22
126.2063990765
13
230.4244778642
23
126.2063990765
0
SOLID
5
6A7
100
AcDbEntity
8
025
100
AcDbTrace
62
4
6
CONTINUOUS
10
230.4546969621
20
126.2022592454
11
230.4094914666
21
126.2092377873
12
230.4395521833
22
126.2040719973
13
230.4395521833
23
126.2040719973
0
SOLID
5
6A8
100
AcDbEntity
8
025
100
AcDbTrace
62
4
6
CONTINUOUS
10
230.4698946572
20
126.2009629207
11
230.4094914666
21
126.2092377873
12
230.4546969621
22
126.2022592454
13
230.4546969621
23
126.2022592454
0
SOLID
5
6A9
100
AcDbEntity
8
025
100
AcDbTrace
62
4
6
CONTINUOUS
10
230.4698946572
20
126.2009629207
11
230.4851276639
21
126.2001845247
12
230.4094914666
22
126.2092377873
13
230.4094914666
23
126.2092377873
0
SOLID
5
6AA
100
AcDbEntity
8
025
100
AcDbTrace
62
4
6
CONTINUOUS
10
230.1794614939
20
125.8519454829
11
230.1889438929
21
125.8496959755
12
230.1700105609
22
125.8543237261
13
230.1700105609
23
125.8543237261
0
SOLID
5
6AB
100
AcDbEntity
8
025
100
AcDbTrace
62
4
6
CONTINUOUS
10
230.0476666082
20
125.7235383893
11
229.9889830124
21
125.7481754105
12
230.0180771678
22
125.7352670334
13
230.0180771678
23
125.7352670334
0
SOLID
5
6AC
100
AcDbEntity
8
025
100
AcDbTrace
62
4
6
CONTINUOUS
10
230.0777035196
20
125.7130084304
11
229.9889830124
21
125.7481754105
12
230.0476666082
22
125.7235383893
13
230.0476666082
23
125.7235383893
0
SOLID
5
6AD
100
AcDbEntity
8
025
100
AcDbTrace
62
4
6
CONTINUOUS
10
230.1081393649
20
125.7036941725
11
229.9889830124
21
125.7481754105
12
230.0777035196
22
125.7130084304
13
230.0777035196
23
125.7130084304
0
SOLID
5
6AE
100
AcDbEntity
8
025
100
AcDbTrace
62
4
6
CONTINUOUS
10
230.1081393649
20
125.7036941725
11
230.1389249624
21
125.6956106665
12
229.9889830124
22
125.7481754105
13
229.9889830124
23
125.7481754105
0
LINE
5
6AF
100
AcDbEntity
8
025
100
AcDbLine
62
4
6
CONTINUOUS
10
239.1800960000
20
127.0400500000
11
239.2791600000
21
127.6018700000
0
LINE
5
6B0
100
AcDbEntity
8
025
100
AcDbLine
62
4
6
CONTINUOUS
10
239.2791600000
20
127.6018700000
11
239.8971620000
21
127.6018700000
0
LINE
5
6B1
100
AcDbEntity
8
025
100
AcDbLine
62
4
6
CONTINUOUS
10
239.8971620000
20
127.6018700000
11
239.7386600000
21
126.7029580000
0
LINE
5
6B2
100
AcDbEntity
8
025
100
AcDbLine
62
4
6
CONTINUOUS
10
239.7386600000
20
126.7029580000
11
239.1206580000
21
126.7029580000
0
LINE
5
6B3
100
AcDbEntity
8
025
100
AcDbLine
62
4
6
CONTINUOUS
10
239.1206580000
20
126.7029580000
11
238.2084470000
21
127.2647780000
0
LINE
5
6B4
100
AcDbEntity
8
025
100
AcDbLine
62
4
6
CONTINUOUS
10
238.2084470000
20
127.2647780000
11
238.1093830000
21
126.7029580000
0
LINE
5
6B5
100
AcDbEntity
8
025
100
AcDbLine
62
4
6
CONTINUOUS
10
238.1093830000
20
126.7029580000
11
237.4913810000
21
126.7029580000
0
LINE
5
6B6
100
AcDbEntity
8
025
100
AcDbLine
62
4
6
CONTINUOUS
10
237.4913810000
20
126.7029580000
11
237.6498830000
21
127.6018700000
0
LINE
5
6B7
100
AcDbEntity
8
025
100
AcDbLine
62
4
6
CONTINUOUS
10
237.6498830000
20
127.6018700000
11
238.2678850000
21
127.6018700000
0
LINE
5
6B8
100
AcDbEntity
8
025
100
AcDbLine
62
4
6
CONTINUOUS
10
238.2678850000
20
127.6018700000
11
239.1800960000
21
127.0400500000
0
LINE
5
6B9
100
AcDbEntity
8
025
100
AcDbLine
62
4
6
CONTINUOUS
10
239.5202010000
20
130.2046620000
11
226.4350470000
21
130.2046620000
0
LINE
5
6BA
100
AcDbEntity
8
025
100
AcDbLine
62
4
6
CONTINUOUS
10
239.5202010000
20
126.2095000000
11
227.2074460000
21
126.2095000000
0
LINE
5
6BB
100
AcDbEntity
8
025
100
AcDbLine
62
4
6
CONTINUOUS
10
209.5830600000
20
130.2605680000
11
209.5830600000
21
130.9423840000
0
ARC
5
6BC
100
AcDbEntity
8
025
100
AcDbCircle
62
4
6
CONTINUOUS
10
226.4350470000
20
129.0061140000
40
1.1985490000
100
AcDbArc
50
90.0000000000
51
180.0000000000
0
LINE
5
6BD
100
AcDbEntity
8
025
100
AcDbLine
62
4
6
CONTINUOUS
10
230.1984560000
20
127.2486540000
11
229.6720440000
21
127.6018700000
0
LINE
5
6BE
100
AcDbEntity
8
025
100
AcDbLine
62
4
6
CONTINUOUS
10
229.6720440000
20
127.6018700000
11
230.4024100000
21
127.6018700000
0
ARC
5
6BF
100
AcDbEntity
8
025
100
AcDbCircle
62
4
6
CONTINUOUS
10
230.3245820000
20
127.5023980000
40
0.7918010000
100
AcDbArc
50
244.9226120000
51
258.7427490000
0
ARC
5
6C0
100
AcDbEntity
8
025
100
AcDbCircle
62
4
6
CONTINUOUS
10
230.3245820000
20
126.4653380000
40
0.7918010000
100
AcDbArc
50
101.2572510000
51
115.0773880000
0
ARC
5
6C1
100
AcDbEntity
8
025
100
AcDbCircle
62
4
6
CONTINUOUS
10
226.4350470000
20
127.4080490000
40
1.1985490000
100
AcDbArc
50
180.0000000000
51
249.9071180000
0
LINE
5
6C2
100
AcDbEntity
8
025
100
AcDbLine
62
4
6
CONTINUOUS
10
225.2364990000
20
127.4080490000
11
225.2364990000
21
129.0061140000
0
LINE
5
6C3
100
AcDbEntity
8
025
100
AcDbLine
62
4
6
CONTINUOUS
10
228.8293150000
20
127.6018700000
11
229.4473170000
21
127.6018700000
0
LINE
5
6C4
100
AcDbEntity
8
025
100
AcDbLine
62
4
6
CONTINUOUS
10
229.4473170000
20
127.6018700000
11
229.2888140000
21
126.7029580000
0
LINE
5
6C5
100
AcDbEntity
8
025
100
AcDbLine
62
4
6
CONTINUOUS
10
229.2888140000
20
126.7029580000
11
228.6708130000
21
126.7029580000
0
LINE
5
6C6
100
AcDbEntity
8
025
100
AcDbLine
62
4
6
CONTINUOUS
10
228.6708130000
20
126.7029580000
11
228.8293150000
21
127.6018700000
0
LINE
5
6C7
100
AcDbEntity
8
025
100
AcDbLine
62
4
6
CONTINUOUS
10
226.1887630000
20
127.6018700000
11
226.9753100000
21
127.6018700000
0
LINE
5
6C8
100
AcDbEntity
8
025
100
AcDbLine
62
4
6
CONTINUOUS
10
226.9753100000
20
127.6018700000
11
227.6363310000
21
127.2085960000
0
LINE
5
6C9
100
AcDbEntity
8
025
100
AcDbLine
62
4
6
CONTINUOUS
10
227.6363310000
20
127.2085960000
11
227.7056760000
21
127.6018700000
0
LINE
5
6CA
100
AcDbEntity
8
025
100
AcDbLine
62
4
6
CONTINUOUS
10
227.7056760000
20
127.6018700000
11
228.3236770000
21
127.6018700000
0
LINE
5
6CB
100
AcDbEntity
8
025
100
AcDbLine
62
4
6
CONTINUOUS
10
228.3236770000
20
127.6018700000
11
228.1651750000
21
126.7029580000
0
LINE
5
6CC
100
AcDbEntity
8
025
100
AcDbLine
62
4
6
CONTINUOUS
10
228.1651750000
20
126.7029580000
11
227.5471730000
21
126.7029580000
0
LINE
5
6CD
100
AcDbEntity
8
025
100
AcDbLine
62
4
6
CONTINUOUS
10
227.5471730000
20
126.7029580000
11
227.6165180000
21
127.0962320000
0
LINE
5
6CE
100
AcDbEntity
8
025
100
AcDbLine
62
4
6
CONTINUOUS
10
227.6165180000
20
127.0962320000
11
226.8729900000
21
126.7029580000
0
LINE
5
6CF
100
AcDbEntity
8
025
100
AcDbLine
62
4
6
CONTINUOUS
10
226.8729900000
20
126.7029580000
11
226.0302600000
21
126.7029580000
0
LINE
5
6D0
100
AcDbEntity
8
025
100
AcDbLine
62
4
6
CONTINUOUS
10
226.0302600000
20
126.7029580000
11
227.0084230000
21
127.1524140000
0
LINE
5
6D1
100
AcDbEntity
8
025
100
AcDbLine
62
4
6
CONTINUOUS
10
227.0084230000
20
127.1524140000
11
226.1887630000
21
127.6018700000
0
LINE
5
6D2
100
AcDbEntity
8
025
100
AcDbLine
62
4
6
CONTINUOUS
10
226.7554900000
20
126.2095000000
11
226.4350470000
21
126.2095000000
0
ARC
5
6D3
100
AcDbEntity
8
025
100
AcDbCircle
62
4
6
CONTINUOUS
10
230.1663750000
20
127.0690620000
40
0.3347030000
100
AcDbArc
50
213.5340960000
51
237.9946170000
0
ARC
5
6D4
100
AcDbEntity
8
025
100
AcDbCircle
62
4
6
CONTINUOUS
10
230.0378270000
20
126.9838680000
40
0.1804860000
100
AcDbArc
50
180.0000000000
51
213.5340960000
0
ARC
5
6D5
100
AcDbEntity
8
025
100
AcDbCircle
62
4
6
CONTINUOUS
10
230.0378270000
20
126.9838680000
40
0.1804860000
100
AcDbArc
50
146.4659040000
51
180.0000000000
0
ARC
5
6D6
100
AcDbEntity
8
025
100
AcDbCircle
62
4
6
CONTINUOUS
10
230.1663750000
20
126.8986740000
40
0.3347030000
100
AcDbArc
50
122.0053830000
51
146.4659040000
0
LINE
5
6D7
100
AcDbEntity
8
025
100
AcDbLine
62
4
6
CONTINUOUS
10
234.6261010000
20
126.7029580000
11
234.7134370000
21
127.1982650000
0
ARC
5
6D8
100
AcDbEntity
8
025
100
AcDbCircle
62
4
6
CONTINUOUS
10
234.5751156348
20
127.2226549618
40
0.1404552252
100
AcDbArc
50
349.9999304395
51
79.7005556798
0
ARC
5
6D9
100
AcDbEntity
8
025
100
AcDbCircle
62
4
6
CONTINUOUS
10
234.4194200014
20
126.3658696233
40
1.0112722247
100
AcDbArc
50
79.7005594524
51
106.3845816959
0
ARC
5
6DA
100
AcDbEntity
8
025
100
AcDbCircle
62
4
6
CONTINUOUS
10
234.1975489433
20
127.1204720759
40
0.2247281205
100
AcDbArc
50
106.3845536795
51
169.9999234963
0
LINE
5
6DB
100
AcDbEntity
8
025
100
AcDbLine
62
4
6
CONTINUOUS
10
233.9762350000
20
127.1594960000
11
233.8957350000
21
126.7029580000
0
LINE
5
6DC
100
AcDbEntity
8
025
100
AcDbLine
62
4
6
CONTINUOUS
10
233.8957350000
20
126.7029580000
11
233.3339160000
21
126.7029580000
0
LINE
5
6DD
100
AcDbEntity
8
025
100
AcDbLine
62
4
6
CONTINUOUS
10
233.3339160000
20
126.7029580000
11
233.4479630000
21
127.3497540000
0
ARC
5
6DE
100
AcDbEntity
8
025
100
AcDbCircle
62
4
6
CONTINUOUS
10
233.6692772159
20
127.3107298682
40
0.2247284250
100
AcDbArc
50
100.1184721828
51
169.9998834214
0
ARC
5
6DF
100
AcDbEntity
8
025
100
AcDbCircle
62
4
6
CONTINUOUS
10
234.4194227965
20
123.1073239060
40
4.4945457601
100
AcDbArc
50
80.4781146857
51
100.1185560218
0
ARC
5
6E0
100
AcDbEntity
8
025
100
AcDbCircle
62
4
6
CONTINUOUS
10
235.1350483474
20
127.3737218773
40
0.1685462711
100
AcDbArc
50
349.9999570210
51
80.4781149415
0
LINE
5
6E1
100
AcDbEntity
8
025
100
AcDbLine
62
4
6
CONTINUOUS
10
235.3010340000
20
127.3444540000
11
235.1879210000
21
126.7029580000
0
LINE
5
6E2
100
AcDbEntity
8
025
100
AcDbLine
62
4
6
CONTINUOUS
10
235.1879210000
20
126.7029580000
11
234.6261010000
21
126.7029580000
0
LINE
5
6E3
100
AcDbEntity
8
025
100
AcDbLine
62
4
6
CONTINUOUS
10
231.5822310000
20
127.6018700000
11
231.4237290000
21
126.7029580000
0
LINE
5
6E4
100
AcDbEntity
8
025
100
AcDbLine
62
4
6
CONTINUOUS
10
232.7555400000
20
126.9276860000
11
233.2049950000
21
126.9276860000
0
LINE
5
6E5
100
AcDbEntity
8
025
100
AcDbLine
62
4
6
CONTINUOUS
10
233.2049950000
20
126.9276860000
11
233.1653700000
21
126.7029580000
0
LINE
5
6E6
100
AcDbEntity
8
025
100
AcDbLine
62
4
6
CONTINUOUS
10
233.1653700000
20
126.7029580000
11
231.6484570000
21
126.7029580000
0
LINE
5
6E7
100
AcDbEntity
8
025
100
AcDbLine
62
4
6
CONTINUOUS
10
231.6484570000
20
126.7029580000
11
231.6880820000
21
126.9276860000
0
LINE
5
6E8
100
AcDbEntity
8
025
100
AcDbLine
62
4
6
CONTINUOUS
10
231.6880820000
20
126.9276860000
11
232.1375380000
21
126.9276860000
0
LINE
5
6E9
100
AcDbEntity
8
025
100
AcDbLine
62
4
6
CONTINUOUS
10
232.1375380000
20
126.9276860000
11
232.2564150000
21
127.6018700000
0
LINE
5
6EA
100
AcDbEntity
8
025
100
AcDbLine
62
4
6
CONTINUOUS
10
232.2564150000
20
127.6018700000
11
232.8744160000
21
127.6018700000
0
LINE
5
6EB
100
AcDbEntity
8
025
100
AcDbLine
62
4
6
CONTINUOUS
10
232.8744160000
20
127.6018700000
11
232.7555400000
21
126.9276860000
0
ARC
5
6EC
100
AcDbEntity
8
025
100
AcDbCircle
62
4
6
CONTINUOUS
10
230.3496220000
20
127.4196210000
40
0.7166630000
100
AcDbArc
50
255.4857210000
51
270.0000000000
0
ARC
5
6ED
100
AcDbEntity
8
025
100
AcDbCircle
62
4
6
CONTINUOUS
10
230.3353159692
20
126.9838675297
40
0.0596659692
100
AcDbArc
50
140.3601696280
51
179.9995483510
0
ARC
5
6EE
100
AcDbEntity
8
025
100
AcDbCircle
62
4
6
CONTINUOUS
10
230.4136412500
20
126.9189802235
40
0.1613773851
100
AcDbArc
50
116.5646897217
51
140.3603795096
0
ARC
5
6EF
100
AcDbEntity
8
025
100
AcDbCircle
62
4
6
CONTINUOUS
10
230.4659325451
20
126.8144034292
40
0.2782990915
100
AcDbArc
50
101.7012667479
51
116.5653752182
0
ARC
5
6F0
100
AcDbEntity
8
025
100
AcDbCircle
62
4
6
CONTINUOUS
10
230.5003790427
20
126.6480752150
40
0.4481567850
100
AcDbArc
50
90.0001333088
51
101.7009844783
0
LINE
5
6F1
100
AcDbEntity
8
025
100
AcDbLine
62
4
6
CONTINUOUS
10
230.5003780000
20
127.0962320000
11
230.8750720000
21
127.0962320000
0
LINE
5
6F2
100
AcDbEntity
8
025
100
AcDbLine
62
4
6
CONTINUOUS
10
230.8750720000
20
127.0962320000
11
230.8354460000
21
126.8715040000
0
LINE
5
6F3
100
AcDbEntity
8
025
100
AcDbLine
62
4
6
CONTINUOUS
10
230.8354460000
20
126.8715040000
11
230.5003780000
21
126.8715040000
0
ARC
5
6F4
100
AcDbEntity
8
025
100
AcDbCircle
62
4
6
CONTINUOUS
10
230.5003790427
20
127.3196607850
40
0.4481567850
100
AcDbArc
50
258.2990155217
51
269.9998666912
0
ARC
5
6F5
100
AcDbEntity
8
025
100
AcDbCircle
62
4
6
CONTINUOUS
10
230.4659325451
20
127.1533325708
40
0.2782990915
100
AcDbArc
50
243.4346247818
51
258.2987332521
0
ARC
5
6F6
100
AcDbEntity
8
025
100
AcDbCircle
62
4
6
CONTINUOUS
10
230.4136412500
20
127.0487557765
40
0.1613773851
100
AcDbArc
50
219.6396204904
51
243.4353102783
0
ARC
5
6F7
100
AcDbEntity
8
025
100
AcDbCircle
62
4
6
CONTINUOUS
10
230.3353159692
20
126.9838684703
40
0.0596659692
100
AcDbArc
50
180.0004516490
51
219.6398303720
0
LINE
5
6F8
100
AcDbEntity
8
025
100
AcDbLine
62
4
6
CONTINUOUS
10
231.4237290000
20
126.7029580000
11
230.3496220000
21
126.7029580000
0
LINE
5
6F9
100
AcDbEntity
8
025
100
AcDbLine
62
4
6
CONTINUOUS
10
230.9047910000
20
127.2647780000
11
230.9642300000
21
127.6018700000
0
LINE
5
6FA
100
AcDbEntity
8
025
100
AcDbLine
62
4
6
CONTINUOUS
10
230.9642300000
20
127.6018700000
11
231.5822310000
21
127.6018700000
0
ARC
5
6FB
100
AcDbEntity
8
025
100
AcDbCircle
62
4
6
CONTINUOUS
10
230.3496220000
20
126.5481150000
40
0.7166630000
100
AcDbArc
50
102.1768440000
51
104.5142790000
0
LINE
5
6FC
100
AcDbEntity
8
025
100
AcDbLine
62
4
6
CONTINUOUS
10
230.4024100000
20
127.6018700000
11
230.9047910000
21
127.2647780000
0
LINE
5
6FD
100
AcDbEntity
8
025
100
AcDbLine
62
4
6
CONTINUOUS
10
236.5989820000
20
127.3771420000
11
235.6438890000
21
127.3771420000
0
LINE
5
6FE
100
AcDbEntity
8
025
100
AcDbLine
62
4
6
CONTINUOUS
10
235.6438890000
20
127.3771420000
11
235.6835150000
21
127.6018700000
0
LINE
5
6FF
100
AcDbEntity
8
025
100
AcDbLine
62
4
6
CONTINUOUS
10
235.6835150000
20
127.6018700000
11
237.2004280000
21
127.6018700000
0
LINE
5
700
100
AcDbEntity
8
025
100
AcDbLine
62
4
6
CONTINUOUS
10
237.2004280000
20
127.6018700000
11
237.0419250000
21
126.7029580000
0
LINE
5
701
100
AcDbEntity
8
025
100
AcDbLine
62
4
6
CONTINUOUS
10
237.0419250000
20
126.7029580000
11
235.5250120000
21
126.7029580000
0
LINE
5
702
100
AcDbEntity
8
025
100
AcDbLine
62
4
6
CONTINUOUS
10
235.5250120000
20
126.7029580000
11
235.5646380000
21
126.9276860000
0
LINE
5
703
100
AcDbEntity
8
025
100
AcDbLine
62
4
6
CONTINUOUS
10
235.5646380000
20
126.9276860000
11
236.5197310000
21
126.9276860000
0
LINE
5
704
100
AcDbEntity
8
025
100
AcDbLine
62
4
6
CONTINUOUS
10
236.5197310000
20
126.9276860000
11
236.5395440000
21
127.0400500000
0
LINE
5
705
100
AcDbEntity
8
025
100
AcDbLine
62
4
6
CONTINUOUS
10
236.5395440000
20
127.0400500000
11
235.7529970000
21
127.0400500000
0
LINE
5
706
100
AcDbEntity
8
025
100
AcDbLine
62
4
6
CONTINUOUS
10
235.7529970000
20
127.0400500000
11
235.7926220000
21
127.2647780000
0
LINE
5
707
100
AcDbEntity
8
025
100
AcDbLine
62
4
6
CONTINUOUS
10
235.7926220000
20
127.2647780000
11
236.5791700000
21
127.2647780000
0
LINE
5
708
100
AcDbEntity
8
025
100
AcDbLine
62
4
6
CONTINUOUS
10
236.5791700000
20
127.2647780000
11
236.5989820000
21
127.3771420000
0
ARC
5
709
100
AcDbEntity
8
025
100
AcDbCircle
62
4
6
CONTINUOUS
10
239.5202010000
20
129.0061140000
40
1.1985490000
100
AcDbArc
50
0.0000000000
51
90.0000000000
0
ARC
5
70A
100
AcDbEntity
8
025
100
AcDbCircle
62
4
6
CONTINUOUS
10
239.5202010000
20
127.4080490000
40
1.1985490000
100
AcDbArc
50
270.0000000000
51
360.0000000000
0
LINE
5
70B
100
AcDbEntity
8
025
100
AcDbLine
62
4
6
CONTINUOUS
10
240.7187500000
20
127.4080490000
11
240.7187500000
21
129.0061140000
0
LINE
5
70C
100
AcDbEntity
8
025
100
AcDbLine
62
4
6
CONTINUOUS
10
245.5523960000
20
131.1789250000
11
245.5523960000
21
128.2070810000
0
LINE
5
70D
100
AcDbEntity
8
025
100
AcDbLine
62
4
6
CONTINUOUS
10
245.5523960000
20
131.8230190000
11
245.5523960000
21
131.4716920000
0
LINE
5
70E
100
AcDbEntity
8
025
100
AcDbLine
62
4
6
CONTINUOUS
10
262.9313510000
20
130.1123600000
11
262.9313510000
21
126.9990010000
0
LINE
5
70F
100
AcDbEntity
8
025
100
AcDbLine
62
4
6
CONTINUOUS
10
263.5306250000
20
130.2538770000
11
263.5306250000
21
127.1809510000
0
LINE
5
710
100
AcDbEntity
8
025
100
AcDbLine
62
4
6
CONTINUOUS
10
264.4157800000
20
130.4221280000
11
264.4157800000
21
126.0274500000
0
LINE
5
711
100
AcDbEntity
8
025
100
AcDbLine
62
4
6
CONTINUOUS
10
264.4157800000
20
126.0274500000
11
265.4682790000
21
126.5751850000
0
LINE
5
712
100
AcDbEntity
8
025
100
AcDbLine
62
4
6
CONTINUOUS
10
265.4682790000
20
126.5751850000
11
265.4682790000
21
129.8956230000
0
LINE
5
713
100
AcDbEntity
8
025
100
AcDbLine
62
4
6
CONTINUOUS
10
265.4682790000
20
129.8956230000
11
264.4157800000
21
130.4221280000
0
LINE
5
714
100
AcDbEntity
8
025
100
AcDbLine
62
4
6
CONTINUOUS
10
264.4157800000
20
130.4221280000
11
264.4157800000
21
126.0274500000
0
SOLID
5
715
100
AcDbEntity
8
025
100
AcDbTrace
62
4
6
CONTINUOUS
10
265.4682790000
20
129.8956230000
11
264.4157800000
21
126.0274500000
12
265.4682790000
22
126.5751850000
13
265.4682790000
23
126.5751850000
0
SOLID
5
716
100
AcDbEntity
8
025
100
AcDbTrace
62
4
6
CONTINUOUS
10
265.4682790000
20
129.8956230000
11
264.4157800000
21
130.4221280000
12
264.4157800000
22
126.0274500000
13
264.4157800000
23
126.0274500000
0
LINE
5
717
100
AcDbEntity
8
025
100
AcDbLine
62
4
6
CONTINUOUS
10
259.6353420000
20
128.2164780000
11
259.6353420000
21
130.2639980000
0
LINE
5
718
100
AcDbEntity
8
025
100
AcDbLine
62
4
6
CONTINUOUS
10
259.6353420000
20
126.1999290000
11
259.9147680000
21
126.3447540000
0
LINE
5
719
100
AcDbEntity
8
025
100
AcDbLine
62
4
6
CONTINUOUS
10
259.9147680000
20
126.3447540000
11
259.9147680000
21
130.1101940000
0
LINE
5
71A
100
AcDbEntity
8
025
100
AcDbLine
62
4
6
CONTINUOUS
10
259.9147680000
20
130.1101940000
11
259.6353420000
21
130.2546020000
0
LINE
5
71B
100
AcDbEntity
8
025
100
AcDbLine
62
4
6
CONTINUOUS
10
259.6353420000
20
130.2546020000
11
259.6353420000
21
126.1999290000
0
SOLID
5
71C
100
AcDbEntity
8
025
100
AcDbTrace
62
4
6
CONTINUOUS
10
259.9147680000
20
130.1101940000
11
259.6353420000
21
126.1999290000
12
259.9147680000
22
126.3447540000
13
259.9147680000
23
126.3447540000
0
SOLID
5
71D
100
AcDbEntity
8
025
100
AcDbTrace
62
4
6
CONTINUOUS
10
259.9147680000
20
130.1101940000
11
259.6353420000
21
130.2546020000
12
259.6353420000
22
126.1999290000
13
259.6353420000
23
126.1999290000
0
LINE
5
71E
100
AcDbEntity
8
025
100
AcDbLine
62
4
6
CONTINUOUS
10
259.3402460000
20
126.0301350000
11
259.3402460000
21
130.4138170000
0
LINE
5
71F
100
AcDbEntity
8
025
100
AcDbLine
62
4
6
CONTINUOUS
10
259.9147680000
20
126.3447540000
11
260.7340120000
21
126.3529530000
0
LINE
5
720
100
AcDbEntity
8
025
100
AcDbLine
62
4
6
CONTINUOUS
10
260.7340120000
20
126.3529530000
11
260.7340120000
21
130.0966240000
0
LINE
5
721
100
AcDbEntity
8
025
100
AcDbLine
62
4
6
CONTINUOUS
10
260.7340120000
20
130.0966240000
11
259.9147680000
21
130.1101940000
0
LINE
5
722
100
AcDbEntity
8
025
100
AcDbLine
62
4
6
CONTINUOUS
10
259.9147680000
20
130.1101940000
11
259.9147680000
21
126.3447540000
0
SOLID
5
723
100
AcDbEntity
8
025
100
AcDbTrace
62
4
6
CONTINUOUS
10
260.7340120000
20
130.0966240000
11
259.9147680000
21
126.3447540000
12
260.7340120000
22
126.3529530000
13
260.7340120000
23
126.3529530000
0
SOLID
5
724
100
AcDbEntity
8
025
100
AcDbTrace
62
4
6
CONTINUOUS
10
260.7340120000
20
130.0966240000
11
259.9147680000
21
130.1101940000
12
259.9147680000
22
126.3447540000
13
259.9147680000
23
126.3447540000
0
LINE
5
725
100
AcDbEntity
8
025
100
AcDbLine
62
4
6
CONTINUOUS
10
260.7340120000
20
128.2074980000
11
260.7340120000
21
130.1101940000
0
LINE
5
726
100
AcDbEntity
8
025
100
AcDbLine
62
4
6
CONTINUOUS
10
260.7340120000
20
130.1101940000
11
259.9147680000
21
130.1101940000
0
LINE
5
727
100
AcDbEntity
8
025
100
AcDbLine
62
4
6
CONTINUOUS
10
259.9147680000
20
130.1101940000
11
259.6353420000
21
130.2550180000
0
LINE
5
728
100
AcDbEntity
8
025
100
AcDbLine
62
4
6
CONTINUOUS
10
259.6353420000
20
130.2550180000
11
259.6353420000
21
128.2074980000
0
LINE
5
729
100
AcDbEntity
8
025
100
AcDbLine
62
4
6
CONTINUOUS
10
259.6353420000
20
128.2274740000
11
259.6353420000
21
126.1799530000
0
LINE
5
72A
100
AcDbEntity
8
025
100
AcDbLine
62
4
6
CONTINUOUS
10
260.7340120000
20
128.2474500000
11
260.7340120000
21
126.3447540000
0
LINE
5
72B
100
AcDbEntity
8
025
100
AcDbLine
62
4
6
CONTINUOUS
10
260.7340120000
20
126.3447540000
11
259.9147680000
21
126.3447540000
0
LINE
5
72C
100
AcDbEntity
8
025
100
AcDbLine
62
4
6
CONTINUOUS
10
259.9147680000
20
126.3447540000
11
259.6353420000
21
126.1999290000
0
LINE
5
72D
100
AcDbEntity
8
025
100
AcDbLine
62
4
6
CONTINUOUS
10
259.6353420000
20
126.1999290000
11
259.6353420000
21
128.2474500000
0
LINE
5
72E
100
AcDbEntity
8
025
100
AcDbLine
62
4
6
CONTINUOUS
10
265.4682800000
20
129.8956190000
11
265.4682800000
21
126.5496720000
0
LINE
5
72F
100
AcDbEntity
8
025
100
AcDbLine
62
4
6
CONTINUOUS
10
265.4682790000
20
129.8956230000
11
265.4682790000
21
126.5751850000
0
LINE
5
730
100
AcDbEntity
8
025
100
AcDbLine
62
4
6
CONTINUOUS
10
45.9262410000
20
128.2066650000
11
45.9262410000
21
126.3039690000
0
LINE
5
731
100
AcDbEntity
8
025
100
AcDbLine
62
4
6
CONTINUOUS
10
45.9262410000
20
126.3039690000
11
46.7454840000
21
126.3039690000
0
LINE
5
732
100
AcDbEntity
8
025
100
AcDbLine
62
4
6
CONTINUOUS
10
46.7454840000
20
126.3039690000
11
47.0249110000
21
126.1591440000
0
LINE
5
733
100
AcDbEntity
8
025
100
AcDbLine
62
4
6
CONTINUOUS
10
47.0249110000
20
126.1591440000
11
47.0249110000
21
128.2066650000
0
LINE
5
734
100
AcDbEntity
8
025
100
AcDbLine
62
4
6
CONTINUOUS
10
46.7454840000
20
130.0694090000
11
45.9262410000
21
130.0612090000
0
LINE
5
735
100
AcDbEntity
8
025
100
AcDbLine
62
4
6
CONTINUOUS
10
45.9262410000
20
130.0612090000
11
45.9262410000
21
126.3175380000
0
LINE
5
736
100
AcDbEntity
8
025
100
AcDbLine
62
4
6
CONTINUOUS
10
45.9262410000
20
126.3175380000
11
46.7454840000
21
126.3039690000
0
LINE
5
737
100
AcDbEntity
8
025
100
AcDbLine
62
4
6
CONTINUOUS
10
46.7454840000
20
126.3039690000
11
46.7454840000
21
130.0694090000
0
SOLID
5
738
100
AcDbEntity
8
025
100
AcDbTrace
62
4
6
CONTINUOUS
10
45.9262410000
20
126.3175380000
11
46.7454840000
21
130.0694090000
12
45.9262410000
22
130.0612090000
13
45.9262410000
23
130.0612090000
0
SOLID
5
739
100
AcDbEntity
8
025
100
AcDbTrace
62
4
6
CONTINUOUS
10
45.9262410000
20
126.3175380000
11
46.7454840000
21
126.3039690000
12
46.7454840000
22
130.0694090000
13
46.7454840000
23
130.0694090000
0
LINE
5
73A
100
AcDbEntity
8
025
100
AcDbLine
62
4
6
CONTINUOUS
10
45.9262410000
20
128.1667130000
11
45.9262410000
21
130.0694090000
0
LINE
5
73B
100
AcDbEntity
8
025
100
AcDbLine
62
4
6
CONTINUOUS
10
45.9262410000
20
130.0694090000
11
46.7454840000
21
130.0694090000
0
LINE
5
73C
100
AcDbEntity
8
025
100
AcDbLine
62
4
6
CONTINUOUS
10
46.7454840000
20
130.0694090000
11
47.0249110000
21
130.2142340000
0
LINE
5
73D
100
AcDbEntity
8
025
100
AcDbLine
62
4
6
CONTINUOUS
10
47.0249110000
20
130.2142340000
11
47.0249110000
21
128.1667130000
0
LINE
5
73E
100
AcDbEntity
8
025
100
AcDbLine
62
4
6
CONTINUOUS
10
80.4714900000
20
128.8122930000
11
79.6849430000
21
128.8122930000
0
LINE
5
73F
100
AcDbEntity
8
025
100
AcDbLine
62
4
6
CONTINUOUS
10
79.6849430000
20
128.8122930000
11
79.0239220000
21
129.2055670000
0
LINE
5
740
100
AcDbEntity
8
025
100
AcDbLine
62
4
6
CONTINUOUS
10
79.0239220000
20
129.2055670000
11
78.9545770000
21
128.8122930000
0
LINE
5
741
100
AcDbEntity
8
025
100
AcDbLine
62
4
6
CONTINUOUS
10
78.9545770000
20
128.8122930000
11
78.3365750000
21
128.8122930000
0
LINE
5
742
100
AcDbEntity
8
025
100
AcDbLine
62
4
6
CONTINUOUS
10
78.3365750000
20
128.8122930000
11
78.4950780000
21
129.7112050000
0
LINE
5
743
100
AcDbEntity
8
025
100
AcDbLine
62
4
6
CONTINUOUS
10
78.4950780000
20
129.7112050000
11
79.1130790000
21
129.7112050000
0
LINE
5
744
100
AcDbEntity
8
025
100
AcDbLine
62
4
6
CONTINUOUS
10
79.1130790000
20
129.7112050000
11
79.0437350000
21
129.3179310000
0
LINE
5
745
100
AcDbEntity
8
025
100
AcDbLine
62
4
6
CONTINUOUS
10
79.0437350000
20
129.3179310000
11
79.7872630000
21
129.7112050000
0
LINE
5
746
100
AcDbEntity
8
025
100
AcDbLine
62
4
6
CONTINUOUS
10
79.7872630000
20
129.7112050000
11
80.6299920000
21
129.7112050000
0
LINE
5
747
100
AcDbEntity
8
025
100
AcDbLine
62
4
6
CONTINUOUS
10
80.6299920000
20
129.7112050000
11
79.6518300000
21
129.2617490000
0
LINE
5
748
100
AcDbEntity
8
025
100
AcDbLine
62
4
6
CONTINUOUS
10
79.6518300000
20
129.2617490000
11
80.4714900000
21
128.8122930000
0
LINE
5
749
100
AcDbEntity
8
025
100
AcDbLine
62
4
6
CONTINUOUS
10
67.1400510000
20
130.2046620000
11
79.4528070000
21
130.2046620000
0
LINE
5
74A
100
AcDbEntity
8
025
100
AcDbLine
62
4
6
CONTINUOUS
10
67.1400510000
20
126.2095000000
11
80.2252060000
21
126.2095000000
0
LINE
5
74B
100
AcDbEntity
8
025
100
AcDbLine
62
4
6
CONTINUOUS
10
97.0771920000
20
130.2605680000
11
97.0771920000
21
130.9423840000
0
ARC
5
74C
100
AcDbEntity
8
025
100
AcDbCircle
62
4
6
CONTINUOUS
10
80.2252060000
20
129.0061140000
40
1.1985490000
100
AcDbArc
50
0.0000000000
51
69.9071180000
0
LINE
5
74D
100
AcDbEntity
8
025
100
AcDbLine
62
4
6
CONTINUOUS
10
81.4237540000
20
129.0061140000
11
81.4237540000
21
127.4080490000
0
LINE
5
74E
100
AcDbEntity
8
025
100
AcDbLine
62
4
6
CONTINUOUS
10
79.9047630000
20
130.2046620000
11
80.2252060000
21
130.2046620000
0
ARC
5
74F
100
AcDbEntity
8
025
100
AcDbCircle
62
4
6
CONTINUOUS
10
80.2252060000
20
127.4080490000
40
1.1985490000
100
AcDbArc
50
270.0000000000
51
360.0000000000
0
LINE
5
750
100
AcDbEntity
8
025
100
AcDbLine
62
4
6
CONTINUOUS
10
70.0612700000
20
129.0370210000
11
71.0163640000
21
129.0370210000
0
LINE
5
751
100
AcDbEntity
8
025
100
AcDbLine
62
4
6
CONTINUOUS
10
71.0163640000
20
129.0370210000
11
70.9767380000
21
128.8122930000
0
LINE
5
752
100
AcDbEntity
8
025
100
AcDbLine
62
4
6
CONTINUOUS
10
70.9767380000
20
128.8122930000
11
69.4598250000
21
128.8122930000
0
LINE
5
753
100
AcDbEntity
8
025
100
AcDbLine
62
4
6
CONTINUOUS
10
69.4598250000
20
128.8122930000
11
69.6183270000
21
129.7112050000
0
LINE
5
754
100
AcDbEntity
8
025
100
AcDbLine
62
4
6
CONTINUOUS
10
69.6183270000
20
129.7112050000
11
71.1352400000
21
129.7112050000
0
LINE
5
755
100
AcDbEntity
8
025
100
AcDbLine
62
4
6
CONTINUOUS
10
71.1352400000
20
129.7112050000
11
71.0956150000
21
129.4864770000
0
LINE
5
756
100
AcDbEntity
8
025
100
AcDbLine
62
4
6
CONTINUOUS
10
71.0956150000
20
129.4864770000
11
70.1405210000
21
129.4864770000
0
LINE
5
757
100
AcDbEntity
8
025
100
AcDbLine
62
4
6
CONTINUOUS
10
70.1405210000
20
129.4864770000
11
70.1207090000
21
129.3741130000
0
LINE
5
758
100
AcDbEntity
8
025
100
AcDbLine
62
4
6
CONTINUOUS
10
70.1207090000
20
129.3741130000
11
70.9072560000
21
129.3741130000
0
LINE
5
759
100
AcDbEntity
8
025
100
AcDbLine
62
4
6
CONTINUOUS
10
70.9072560000
20
129.3741130000
11
70.8676310000
21
129.1493850000
0
LINE
5
75A
100
AcDbEntity
8
025
100
AcDbLine
62
4
6
CONTINUOUS
10
70.8676310000
20
129.1493850000
11
70.0810830000
21
129.1493850000
0
LINE
5
75B
100
AcDbEntity
8
025
100
AcDbLine
62
4
6
CONTINUOUS
10
70.0810830000
20
129.1493850000
11
70.0612700000
21
129.0370210000
0
LINE
5
75C
100
AcDbEntity
8
025
100
AcDbLine
62
4
6
CONTINUOUS
10
73.9047130000
20
129.4864770000
11
73.4552570000
21
129.4864770000
0
LINE
5
75D
100
AcDbEntity
8
025
100
AcDbLine
62
4
6
CONTINUOUS
10
73.4552570000
20
129.4864770000
11
73.4948830000
21
129.7112050000
0
LINE
5
75E
100
AcDbEntity
8
025
100
AcDbLine
62
4
6
CONTINUOUS
10
73.4948830000
20
129.7112050000
11
75.0117960000
21
129.7112050000
0
LINE
5
75F
100
AcDbEntity
8
025
100
AcDbLine
62
4
6
CONTINUOUS
10
75.0117960000
20
129.7112050000
11
74.9721700000
21
129.4864770000
0
LINE
5
760
100
AcDbEntity
8
025
100
AcDbLine
62
4
6
CONTINUOUS
10
74.9721700000
20
129.4864770000
11
74.5227150000
21
129.4864770000
0
LINE
5
761
100
AcDbEntity
8
025
100
AcDbLine
62
4
6
CONTINUOUS
10
74.5227150000
20
129.4864770000
11
74.4038380000
21
128.8122930000
0
LINE
5
762
100
AcDbEntity
8
025
100
AcDbLine
62
4
6
CONTINUOUS
10
74.4038380000
20
128.8122930000
11
73.7858360000
21
128.8122930000
0
LINE
5
763
100
AcDbEntity
8
025
100
AcDbLine
62
4
6
CONTINUOUS
10
73.7858360000
20
128.8122930000
11
73.9047130000
21
129.4864770000
0
ARC
5
764
100
AcDbEntity
8
025
100
AcDbCircle
62
4
6
CONTINUOUS
10
76.3356710000
20
129.9488250000
40
0.7918010000
100
AcDbArc
50
281.2572510000
51
295.0773880000
0
ARC
5
765
100
AcDbEntity
8
025
100
AcDbCircle
62
4
6
CONTINUOUS
10
76.3356710000
20
128.9117650000
40
0.7918010000
100
AcDbArc
50
64.9226120000
51
78.7427490000
0
LINE
5
766
100
AcDbEntity
8
025
100
AcDbLine
62
4
6
CONTINUOUS
10
76.9882080000
20
128.8122930000
11
76.2578430000
21
128.8122930000
0
LINE
5
767
100
AcDbEntity
8
025
100
AcDbLine
62
4
6
CONTINUOUS
10
76.4617970000
20
129.1655090000
11
76.9882080000
21
128.8122930000
0
ARC
5
768
100
AcDbEntity
8
025
100
AcDbCircle
62
4
6
CONTINUOUS
10
76.4938780000
20
129.5154890000
40
0.3347030000
100
AcDbArc
50
302.0053830000
51
326.4659040000
0
ARC
5
769
100
AcDbEntity
8
025
100
AcDbCircle
62
4
6
CONTINUOUS
10
76.6224260000
20
129.4302950000
40
0.1804860000
100
AcDbArc
50
326.4659040000
51
360.0000000000
0
ARC
5
76A
100
AcDbEntity
8
025
100
AcDbCircle
62
4
6
CONTINUOUS
10
76.6224260000
20
129.4302950000
40
0.1804860000
100
AcDbArc
50
0.0000000000
51
33.5340960000
0
ARC
5
76B
100
AcDbEntity
8
025
100
AcDbCircle
62
4
6
CONTINUOUS
10
76.4938780000
20
129.3451010000
40
0.3347030000
100
AcDbArc
50
33.5340960000
51
57.9946170000
0
ARC
5
76C
100
AcDbEntity
8
025
100
AcDbCircle
62
4
6
CONTINUOUS
10
76.3249365308
20
129.4302940830
40
0.0596654692
100
AcDbArc
50
320.3615018329
51
0.0008805559
0
ARC
5
76D
100
AcDbEntity
8
025
100
AcDbCircle
62
4
6
CONTINUOUS
10
76.2466117500
20
129.4951827765
40
0.1613773851
100
AcDbArc
50
296.5646897217
51
320.3603795096
0
ARC
5
76E
100
AcDbEntity
8
025
100
AcDbCircle
62
4
6
CONTINUOUS
10
76.1943199549
20
129.5997634038
40
0.2783027434
100
AcDbArc
50
281.7010059085
51
296.5651143788
0
ARC
5
76F
100
AcDbEntity
8
025
100
AcDbCircle
62
4
6
CONTINUOUS
10
76.1598729573
20
129.7660877850
40
0.4481567850
100
AcDbArc
50
270.0001333088
51
281.7009844784
0
LINE
5
770
100
AcDbEntity
8
025
100
AcDbLine
62
4
6
CONTINUOUS
10
76.1598740000
20
129.3179310000
11
75.7851810000
21
129.3179310000
0
LINE
5
771
100
AcDbEntity
8
025
100
AcDbLine
62
4
6
CONTINUOUS
10
75.7851810000
20
129.3179310000
11
75.8248060000
21
129.5426590000
0
LINE
5
772
100
AcDbEntity
8
025
100
AcDbLine
62
4
6
CONTINUOUS
10
75.8248060000
20
129.5426590000
11
76.1598740000
21
129.5426590000
0
ARC
5
773
100
AcDbEntity
8
025
100
AcDbCircle
62
4
6
CONTINUOUS
10
76.1598729573
20
129.0945022150
40
0.4481567850
100
AcDbArc
50
78.2990155217
51
89.9998666912
0
ARC
5
774
100
AcDbEntity
8
025
100
AcDbCircle
62
4
6
CONTINUOUS
10
76.1943199549
20
129.2608265962
40
0.2783027434
100
AcDbArc
50
63.4348856212
51
78.2989940915
0
ARC
5
775
100
AcDbEntity
8
025
100
AcDbCircle
62
4
6
CONTINUOUS
10
76.2466117500
20
129.3654072235
40
0.1613773851
100
AcDbArc
50
39.6396204904
51
63.4353102783
0
ARC
5
776
100
AcDbEntity
8
025
100
AcDbCircle
62
4
6
CONTINUOUS
10
76.3249365308
20
129.4302959170
40
0.0596654692
100
AcDbArc
50
359.9991194441
51
39.6384981671
0
LINE
5
777
100
AcDbEntity
8
025
100
AcDbLine
62
4
6
CONTINUOUS
10
75.0780220000
20
128.8122930000
11
75.2365240000
21
129.7112050000
0
LINE
5
778
100
AcDbEntity
8
025
100
AcDbLine
62
4
6
CONTINUOUS
10
75.2365240000
20
129.7112050000
11
76.3106310000
21
129.7112050000
0
ARC
5
779
100
AcDbEntity
8
025
100
AcDbCircle
62
4
6
CONTINUOUS
10
76.3106310000
20
128.9945420000
40
0.7166630000
100
AcDbArc
50
75.4857210000
51
90.0000000000
0
LINE
5
77A
100
AcDbEntity
8
025
100
AcDbLine
62
4
6
CONTINUOUS
10
76.2578430000
20
128.8122930000
11
75.7554620000
21
129.1493850000
0
ARC
5
77B
100
AcDbEntity
8
025
100
AcDbCircle
62
4
6
CONTINUOUS
10
76.3106310000
20
129.8660480000
40
0.7166630000
100
AcDbArc
50
282.1768440000
51
284.5142790000
0
LINE
5
77C
100
AcDbEntity
8
025
100
AcDbLine
62
4
6
CONTINUOUS
10
75.6960230000
20
128.8122930000
11
75.0780220000
21
128.8122930000
0
LINE
5
77D
100
AcDbEntity
8
025
100
AcDbLine
62
4
6
CONTINUOUS
10
75.7554620000
20
129.1493850000
11
75.6960230000
21
128.8122930000
0
LINE
5
77E
100
AcDbEntity
8
025
100
AcDbLine
62
4
6
CONTINUOUS
10
77.8309380000
20
128.8122930000
11
77.2129360000
21
128.8122930000
0
LINE
5
77F
100
AcDbEntity
8
025
100
AcDbLine
62
4
6
CONTINUOUS
10
77.2129360000
20
128.8122930000
11
77.3714390000
21
129.7112050000
0
LINE
5
780
100
AcDbEntity
8
025
100
AcDbLine
62
4
6
CONTINUOUS
10
77.3714390000
20
129.7112050000
11
77.9894400000
21
129.7112050000
0
LINE
5
781
100
AcDbEntity
8
025
100
AcDbLine
62
4
6
CONTINUOUS
10
77.9894400000
20
129.7112050000
11
77.8309380000
21
128.8122930000
0
LINE
5
782
100
AcDbEntity
8
025
100
AcDbLine
62
4
6
CONTINUOUS
10
72.0341520000
20
129.7112050000
11
71.9468160000
21
129.2158970000
0
ARC
5
783
100
AcDbEntity
8
025
100
AcDbCircle
62
4
6
CONTINUOUS
10
72.0851368625
20
129.1915075382
40
0.1404546434
100
AcDbArc
50
170.0000957022
51
259.7007209424
0
ARC
5
784
100
AcDbEntity
8
025
100
AcDbCircle
62
4
6
CONTINUOUS
10
72.2408329986
20
130.0482933767
40
1.0112722247
100
AcDbArc
50
259.7005594524
51
286.3845816959
0
ARC
5
785
100
AcDbEntity
8
025
100
AcDbCircle
62
4
6
CONTINUOUS
10
72.4627040567
20
129.2936909241
40
0.2247281205
100
AcDbArc
50
286.3845536795
51
349.9999234963
0
LINE
5
786
100
AcDbEntity
8
025
100
AcDbLine
62
4
6
CONTINUOUS
10
72.6840180000
20
129.2546670000
11
72.7645170000
21
129.7112050000
0
LINE
5
787
100
AcDbEntity
8
025
100
AcDbLine
62
4
6
CONTINUOUS
10
72.7645170000
20
129.7112050000
11
73.3263370000
21
129.7112050000
0
LINE
5
788
100
AcDbEntity
8
025
100
AcDbLine
62
4
6
CONTINUOUS
10
73.3263370000
20
129.7112050000
11
73.2122890000
21
129.0644080000
0
ARC
5
789
100
AcDbEntity
8
025
100
AcDbCircle
62
4
6
CONTINUOUS
10
72.9909752841
20
129.1034314161
40
0.2247278083
100
AcDbArc
50
280.1186297335
51
350.0000409720
0
ARC
5
78A
100
AcDbEntity
8
025
100
AcDbCircle
62
4
6
CONTINUOUS
10
72.2408330921
20
133.3068385940
40
4.4945457448
100
AcDbArc
50
260.4780773150
51
280.1185186511
0
ARC
5
78B
100
AcDbEntity
8
025
100
AcDbCircle
62
4
6
CONTINUOUS
10
71.5252046526
20
129.0404411227
40
0.1685462711
100
AcDbArc
50
169.9999570210
51
260.4781149415
0
LINE
5
78C
100
AcDbEntity
8
025
100
AcDbLine
62
4
6
CONTINUOUS
10
71.3592190000
20
129.0697090000
11
71.4723320000
21
129.7112050000
0
LINE
5
78D
100
AcDbEntity
8
025
100
AcDbLine
62
4
6
CONTINUOUS
10
71.4723320000
20
129.7112050000
11
72.0341520000
21
129.7112050000
0
ARC
5
78E
100
AcDbEntity
8
025
100
AcDbCircle
62
4
6
CONTINUOUS
10
67.1400510000
20
127.4080490000
40
1.1985490000
100
AcDbArc
50
180.0000000000
51
270.0000000000
0
ARC
5
78F
100
AcDbEntity
8
025
100
AcDbCircle
62
4
6
CONTINUOUS
10
67.1400510000
20
129.0061140000
40
1.1985490000
100
AcDbArc
50
90.0000000000
51
180.0000000000
0
LINE
5
790
100
AcDbEntity
8
025
100
AcDbLine
62
4
6
CONTINUOUS
10
67.4801560000
20
129.3741130000
11
67.3810920000
21
128.8122930000
0
LINE
5
791
100
AcDbEntity
8
025
100
AcDbLine
62
4
6
CONTINUOUS
10
67.3810920000
20
128.8122930000
11
66.7630910000
21
128.8122930000
0
LINE
5
792
100
AcDbEntity
8
025
100
AcDbLine
62
4
6
CONTINUOUS
10
66.7630910000
20
128.8122930000
11
66.9215930000
21
129.7112050000
0
LINE
5
793
100
AcDbEntity
8
025
100
AcDbLine
62
4
6
CONTINUOUS
10
66.9215930000
20
129.7112050000
11
67.5395950000
21
129.7112050000
0
LINE
5
794
100
AcDbEntity
8
025
100
AcDbLine
62
4
6
CONTINUOUS
10
67.5395950000
20
129.7112050000
11
68.4518060000
21
129.1493850000
0
LINE
5
795
100
AcDbEntity
8
025
100
AcDbLine
62
4
6
CONTINUOUS
10
68.4518060000
20
129.1493850000
11
68.5508700000
21
129.7112050000
0
LINE
5
796
100
AcDbEntity
8
025
100
AcDbLine
62
4
6
CONTINUOUS
10
68.5508700000
20
129.7112050000
11
69.1688720000
21
129.7112050000
0
LINE
5
797
100
AcDbEntity
8
025
100
AcDbLine
62
4
6
CONTINUOUS
10
69.1688720000
20
129.7112050000
11
69.0103690000
21
128.8122930000
0
LINE
5
798
100
AcDbEntity
8
025
100
AcDbLine
62
4
6
CONTINUOUS
10
69.0103690000
20
128.8122930000
11
68.3923680000
21
128.8122930000
0
LINE
5
799
100
AcDbEntity
8
025
100
AcDbLine
62
4
6
CONTINUOUS
10
68.3923680000
20
128.8122930000
11
67.4801560000
21
129.3741130000
0
LINE
5
79A
100
AcDbEntity
8
025
100
AcDbLine
62
4
6
CONTINUOUS
10
65.9415030000
20
129.0061140000
11
65.9415030000
21
127.4080490000
0
LINE
5
79B
100
AcDbEntity
8
025
100
AcDbLine
62
4
6
CONTINUOUS
10
61.1078560000
20
131.8230190000
11
61.1078560000
21
131.4716920000
0
LINE
5
79C
100
AcDbEntity
8
025
100
AcDbLine
62
4
6
CONTINUOUS
10
61.1078560000
20
131.1789250000
11
61.1078560000
21
128.2070810000
0
LINE
5
79D
100
AcDbEntity
8
025
100
AcDbLine
62
4
6
CONTINUOUS
10
47.3200060000
20
130.3840280000
11
47.3200060000
21
126.0003460000
0
LINE
5
79E
100
AcDbEntity
8
025
100
AcDbLine
62
4
6
CONTINUOUS
10
47.0249110000
20
130.2142340000
11
46.7454840000
21
130.0694090000
0
LINE
5
79F
100
AcDbEntity
8
025
100
AcDbLine
62
4
6
CONTINUOUS
10
46.7454840000
20
130.0694090000
11
46.7454840000
21
126.3039690000
0
LINE
5
7A0
100
AcDbEntity
8
025
100
AcDbLine
62
4
6
CONTINUOUS
10
46.7454840000
20
126.3039690000
11
47.0249110000
21
126.1595610000
0
LINE
5
7A1
100
AcDbEntity
8
025
100
AcDbLine
62
4
6
CONTINUOUS
10
47.0249110000
20
126.1595610000
11
47.0249110000
21
130.2142340000
0
SOLID
5
7A2
100
AcDbEntity
8
025
100
AcDbTrace
62
4
6
CONTINUOUS
10
46.7454840000
20
126.3039690000
11
47.0249110000
21
130.2142340000
12
46.7454840000
22
130.0694090000
13
46.7454840000
23
130.0694090000
0
SOLID
5
7A3
100
AcDbEntity
8
025
100
AcDbTrace
62
4
6
CONTINUOUS
10
46.7454840000
20
126.3039690000
11
47.0249110000
21
126.1595610000
12
47.0249110000
22
130.2142340000
13
47.0249110000
23
130.2142340000
0
LINE
5
7A4
100
AcDbEntity
8
025
100
AcDbLine
62
4
6
CONTINUOUS
10
47.0249110000
20
128.1976850000
11
47.0249110000
21
126.1501640000
0
LINE
5
7A5
100
AcDbEntity
8
025
100
AcDbLine
62
4
6
CONTINUOUS
10
47.0249110000
20
128.1866890000
11
47.0249110000
21
130.2342100000
0
LINE
5
7A6
100
AcDbEntity
8
025
100
AcDbLine
62
4
6
CONTINUOUS
10
41.1919740000
20
126.5185390000
11
41.1919740000
21
129.8389780000
0
LINE
5
7A7
100
AcDbEntity
8
025
100
AcDbLine
62
4
6
CONTINUOUS
10
41.1919730000
20
126.5185430000
11
41.1919730000
21
129.8644910000
0
LINE
5
7A8
100
AcDbEntity
8
025
100
AcDbLine
62
4
6
CONTINUOUS
10
42.2444720000
20
125.9920350000
11
42.2444720000
21
130.3867130000
0
LINE
5
7A9
100
AcDbEntity
8
025
100
AcDbLine
62
4
6
CONTINUOUS
10
42.2444720000
20
130.3867130000
11
41.1919740000
21
129.8389780000
0
LINE
5
7AA
100
AcDbEntity
8
025
100
AcDbLine
62
4
6
CONTINUOUS
10
41.1919740000
20
129.8389780000
11
41.1919740000
21
126.5185390000
0
LINE
5
7AB
100
AcDbEntity
8
025
100
AcDbLine
62
4
6
CONTINUOUS
10
41.1919740000
20
126.5185390000
11
42.2444720000
21
125.9920350000
0
LINE
5
7AC
100
AcDbEntity
8
025
100
AcDbLine
62
4
6
CONTINUOUS
10
42.2444720000
20
125.9920350000
11
42.2444720000
21
130.3867130000
0
SOLID
5
7AD
100
AcDbEntity
8
025
100
AcDbTrace
62
4
6
CONTINUOUS
10
41.1919740000
20
126.5185390000
11
42.2444720000
21
130.3867130000
12
41.1919740000
22
129.8389780000
13
41.1919740000
23
129.8389780000
0
SOLID
5
7AE
100
AcDbEntity
8
025
100
AcDbTrace
62
4
6
CONTINUOUS
10
41.1919740000
20
126.5185390000
11
42.2444720000
21
125.9920350000
12
42.2444720000
22
130.3867130000
13
42.2444720000
23
130.3867130000
0
ARC
5
7AF
100
AcDbEntity
8
025
100
AcDbCircle
62
4
6
CONTINUOUS
10
154.9193690000
20
130.4453250000
40
4.0376530000
100
AcDbArc
50
133.0040260000
51
215.5699050000
0
ARC
5
7B0
100
AcDbEntity
8
025
100
AcDbCircle
62
4
6
CONTINUOUS
10
147.9814660000
20
125.4837850000
40
4.4917890000
100
AcDbArc
50
324.4300950000
51
35.5699050000
0
ARC
5
7B1
100
AcDbEntity
8
025
100
AcDbCircle
62
4
6
CONTINUOUS
10
157.5043770000
20
130.4453250000
40
4.0376530000
100
AcDbArc
50
133.0040260000
51
215.5699050000
0
ARC
5
7B2
100
AcDbEntity
8
025
100
AcDbCircle
62
4
6
CONTINUOUS
10
150.5664740000
20
125.4837850000
40
4.4917890000
100
AcDbArc
50
324.4300950000
51
35.5699050000
0
LINE
5
7B3
100
AcDbEntity
8
025
100
AcDbLine
62
4
6
CONTINUOUS
10
40.7515270000
20
130.3867130000
11
29.5689830000
21
130.3867130000
0
LINE
5
7B4
100
AcDbEntity
8
025
100
AcDbLine
62
4
6
CONTINUOUS
10
40.6816170000
20
125.9920350000
11
29.5689830000
21
125.9920350000
0
LINE
5
7B5
100
AcDbEntity
8
025
100
AcDbLine
62
4
6
CONTINUOUS
10
30.3689830000
20
140.7142070000
11
30.3689830000
21
115.6645410000
0
LINE
5
7B6
100
AcDbEntity
8
025
100
AcDbLine
62
4
6
CONTINUOUS
10
30.9523170000
20
133.8867130000
11
30.3689830000
21
130.3867130000
0
LINE
5
7B7
100
AcDbEntity
8
025
100
AcDbLine
62
4
6
CONTINUOUS
10
30.3689830000
20
130.3867130000
11
29.7856500000
21
133.8867130000
0
LINE
5
7B8
100
AcDbEntity
8
025
100
AcDbLine
62
4
6
CONTINUOUS
10
29.7856500000
20
133.8867130000
11
30.9523170000
21
133.8867130000
0
SOLID
5
7B9
100
AcDbEntity
8
025
100
AcDbTrace
62
4
6
CONTINUOUS
10
30.9523170000
20
133.8867128610
11
29.7856500000
21
133.8867128610
12
30.3689830000
22
130.3867130000
13
30.3689830000
23
130.3867130000
0
LINE
5
7BA
100
AcDbEntity
8
025
100
AcDbLine
62
4
6
CONTINUOUS
10
30.9523170000
20
122.4920350000
11
30.3689830000
21
125.9920350000
0
LINE
5
7BB
100
AcDbEntity
8
025
100
AcDbLine
62
4
6
CONTINUOUS
10
30.3689830000
20
125.9920350000
11
29.7856500000
21
122.4920350000
0
LINE
5
7BC
100
AcDbEntity
8
025
100
AcDbLine
62
4
6
CONTINUOUS
10
29.7856500000
20
122.4920350000
11
30.9523170000
21
122.4920350000
0
SOLID
5
7BD
100
AcDbEntity
8
025
100
AcDbTrace
62
4
6
CONTINUOUS
10
29.7856500000
20
122.4920349180
11
30.9523170000
21
122.4920349180
12
30.3689830000
22
125.9920350000
13
30.3689830000
23
125.9920350000
0
LINE
5
7BE
100
AcDbEntity
8
025
100
AcDbLine
62
4
6
CONTINUOUS
10
90.3479250000
20
132.0020690000
11
90.2223140000
21
132.0020690000
0
LINE
5
7BF
100
AcDbEntity
8
025
100
AcDbLine
62
4
6
CONTINUOUS
10
90.3479250000
20
124.4112610000
11
90.2223140000
21
124.4112610000
0
LINE
5
7C0
100
AcDbEntity
8
025
100
AcDbLine
62
4
6
CONTINUOUS
10
91.0223140000
20
135.5020690000
11
91.0223140000
21
159.6726730000
0
LINE
5
7C1
100
AcDbEntity
8
025
100
AcDbLine
62
4
6
CONTINUOUS
10
91.0223140000
20
120.9112610000
11
91.0223140000
21
117.4112610000
0
LINE
5
7C2
100
AcDbEntity
8
025
100
AcDbLine
62
4
6
CONTINUOUS
10
91.0223140000
20
132.0020690000
11
91.0223140000
21
124.4112610000
0
LINE
5
7C3
100
AcDbEntity
8
025
100
AcDbLine
62
4
6
CONTINUOUS
10
91.6056480000
20
135.5020690000
11
91.0223140000
21
132.0020690000
0
LINE
5
7C4
100
AcDbEntity
8
025
100
AcDbLine
62
4
6
CONTINUOUS
10
91.0223140000
20
132.0020690000
11
90.4389810000
21
135.5020690000
0
LINE
5
7C5
100
AcDbEntity
8
025
100
AcDbLine
62
4
6
CONTINUOUS
10
90.4389810000
20
135.5020690000
11
91.6056480000
21
135.5020690000
0
SOLID
5
7C6
100
AcDbEntity
8
025
100
AcDbTrace
62
4
6
CONTINUOUS
10
91.6056480000
20
135.5020691310
11
90.4389810000
21
135.5020691310
12
91.0223140000
22
132.0020690000
13
91.0223140000
23
132.0020690000
0
LINE
5
7C7
100
AcDbEntity
8
025
100
AcDbLine
62
4
6
CONTINUOUS
10
91.6056480000
20
120.9112610000
11
91.0223140000
21
124.4112610000
0
LINE
5
7C8
100
AcDbEntity
8
025
100
AcDbLine
62
4
6
CONTINUOUS
10
91.0223140000
20
124.4112610000
11
90.4389810000
21
120.9112610000
0
LINE
5
7C9
100
AcDbEntity
8
025
100
AcDbLine
62
4
6
CONTINUOUS
10
90.4389810000
20
120.9112610000
11
91.6056480000
21
120.9112610000
0
SOLID
5
7CA
100
AcDbEntity
8
025
100
AcDbTrace
62
4
6
CONTINUOUS
10
90.4389810000
20
120.9112610310
11
91.6056480000
21
120.9112610310
12
91.0223140000
22
124.4112610000
13
91.0223140000
23
124.4112610000
0
LINE
5
7CB
100
AcDbEntity
8
025
100
AcDbLine
62
4
6
CONTINUOUS
10
37.8960410000
20
124.9311410000
11
37.8960410000
21
98.3799640000
0
LINE
5
7CC
100
AcDbEntity
8
025
100
AcDbLine
62
4
6
CONTINUOUS
10
103.8960410000
20
123.2919290000
11
103.8960410000
21
98.3799640000
0
LINE
5
7CD
100
AcDbEntity
8
025
100
AcDbLine
62
4
6
CONTINUOUS
10
41.3960410000
20
99.1799640000
11
100.3960410000
21
99.1799640000
0
LINE
5
7CE
100
AcDbEntity
8
025
100
AcDbLine
62
4
6
CONTINUOUS
10
41.3960410000
20
98.5966300000
11
37.8960410000
21
99.1799640000
0
LINE
5
7CF
100
AcDbEntity
8
025
100
AcDbLine
62
4
6
CONTINUOUS
10
37.8960410000
20
99.1799640000
11
41.3960410000
21
99.7632970000
0
LINE
5
7D0
100
AcDbEntity
8
025
100
AcDbLine
62
4
6
CONTINUOUS
10
41.3960410000
20
99.7632970000
11
41.3960410000
21
98.5966300000
0
SOLID
5
7D1
100
AcDbEntity
8
025
100
AcDbTrace
62
4
6
CONTINUOUS
10
37.8960410000
20
99.1799640000
11
41.3960410000
21
98.5966300000
12
41.3960410000
22
99.7632970000
13
41.3960410000
23
99.7632970000
0
LINE
5
7D2
100
AcDbEntity
8
025
100
AcDbLine
62
4
6
CONTINUOUS
10
100.3960410000
20
98.5966300000
11
103.8960410000
21
99.1799640000
0
LINE
5
7D3
100
AcDbEntity
8
025
100
AcDbLine
62
4
6
CONTINUOUS
10
103.8960410000
20
99.1799640000
11
100.3960410000
21
99.7632970000
0
LINE
5
7D4
100
AcDbEntity
8
025
100
AcDbLine
62
4
6
CONTINUOUS
10
100.3960410000
20
99.7632970000
11
100.3960410000
21
98.5966300000
0
SOLID
5
7D5
100
AcDbEntity
8
025
100
AcDbTrace
62
4
6
CONTINUOUS
10
103.8960410000
20
99.1799640000
11
100.3960410000
21
99.7632970000
12
100.3960410000
22
98.5966300000
13
100.3960410000
23
98.5966300000
0
LINE
5
7D6
100
AcDbEntity
8
025
100
AcDbLine
62
4
6
CONTINUOUS
10
202.7642120000
20
123.2962160000
11
202.7642120000
21
98.3799640000
0
LINE
5
7D7
100
AcDbEntity
8
025
100
AcDbLine
62
4
6
CONTINUOUS
10
107.3960410000
20
99.1799640000
11
199.2642120000
21
99.1799640000
0
LINE
5
7D8
100
AcDbEntity
8
025
100
AcDbLine
62
4
6
CONTINUOUS
10
107.3960410000
20
98.5966300000
11
103.8960410000
21
99.1799640000
0
LINE
5
7D9
100
AcDbEntity
8
025
100
AcDbLine
62
4
6
CONTINUOUS
10
103.8960410000
20
99.1799640000
11
107.3960410000
21
99.7632970000
0
LINE
5
7DA
100
AcDbEntity
8
025
100
AcDbLine
62
4
6
CONTINUOUS
10
107.3960410000
20
99.7632970000
11
107.3960410000
21
98.5966300000
0
SOLID
5
7DB
100
AcDbEntity
8
025
100
AcDbTrace
62
4
6
CONTINUOUS
10
103.8960410000
20
99.1799640000
11
107.3960410000
21
98.5966300000
12
107.3960410000
22
99.7632970000
13
107.3960410000
23
99.7632970000
0
LINE
5
7DC
100
AcDbEntity
8
025
100
AcDbLine
62
4
6
CONTINUOUS
10
199.2642120000
20
98.5966300000
11
202.7642120000
21
99.1799640000
0
LINE
5
7DD
100
AcDbEntity
8
025
100
AcDbLine
62
4
6
CONTINUOUS
10
202.7642120000
20
99.1799640000
11
199.2642120000
21
99.7632970000
0
LINE
5
7DE
100
AcDbEntity
8
025
100
AcDbLine
62
4
6
CONTINUOUS
10
199.2642120000
20
99.7632970000
11
199.2642120000
21
98.5966300000
0
SOLID
5
7DF
100
AcDbEntity
8
025
100
AcDbTrace
62
4
6
CONTINUOUS
10
202.7642120000
20
99.1799640000
11
199.2642120000
21
99.7632970000
12
199.2642120000
22
98.5966300000
13
199.2642120000
23
98.5966300000
0
TEXT
5
7E0
100
AcDbEntity
8
05
100
AcDbText
62
4
6
CONTINUOUS
10
242.0000000000
20
11.0000000000
40
1.5000000000
1
Zeichn. Nr.
51
15.0000000000
72
5
11
253.1785714286
21
11.0000000000
100
AcDbText
0
TEXT
5
7E1
100
AcDbEntity
8
05
100
AcDbText
62
4
6
CONTINUOUS
10
242.0000000000
20
27.7411809549
40
2.0000000000
1
Ersetzt durch:         Blatt
51
15.0000000000
72
5
11
280.8571428571
21
27.7411809549
100
AcDbText
0
TEXT
5
7E2
100
AcDbEntity
8
05
100
AcDbText
62
4
6
CONTINUOUS
10
242.0000000000
20
42.7411809549
40
2.0000000000
1
Gezeichnet
51
15.0000000000
72
5
11
255.6190476190
21
42.7411809549
100
AcDbText
0
TEXT
5
7E3
100
AcDbEntity
8
05
100
AcDbText
62
4
6
CONTINUOUS
10
242.0000000000
20
31.7411809549
40
2.0000000000
1
Gesehen
51
15.0000000000
72
5
11
252.1428571429
21
31.7411809549
100
AcDbText
0
TEXT
5
7E4
100
AcDbEntity
8
05
100
AcDbText
62
4
6
CONTINUOUS
10
261.0000000000
20
46.7411809549
40
2.0000000000
1
Datum     Name
51
15.0000000000
72
5
11
282.8095238095
21
46.7411809549
100
AcDbText
0
TEXT
5
7E5
100
AcDbEntity
8
05
100
AcDbText
62
4
6
CONTINUOUS
10
201.0000000000
20
46.7411809549
40
2.0000000000
1
Werkstoff:      Massstab:
51
15.0000000000
72
5
11
236.4285714286
21
46.7411809549
100
AcDbText
0
TEXT
5
7E6
100
AcDbEntity
8
05
100
AcDbText
62
4
6
CONTINUOUS
10
160.0000000000
20
27.7411809549
40
2.0000000000
1
Benennung:
51
15.0000000000
72
5
11
173.7142857143
21
27.7411809549
100
AcDbText
0
TEXT
5
7E7
100
AcDbEntity
8
05
100
AcDbText
62
4
6
CONTINUOUS
10
160.0000000000
20
43.7411809549
40
2.0000000000
1
*)Lieferant darf ohne 
51
15.0000000000
72
5
11
189.5238095238
21
43.7411809549
100
AcDbText
0
TEXT
5
7E8
100
AcDbEntity
8
05
100
AcDbText
62
4
6
CONTINUOUS
10
160.0000000000
20
41.2411809549
40
2.0000000000
1
 Ruecksprache nicht 
51
15.0000000000
72
5
11
187.9047619048
21
41.2411809549
100
AcDbText
0
TEXT
5
7E9
100
AcDbEntity
8
05
100
AcDbText
62
4
6
CONTINUOUS
10
160.0000000000
20
38.7411809549
40
2.0000000000
1
 geaendert werden
51
15.0000000000
72
5
11
184.5714285714
21
38.7411809549
100
AcDbText
0
TEXT
5
7EA
100
AcDbEntity
8
05
100
AcDbText
62
4
6
CONTINUOUS
10
160.0000000000
20
34.7411809549
40
2.0000000000
1
Zeichnung urheberrechtlich
51
15.0000000000
72
5
11
195.0952380952
21
34.7411809549
100
AcDbText
0
TEXT
5
7EB
100
AcDbEntity
8
05
100
AcDbText
62
4
6
CONTINUOUS
10
160.0000000000
20
32.2411809549
40
2.0000000000
1
geschuetzt (DIN 34) (C)
51
15.0000000000
72
5
11
191.0476190476
21
32.2411809549
100
AcDbText
0
TEXT
5
7EC
100
AcDbEntity
8
05
100
AcDbText
62
4
6
CONTINUOUS
10
242.0000000000
20
36.7411809549
40
2.0000000000
1
Geprueft
51
15.0000000000
72
5
11
252.8571428571
21
36.7411809549
100
AcDbText
0
TEXT
5
7ED
100
AcDbEntity
8
05
100
AcDbText
62
4
6
CONTINUOUS
10
242.0000000000
20
19.7411809549
40
2.0000000000
1
Ersatz fuer:           von  Blatt
51
15.0000000000
72
5
11
288.7142857143
21
19.7411809549
100
AcDbText
0
TEXT
5
7EE
100
AcDbEntity
8
05
100
AcDbText
62
4
6
CONTINUOUS
10
95.0000000000
20
5.7411809549
40
2.0000000000
1
Ind.  Aenderung             Datum   
51
15.0000000000
72
5
11
149.2380952381
21
5.7411809549
100
AcDbText
0
TEXT
5
7EF
100
AcDbEntity
8
05
100
AcDbText
62
4
6
CONTINUOUS
10
149.2380952381
20
5.7411809549
40
2.0000000000
1
 Name
51
15.0000000000
72
5
11
157.0952380952
21
5.7411809549
100
AcDbText
0
TEXT
5
7F0
100
AcDbEntity
8
035
100
AcDbText
62
4
6
CONTINUOUS
10
214.4230740000
20
8.2646360000
40
2.4848480000
1
FL-9494 SCHAAN
51
15.0000000000
72
5
11
241.5197498095
21
8.2646360000
100
AcDbText
0
TEXT
5
7F1
100
AcDbEntity
8
05
100
AcDbText
62
4
6
CONTINUOUS
10
276.8928571429
20
42.0000000000
40
2.5000000000
1
Battlogg
72
5
11
290.1071428571
21
42.0000000000
100
AcDbText
0
TEXT
5
7F2
100
AcDbEntity
8
05
100
AcDbText
62
4
6
CONTINUOUS
10
260.7142857143
20
42.0000000000
40
2.5000000000
1
11.04.02
51
15.0000000000
72
5
11
274.2857142857
21
42.0000000000
100
AcDbText
0
TEXT
5
7F3
100
AcDbEntity
8
05
100
AcDbText
62
2
6
CONTINUOUS
10
188.0357142857
20
17.5000000000
40
5.0000000000
1
NKTT0x
51
15.0000000000
72
5
11
211.9642857143
21
17.5000000000
100
AcDbText
0
TEXT
5
7F4
100
AcDbEntity
8
05
100
AcDbText
62
3
6
CONTINUOUS
10
189.6678763333
20
26.0821910000
40
3.5000000000
1
Accessories
51
15.0000000000
72
5
11
216.2512096667
21
26.0821910000
100
AcDbText
0
TEXT
5
7F5
100
AcDbEntity
8
025
100
AcDbText
62
4
6
CONTINUOUS
10
239.5399830000
20
129.7732160000
40
1.1985490000
1
NP3TT-1
50
180.0000000000
72
5
11
233.2047954286
21
129.7732160000
100
AcDbText
0
TEXT
5
7F6
100
AcDbEntity
8
025
100
AcDbText
62
4
6
CONTINUOUS
10
67.1202700000
20
126.6409470000
40
1.1985490000
1
NP3TT-1
72
5
11
73.4554575714
21
126.6409470000
100
AcDbText
0
TEXT
5
7F7
100
AcDbEntity
8
025
100
AcDbText
62
3
6
CONTINUOUS
10
28.0689830000
20
113.0643740000
40
3.5000000000
1
4.40 [0.173"]
50
90.0000000000
72
5
11
28.0689830000
21
143.3143740000
100
AcDbText
0
TEXT
5
7F8
100
AcDbEntity
8
025
100
AcDbText
62
3
6
CONTINUOUS
10
89.5223140000
20
132.7828490000
40
3.5000000000
1
7.60 [0.300"]
50
90.0000000000
72
5
11
89.5223140000
21
163.7828490000
100
AcDbText
0
TEXT
5
7F9
100
AcDbEntity
8
025
100
AcDbText
62
3
6
CONTINUOUS
10
54.0210410000
20
100.4799640000
40
3.5000000000
1
66.00 [2.598"]
72
5
11
87.7710410000
21
100.4799640000
100
AcDbText
0
TEXT
5
7FA
100
AcDbEntity
8
025
100
AcDbText
62
3
6
CONTINUOUS
10
114.0801260000
20
100.4799640000
40
3.5000000000
1
30/40/60/90 cm [1, 1.3, 2, 3 ft]
72
5
11
192.5801260000
21
100.4799640000
100
AcDbText
0
ENDSEC
0
SECTION
2
OBJECTS
0
DICTIONARY
5
7FB
100
AcDbDictionary
3
ACAD_GROUP
350
7FC
3
ACAD_MLINESTYLE
350
7FD
0
DICTIONARY
5
7FC
102
{ACAD_REACTORS
330
7FB
102
}
100
AcDbDictionary
0
DICTIONARY
5
7FD
102
{ACAD_REACTORS
330
7FB
102
}
100
AcDbDictionary
3
STANDARD
350
7FE
0
MLINESTYLE
5
7FE
102
{ACAD_REACTORS
330
7FD
102
}
100
AcDbMlineStyle
2
STANDARD
70
0
3

62
256
51
90.0
52
90.0
71
2
49
0.5
62
256
6
BYLAYER
49
-0.5
62
256
6
BYLAYER
0
ENDSEC
0
EOF
