  0
SECTION
  2
HEADER
  9
$ACADVER
  1
AC1009
  9
$INSBASE
 10
0.0
 20
0.0
 30
0.0
  9
$EXTMIN
 10
0.0
 20
0.0
 30
0.0
  9
$EXTMAX
 10
420.0
 20
297.0
 30
0.0
  9
$LIMMIN
 10
0.0
 20
0.0
  9
$LIMMAX
 10
410.0
 20
287.0
  9
$ORTHOMODE
 70
     1
  9
$REGENMODE
 70
     1
  9
$FILLMODE
 70
     1
  9
$QTEXTMODE
 70
     0
  9
$MIRRTEXT
 70
     1
  9
$DRAGMODE
 70
     2
  9
$LTSCALE
 40
5.0
  9
$OSMODE
 70
    32
  9
$ATTMODE
 70
     1
  9
$TEXTSIZE
 40
3.5
  9
$TRACEWID
 40
26.0
  9
$TEXTSTYLE
  7
STANDARD
  9
$CLAYER
  8
05
  9
$CELTYPE
  6
BYLAYER
  9
$CECOLOR
 62
   256
  9
$DIMSCALE
 40
1.0
  9
$DIMASZ
 40
3.5
  9
$DIMEXO
 40
0.8
  9
$DIMDLI
 40
8.0
  9
$DIMRND
 40
0.0
  9
$DIMDLE
 40
0.0
  9
$DIMEXE
 40
1.8
  9
$DIMTP
 40
0.0
  9
$DIMTM
 40
0.0
  9
$DIMTXT
 40
3.5
  9
$DIMCEN
 40
1.5
  9
$DIMTSZ
 40
0.0
  9
$DIMTOL
 70
     0
  9
$DIMLIM
 70
     0
  9
$DIMTIH
 70
     0
  9
$DIMTOH
 70
     0
  9
$DIMSE1
 70
     0
  9
$DIMSE2
 70
     0
  9
$DIMTAD
 70
     1
  9
$DIMZIN
 70
     0
  9
$DIMBLK
  1

  9
$DIMASO
 70
     1
  9
$DIMSHO
 70
     0
  9
$DIMPOST
  1

  9
$DIMAPOST
  1
"
  9
$DIMALT
 70
     0
  9
$DIMALTD
 70
     3
  9
$DIMALTF
 40
0.03937008
  9
$DIMLFAC
 40
1.0
  9
$DIMTOFL
 70
     0
  9
$DIMTVP
 40
0.0
  9
$DIMTIX
 70
     0
  9
$DIMSOXD
 70
     0
  9
$DIMSAH
 70
     0
  9
$DIMBLK1
  1

  9
$DIMBLK2
  1

  9
$DIMSTYLE
  2
STANDARD
  9
$DIMCLRD
 70
     0
  9
$DIMCLRE
 70
     0
  9
$DIMCLRT
 70
     3
  9
$DIMTFAC
 40
1.0
  9
$DIMGAP
 40
0.09
  9
$LUNITS
 70
     2
  9
$LUPREC
 70
     2
  9
$SKETCHINC
 40
1.0
  9
$FILLETRAD
 40
0.0
  9
$AUNITS
 70
     0
  9
$AUPREC
 70
     0
  9
$MENU
  1
acad
  9
$ELEVATION
 40
0.0
  9
$PELEVATION
 40
0.0
  9
$THICKNESS
 40
0.0
  9
$LIMCHECK
 70
     0
  9
$BLIPMODE
 70
     0
  9
$CHAMFERA
 40
0.0
  9
$CHAMFERB
 40
0.0
  9
$SKPOLY
 70
     0
  9
$TDCREATE
 40
2449757.34914294
  9
$TDUPDATE
 40
2452598.36893716
  9
$TDINDWG
 40
0.06059029
  9
$TDUSRTIMER
 40
0.06059029
  9
$USRTIMER
 70
     1
  9
$ANGBASE
 50
0.0
  9
$ANGDIR
 70
     0
  9
$PDMODE
 70
     0
  9
$PDSIZE
 40
0.0
  9
$PLINEWID
 40
0.0
  9
$COORDS
 70
     2
  9
$SPLFRAME
 70
     0
  9
$SPLINETYPE
 70
     6
  9
$SPLINESEGS
 70
     8
  9
$ATTDIA
 70
     1
  9
$ATTREQ
 70
     1
  9
$HANDLING
 70
     1
  9
$HANDSEED
  5
57E
  9
$SURFTAB1
 70
     6
  9
$SURFTAB2
 70
     6
  9
$SURFTYPE
 70
     6
  9
$SURFU
 70
     6
  9
$SURFV
 70
     6
  9
$UCSNAME
  2

  9
$UCSORG
 10
0.0
 20
0.0
 30
0.0
  9
$UCSXDIR
 10
1.0
 20
0.0
 30
0.0
  9
$UCSYDIR
 10
0.0
 20
1.0
 30
0.0
  9
$PUCSNAME
  2

  9
$PUCSORG
 10
0.0
 20
0.0
 30
0.0
  9
$PUCSXDIR
 10
1.0
 20
0.0
 30
0.0
  9
$PUCSYDIR
 10
0.0
 20
1.0
 30
0.0
  9
$USERI1
 70
     0
  9
$USERI2
 70
     0
  9
$USERI3
 70
     0
  9
$USERI4
 70
     0
  9
$USERI5
 70
     0
  9
$USERR1
 40
0.0
  9
$USERR2
 40
0.0
  9
$USERR3
 40
0.0
  9
$USERR4
 40
0.0
  9
$USERR5
 40
0.0
  9
$WORLDVIEW
 70
     1
  9
$SHADEDGE
 70
     3
  9
$SHADEDIF
 70
    70
  9
$TILEMODE
 70
     1
  9
$MAXACTVP
 70
    16
  9
$PLIMCHECK
 70
     0
  9
$PEXTMIN
 10
1.00000000E+020
 20
1.00000000E+020
 30
1.00000000E+020
  9
$PEXTMAX
 10
-1.00000000E+020
 20
-1.00000000E+020
 30
-1.00000000E+020
  9
$PLIMMIN
 10
0.0
 20
0.0
  9
$PLIMMAX
 10
12.0
 20
9.0
  9
$UNITMODE
 70
     0
  9
$VISRETAIN
 70
     0
  9
$PLINEGEN
 70
     0
  9
$PSLTSCALE
 70
     0
  0
ENDSEC
  0
SECTION
  2
TABLES
  0
TABLE
  2
VPORT
 70
     2
  0
VPORT
  2
*ACTIVE
 70
     0
 10
0.0
 20
0.0
 11
1.0
 21
1.0
 12
209.98398169
 22
148.48867277
 13
0.0
 23
0.0
 14
1.0
 24
1.0
 15
2.0
 25
2.0
 16
0.0
 26
0.0
 36
1.0
 17
0.0
 27
0.0
 37
0.0
 40
299.24754605
 41
1.525
 42
50.0
 43
0.0
 44
0.0
 50
0.0
 51
0.0
 71
     0
 72
   500
 73
     1
 74
     0
 75
     0
 76
     0
 77
     0
 78
     0
  0
ENDTAB
  0
TABLE
  2
LTYPE
 70
     3
  0
LTYPE
  2
AUSGEZOGEN
 70
     0
  3
Ausgezogene Linie
 72
    65
 73
     0
 40
0.0
  0
LTYPE
  2
CENTER
 70
     0
  3
____ _ ____ _ ____ _ ____ _ ____ _ ____ _ ____
 72
    65
 73
     4
 40
2.0
 49
1.25
 49
-0.25
 49
0.25
 49
-0.25
  0
LTYPE
  2
HIDDEN
 70
     0
  3
_ _ _ _ _ _ _ _ _ _ _ _ _ _ _ _ _ _ _ _ _ _ _
 72
    65
 73
     2
 40
0.375
 49
0.25
 49
-0.125
  0
ENDTAB
  0
TABLE
  2
LAYER
 70
    10
  0
LAYER
  2
0
 70
     0
 62
     8
  6
AUSGEZOGEN
  0
LAYER
  2
05
 70
     0
 62
     2
  6
AUSGEZOGEN
  0
LAYER
  2
035
 70
     0
 62
     3
  6
AUSGEZOGEN
  0
LAYER
  2
RAHMEN
 70
     0
 62
     2
  6
AUSGEZOGEN
  0
LAYER
  2
BEM1
 70
     0
 62
     4
  6
AUSGEZOGEN
  0
LAYER
  2
MITTE
 70
     0
 62
     4
  6
CENTER
  0
LAYER
  2
025
 70
     0
 62
     4
  6
AUSGEZOGEN
  0
LAYER
  2
010
 70
     0
 62
     5
  6
AUSGEZOGEN
  0
LAYER
  2
DEFPOINTS
 70
     0
 62
     7
  6
AUSGEZOGEN
  0
LAYER
  2
VERDECKT
 70
     0
 62
     4
  6
HIDDEN
  0
ENDTAB
  0
TABLE
  2
STYLE
 70
     4
  0
STYLE
  2
STANDARD
 70
     0
 40
0.0
 41
0.7
 50
15.0
 71
     0
 42
3.5
  3
txt
  4

  0
STYLE
  2
SCRIPTS
 70
     0
 40
0.0
 41
1.0
 50
0.0
 71
     0
 42
5.0
  3
scripts
  4

  0
STYLE
  2
HELV
 70
     0
 40
0.0
 41
0.8
 50
10.0
 71
     0
 42
2.0
  3
HELV.SHX
  4

  0
STYLE
  2
ARIAL
 70
     0
 40
0.0
 41
1.0
 50
0.0
 71
     0
 42
3.5
  3
txt
  4

  0
ENDTAB
  0
TABLE
  2
VIEW
 70
     0
  0
ENDTAB
  0
TABLE
  2
UCS
 70
     0
  0
ENDTAB
  0
TABLE
  2
APPID
 70
     1
  0
APPID
  2
ACAD
 70
     0
  0
ENDTAB
  0
TABLE
  2
DIMSTYLE
 70
     1
  0
DIMSTYLE
  2
STANDARD
 70
     0
  3

  4

  5

  6

  7

 40
1.0
 41
0.18
 42
0.0625
 43
0.38
 44
0.18
 45
0.0
 46
0.0
 47
0.0
 48
0.0
140
0.18
141
0.09
142
0.0
143
25.4
144
1.0
145
0.0
146
1.0
147
0.09
 71
     0
 72
     0
 73
     1
 74
     1
 75
     0
 76
     0
 77
     0
 78
     0
170
     0
171
     2
172
     0
173
     0
174
     0
175
     0
176
     0
177
     0
178
     0
  0
ENDTAB
  0
ENDSEC
  0
SECTION
  2
BLOCKS
  0
BLOCK
  8
0
  2
$MODEL_SPACE
 70
     0
 10
0.0
 20
0.0
 30
0.0
  3
$MODEL_SPACE
  1

  0
ENDBLK
  5
6
  8
0
  0
BLOCK
 67
     1
  8
0
  2
$PAPER_SPACE
 70
     0
 10
0.0
 20
0.0
 30
0.0
  3
$PAPER_SPACE
  1

  0
ENDBLK
  5
9
 67
     1
  8
0
  0
BLOCK
  8
0
  2
ZKOPF
 70
     2
 10
0.0
 20
0.0
 30
0.0
  3
ZKOPF
  1

  0
ATTDEF
  5
4D
  8
0
 62
     4
 10
-13.32142857
 20
37.0
 30
0.0
 40
2.5
  1
Dobler
  7
SCRIPTS
 72
     1
 11
-8.5
 21
37.0
 31
0.0
  3
Name des Konstrukteurs ?
  2
NAME
 70
     0
  0
POLYLINE
  5
4E
  8
0
 62
     2
 66
     1
 10
0.0
 20
0.0
 30
0.0
  0
VERTEX
  5
4A7
  8
0
 62
     2
 10
-51.0
 20
0.0
 30
0.0
  0
VERTEX
  5
4A8
  8
0
 62
     2
 10
-51.0
 20
46.0
 30
0.0
  0
SEQEND
  5
4A9
  8
0
 62
     2
  0
POLYLINE
  5
4F
  8
0
 62
     2
 66
     1
 10
0.0
 20
0.0
 30
0.0
  0
VERTEX
  5
4AA
  8
0
 62
     2
 10
-17.0
 20
9.0
 30
0.0
  0
VERTEX
  5
4AB
  8
0
 62
     2
 10
-17.0
 20
46.0
 30
0.0
  0
SEQEND
  5
4AC
  8
0
 62
     2
  0
POLYLINE
  5
50
  8
0
 62
     2
 66
     1
 10
0.0
 20
0.0
 30
0.0
  0
VERTEX
  5
4AD
  8
0
 62
     2
 10
-32.0
 20
26.0
 30
0.0
  0
VERTEX
  5
4AE
  8
0
 62
     2
 10
-32.0
 20
46.0
 30
0.0
  0
SEQEND
  5
4AF
  8
0
 62
     2
  0
POLYLINE
  5
51
  8
0
 62
     2
 66
     1
 10
0.0
 20
0.0
 30
0.0
  0
VERTEX
  5
4B0
  8
0
 62
     2
 10
-133.0
 20
41.0
 30
0.0
  0
VERTEX
  5
4B1
  8
0
 62
     2
 10
-92.0
 20
41.0
 30
0.0
  0
SEQEND
  5
4B2
  8
0
 62
     2
  0
POLYLINE
  5
52
  8
0
 62
     2
 66
     1
 10
0.0
 20
0.0
 30
0.0
  0
VERTEX
  5
4B3
  8
0
 62
     2
 10
-145.0
 20
0.0
 30
0.0
  0
VERTEX
  5
4B4
  8
0
 62
     2
 10
-145.0
 20
46.0
 30
0.0
  0
SEQEND
  5
4B5
  8
0
 62
     2
  0
POLYLINE
  5
53
  8
0
 62
     2
 66
     1
 10
0.0
 20
0.0
 30
0.0
  0
VERTEX
  5
4B6
  8
0
 62
     2
 10
-158.0
 20
0.0
 30
0.0
  0
VERTEX
  5
4B7
  8
0
 62
     2
 10
-158.0
 20
46.0
 30
0.0
  0
SEQEND
  5
4B8
  8
0
 62
     2
  0
LINE
  5
54
  8
0
 62
     2
 10
-200.0
 20
6.0
 30
0.0
 11
-133.0
 21
6.0
 31
0.0
  0
POLYLINE
  5
55
  8
0
 62
     4
 66
     1
 10
0.0
 20
0.0
 30
0.0
  0
VERTEX
  5
4B9
  8
0
 62
     4
 10
-200.0
 20
11.0
 30
0.0
  0
VERTEX
  5
4BA
  8
0
 62
     4
 10
-133.0
 20
11.0
 30
0.0
  0
SEQEND
  5
4BB
  8
0
 62
     4
  0
POLYLINE
  5
56
  8
0
 62
     4
 66
     1
 10
0.0
 20
0.0
 30
0.0
  0
VERTEX
  5
4BC
  8
0
 62
     4
 10
-200.0
 20
16.0
 30
0.0
  0
VERTEX
  5
4BD
  8
0
 62
     4
 10
-133.0
 20
16.0
 30
0.0
  0
SEQEND
  5
4BE
  8
0
 62
     4
  0
POLYLINE
  5
57
  8
0
 62
     4
 66
     1
 10
0.0
 20
0.0
 30
0.0
  0
VERTEX
  5
4BF
  8
0
 62
     4
 10
-200.0
 20
21.0
 30
0.0
  0
VERTEX
  5
4C0
  8
0
 62
     4
 10
-133.0
 20
21.0
 30
0.0
  0
SEQEND
  5
4C1
  8
0
 62
     4
  0
POLYLINE
  5
58
  8
0
 62
     4
 66
     1
 10
0.0
 20
0.0
 30
0.0
  0
VERTEX
  5
4C2
  8
0
 62
     4
 10
-200.0
 20
26.0
 30
0.0
  0
VERTEX
  5
4C3
  8
0
 62
     4
 10
-133.0
 20
26.0
 30
0.0
  0
SEQEND
  5
4C4
  8
0
 62
     4
  0
POLYLINE
  5
59
  8
0
 62
     4
 66
     1
 10
0.0
 20
0.0
 30
0.0
  0
VERTEX
  5
4C5
  8
0
 62
     4
 10
-200.0
 20
31.0
 30
0.0
  0
VERTEX
  5
4C6
  8
0
 62
     4
 10
-133.0
 20
31.0
 30
0.0
  0
SEQEND
  5
4C7
  8
0
 62
     4
  0
POLYLINE
  5
5A
  8
0
 62
     4
 66
     1
 10
0.0
 20
0.0
 30
0.0
  0
VERTEX
  5
4C8
  8
0
 62
     4
 10
-200.0
 20
36.0
 30
0.0
  0
VERTEX
  5
4C9
  8
0
 62
     4
 10
-133.0
 20
36.0
 30
0.0
  0
SEQEND
  5
4CA
  8
0
 62
     4
  0
POLYLINE
  5
5B
  8
0
 62
     4
 66
     1
 10
0.0
 20
0.0
 30
0.0
  0
VERTEX
  5
4CB
  8
0
 62
     4
 10
-200.0
 20
41.0
 30
0.0
  0
VERTEX
  5
4CC
  8
0
 62
     4
 10
-133.0
 20
41.0
 30
0.0
  0
SEQEND
  5
4CD
  8
0
 62
     4
  0
TEXT
  5
5C
  8
0
 62
     4
 10
-50.0
 20
6.0
 30
0.0
 40
1.5
  1
Zeichn. Nr.
 51
15.0
  0
TEXT
  5
5D
  8
0
 62
     4
 10
-50.0
 20
23.0
 30
0.0
 40
1.5
  1
Ersetzt durch:         Blatt
 51
15.0
  0
TEXT
  5
5E
  8
0
 62
     4
 10
-50.0
 20
38.0
 30
0.0
 40
1.5
  1
Gezeichnet
 51
15.0
  0
TEXT
  5
5F
  8
0
 62
     4
 10
-50.0
 20
27.0
 30
0.0
 40
1.5
  1
Gesehen
 51
15.0
  0
TEXT
  5
60
  8
0
 62
     4
 10
-31.0
 20
42.0
 30
0.0
 40
1.5
  1
Datum     Name
 51
15.0
  0
TEXT
  5
61
  8
0
 62
     4
 10
-91.0
 20
42.0
 30
0.0
 40
1.5
  1
Werkstoff:      Massstab:
 51
15.0
  0
TEXT
  5
62
  8
0
 62
     4
 10
-132.0
 20
23.0
 30
0.0
 40
1.5
  1
Benennung:
 51
15.0
  0
LINE
  5
63
  8
0
 62
     2
 10
-133.0
 20
33.0
 30
0.0
 11
-92.0
 21
33.0
 31
0.0
  0
TEXT
  5
64
  8
0
 62
     4
 10
-132.0
 20
39.0
 30
0.0
 40
1.5
  1
*)Lieferant darf ohne 
 51
15.0
  0
TEXT
  5
65
  8
0
 62
     4
 10
-132.0
 20
36.5
 30
0.0
 40
1.5
  1
 Ruecksprache nicht 
 51
15.0
  0
TEXT
  5
66
  8
0
 62
     4
 10
-132.0
 20
34.0
 30
0.0
 40
1.5
  1
 geaendert werden
 51
15.0
  0
TEXT
  5
67
  8
0
 62
     4
 10
-132.0
 20
30.0
 30
0.0
 40
1.5
  1
Zeichnung urheberrechtlich
 51
15.0
  0
TEXT
  5
68
  8
0
 62
     4
 10
-132.0
 20
27.5
 30
0.0
 40
1.5
  1
geschuetzt (DIN 34) (C)
 51
15.0
  0
TEXT
  5
69
  8
0
 62
     4
 10
-50.0
 20
32.0
 30
0.0
 40
1.5
  1
Geprueft
 51
15.0
  0
TEXT
  5
6A
  8
0
 62
     4
 10
-50.0
 20
15.0
 30
0.0
 40
1.5
  1
Ersatz fuer:           von  Blatt
 51
15.0
  0
TEXT
  5
6B
  8
0
 62
     4
 10
-197.0
 20
1.0
 30
0.0
 40
1.5
  1
Ind.  Aenderung             Datum    Name
 51
15.0
  0
ATTDEF
  5
6C
  8
0
 62
     4
 10
-28.875
 20
37.0
 30
0.0
 40
2.5
  1
01.10.91
 41
0.7
 51
15.0
 72
     1
 11
-24.5
 21
37.0
 31
0.0
  3
Datum der Zeichnung ?
  2
DATE
 70
     0
  0
ATTDEF
  5
6D
  8
0
 62
     4
 10
-80.5
 20
36.0
 30
0.0
 40
2.5
  1

 41
0.7
 51
15.0
 72
     1
 11
-80.5
 21
36.0
 31
0.0
  3
Aus welchem Werkstoff ?
  2
WERKSTOFF
 70
     0
  0
ATTDEF
  5
6E
  8
0
 62
     2
 10
-92.0
 20
12.5
 30
0.0
 40
5.0
  1

 41
0.7
 51
15.0
 72
     1
 11
-92.0
 21
12.5
 31
0.0
  3
Zeichnungsname ?
  2
BENENNUNG
 70
     0
  0
ATTDEF
  5
6F
  8
0
 62
     3
 10
-90.2654566
 20
21.08219145
 30
0.0
 40
3.5
  1
()
 41
0.7
 51
15.0
 72
     1
 11
-89.0404566
 21
21.08219145
 31
0.0
  3
Zu welchem Produkt ?
  2
TEIL
 70
     0
  0
ATTDEF
  5
70
  8
0
 62
     3
 10
-20.55021908
 20
1.97654102
 30
0.0
 40
3.5
  1

 41
0.7
 51
15.0
 72
     1
 11
-20.55021908
 21
1.97654102
 31
0.0
  3
Zeichnungsnummer ?
  2
NUMMER
 70
     0
  0
ATTDEF
  5
71
  8
0
 62
     2
 10
-63.48267164
 20
34.65605623
 30
0.0
 40
5.0
  1
5:1
 41
0.7
 51
15.0
 72
     1
 11
-60.56600497
 21
34.65605623
 31
0.0
  3
Hauptmassstab:
  2
MASS
 70
     0
  0
ATTDEF
  5
72
  8
0
 62
     3
 10
-60.48070095
 20
28.21045054
 30
0.0
 40
3.5
  1

 41
0.7
 51
15.0
 72
     1
 11
-60.48070095
 21
28.21045054
 31
0.0
  3
Nebenmassstab:
  2
MASS2
 70
     0
  0
ATTDEF
  5
73
  8
0
 62
     4
 10
-81.0
 20
29.0
 30
0.0
 40
2.5
  1

 41
0.7
 51
15.0
 72
     1
 11
-81.0
 21
29.0
 31
0.0
  3
Werkstoffzusatz:
  2
TEIL
 70
     0
  0
ATTDEF
  5
74
  8
0
 62
     3
 10
-107.71145194
 20
59.00431875
 30
0.0
 40
3.5
  1
Freimasstoleranzen %%p0.1
 41
0.7
 51
15.0
  3
Freimasstoleranzen:
  2
TOL
 70
     0
  0
ATTDEF
  5
75
  8
0
 62
     3
 10
-107.71145194
 20
54.00431875
 30
0.0
 40
3.5
  1
nicht bemasste Radien R=0.2
 41
0.7
 51
15.0
  3
Nicht bemasste Radien:
  2
RADIEN
 70
     0
  0
ATTDEF
  5
76
  8
0
 62
     3
 10
-107.71145194
 20
49.00431875
 30
0.0
 40
3.5
  1
nicht bemasste Facetten 0.5 x 45%%D
 41
0.7
 51
15.0
  3
nicht bemasste Facetten:
  2
FACETTE
 70
     0
  0
POLYLINE
  5
77
  8
0
 62
     2
 66
     1
 10
0.0
 20
0.0
 30
0.0
  0
VERTEX
  5
4CE
  8
0
 62
     2
 10
-191.0
 20
0.0
 30
0.0
  0
VERTEX
  5
4CF
  8
0
 62
     2
 10
-191.0
 20
46.0
 30
0.0
  0
SEQEND
  5
4D0
  8
0
 62
     2
  0
POLYLINE
  5
78
  8
0
 62
     2
 66
     1
 10
0.0
 20
0.0
 30
0.0
  0
VERTEX
  5
4D1
  8
0
 62
     2
 10
-133.0
 20
0.0
 30
0.0
  0
VERTEX
  5
4D2
  8
0
 62
     2
 10
-133.0
 20
46.0
 30
0.0
  0
SEQEND
  5
4D3
  8
0
 62
     2
  0
POLYLINE
  5
79
  8
0
 62
     2
 66
     1
 10
0.0
 20
0.0
 30
0.0
  0
VERTEX
  5
4D4
  8
0
 62
     2
 10
-92.0
 20
26.0
 30
0.0
  0
VERTEX
  5
4D5
  8
0
 62
     2
 10
-92.0
 20
46.0
 30
0.0
  0
SEQEND
  5
4D6
  8
0
 62
     2
  0
POLYLINE
  5
7A
  8
0
 62
     2
 66
     1
 10
0.0
 20
0.0
 30
0.0
  0
VERTEX
  5
4D7
  8
0
 62
     2
 10
-69.0
 20
26.0
 30
0.0
  0
VERTEX
  5
4D8
  8
0
 62
     2
 10
-69.0
 20
46.0
 30
0.0
  0
SEQEND
  5
4D9
  8
0
 62
     2
  0
ATTDEF
  5
7B
  8
0
 62
     4
 10
-197.18626726
 20
7.0
 30
0.0
 40
2.5
  1

 41
0.7
 51
15.0
  3
Index1:
  2
INDEX1
 70
     0
  0
ATTDEF
  5
7C
  8
0
 62
     4
 10
-190.3487426
 20
7.0
 30
0.0
 40
2.5
  1

 41
0.7
 51
15.0
  3
Aenderung1:
  2
A1
 70
     0
  0
ATTDEF
  5
7D
  8
0
 62
     4
 10
-157.3487426
 20
7.0
 30
0.0
 40
2.5
  1

 41
0.7
 51
15.0
  3
Datum1:
  2
DATUM1
 70
     0
  0
ATTDEF
  5
7E
  8
0
 62
     4
 10
-144.46499014
 20
7.0
 30
0.0
 40
2.5
  1

 41
0.7
 51
15.0
  3
Name1:
  2
NAME1
 70
     0
  0
ATTDEF
  5
7F
  8
0
 62
     4
 10
-197.18626726
 20
12.0
 30
0.0
 40
2.5
  1

 41
0.7
 51
15.0
  3
Index2:
  2
INDEX2
 70
     0
  0
ATTDEF
  5
80
  8
0
 62
     4
 10
-190.3487426
 20
12.0
 30
0.0
 40
2.5
  1

 41
0.7
 51
15.0
  3
Aenderung2:
  2
A2
 70
     0
  0
ATTDEF
  5
81
  8
0
 62
     4
 10
-157.3487426
 20
12.0
 30
0.0
 40
2.5
  1

 41
0.7
 51
15.0
  3
Datum2:
  2
DATUM2
 70
     0
  0
ATTDEF
  5
82
  8
0
 62
     4
 10
-144.46499014
 20
12.0
 30
0.0
 40
2.5
  1

 41
0.7
 51
15.0
  3
Name2
  2
NAME2
 70
     0
  0
ATTDEF
  5
83
  8
0
 62
     4
 10
-197.18626726
 20
17.0
 30
0.0
 40
2.5
  1

 41
0.7
 51
15.0
  3
Index3:
  2
INDEX3
 70
     0
  0
ATTDEF
  5
84
  8
0
 62
     4
 10
-190.3487426
 20
17.0
 30
0.0
 40
2.5
  1

 41
0.7
 51
15.0
  3
Aenderung3
  2
A3
 70
     0
  0
ATTDEF
  5
85
  8
0
 62
     4
 10
-157.3487426
 20
17.0
 30
0.0
 40
2.5
  1

 41
0.7
 51
15.0
  3
Datum3:
  2
DATUM3
 70
     0
  0
ATTDEF
  5
86
  8
0
 62
     4
 10
-144.46499014
 20
17.0
 30
0.0
 40
2.5
  1

 41
0.7
 51
15.0
  3
Name3:
  2
NAME3
 70
     0
  0
ATTDEF
  5
87
  8
0
 62
     4
 10
-197.18626726
 20
22.0
 30
0.0
 40
2.5
  1

 41
0.7
 51
15.0
  3
Index4:
  2
INDEX4
 70
     0
  0
ATTDEF
  5
88
  8
0
 62
     4
 10
-190.3487426
 20
22.0
 30
0.0
 40
2.5
  1

 41
0.7
 51
15.0
  3
Aenderung4:
  2
A4
 70
     0
  0
ATTDEF
  5
89
  8
0
 62
     4
 10
-157.3487426
 20
22.0
 30
0.0
 40
2.5
  1

 41
0.7
 51
15.0
  3
Datum4:
  2
DATUM4
 70
     0
  0
ATTDEF
  5
8A
  8
0
 62
     4
 10
-144.46499014
 20
22.0
 30
0.0
 40
2.5
  1

 41
0.7
 51
15.0
  3
Name4:
  2
NAME4
 70
     0
  0
ATTDEF
  5
8B
  8
0
 62
     4
 10
-197.18626726
 20
27.0
 30
0.0
 40
2.5
  1

 41
0.7
 51
15.0
  3
Index5:
  2
INDEX5
 70
     0
  0
ATTDEF
  5
8C
  8
0
 62
     4
 10
-190.3487426
 20
27.0
 30
0.0
 40
2.5
  1

 41
0.7
 51
15.0
  3
Aenderung5:
  2
A5
 70
     0
  0
ATTDEF
  5
8D
  8
0
 62
     4
 10
-157.3487426
 20
27.0
 30
0.0
 40
2.5
  1

 41
0.7
 51
15.0
  3
Datum5:
  2
DATUM5
 70
     0
  0
ATTDEF
  5
8E
  8
0
 62
     4
 10
-144.46499014
 20
27.0
 30
0.0
 40
2.5
  1

 41
0.7
 51
15.0
  3
Name5
  2
NAME5
 70
     0
  0
ATTDEF
  5
8F
  8
0
 62
     4
 10
-197.18626726
 20
32.0
 30
0.0
 40
2.5
  1

 41
0.7
 51
15.0
  3
Index6:
  2
INDEX6
 70
     0
  0
ATTDEF
  5
90
  8
0
 62
     4
 10
-190.3487426
 20
32.0
 30
0.0
 40
2.5
  1

 41
0.7
 51
15.0
  3
Aenderung6:
  2
A6
 70
     0
  0
ATTDEF
  5
91
  8
0
 62
     4
 10
-157.3487426
 20
32.0
 30
0.0
 40
2.5
  1

 41
0.7
 51
15.0
  3
Datum6:
  2
DATUM6
 70
     0
  0
ATTDEF
  5
92
  8
0
 62
     4
 10
-144.46499014
 20
32.0
 30
0.0
 40
2.5
  1

 41
0.7
 51
15.0
  3
Name6:
  2
NAME6
 70
     0
  0
ATTDEF
  5
93
  8
0
 62
     4
 10
-197.18626726
 20
37.0
 30
0.0
 40
2.5
  1

 41
0.7
 51
15.0
  3
Index7:
  2
INDEX7
 70
     0
  0
ATTDEF
  5
94
  8
0
 62
     4
 10
-190.3487426
 20
37.0
 30
0.0
 40
2.5
  1

 41
0.7
 51
15.0
  3
Aenderung7:
  2
A7
 70
     0
  0
ATTDEF
  5
95
  8
0
 62
     4
 10
-157.3487426
 20
37.0
 30
0.0
 40
2.5
  1

 41
0.7
 51
15.0
  3
Datum7:
  2
DATUM7
 70
     0
  0
ATTDEF
  5
96
  8
0
 62
     4
 10
-144.46499014
 20
37.0
 30
0.0
 40
2.5
  1

 41
0.7
 51
15.0
  3
Name7:
  2
NAME7
 70
     0
  0
ATTDEF
  5
97
  8
0
 62
     4
 10
-197.18626726
 20
42.0
 30
0.0
 40
2.5
  1

 41
0.7
 51
15.0
  3
Index8:
  2
INDEX8
 70
     0
  0
ATTDEF
  5
98
  8
0
 62
     4
 10
-190.3487426
 20
42.0
 30
0.0
 40
2.5
  1

 41
0.7
 51
15.0
  3
Aenderung8:
  2
A8
 70
     0
  0
ATTDEF
  5
99
  8
0
 62
     4
 10
-157.3487426
 20
42.0
 30
0.0
 40
2.5
  1

 41
0.7
 51
15.0
  3
Datum8:
  2
DATUM8
 70
     0
  0
ATTDEF
  5
9A
  8
0
 62
     4
 10
-144.46499014
 20
42.0
 30
0.0
 40
2.5
  1

 41
0.7
 51
15.0
  3
Name8:
  2
NAME8
 70
     0
  0
POLYLINE
  5
9B
  8
0
 62
     2
 66
     1
 10
0.0
 20
0.0
 30
0.0
  0
VERTEX
  5
4DA
  8
0
 62
     2
 10
0.0
 20
0.0
 30
0.0
  0
VERTEX
  5
4DB
  8
0
 62
     2
 10
0.0
 20
46.0
 30
0.0
  0
SEQEND
  5
4DC
  8
0
 62
     2
  0
POLYLINE
  5
9C
  8
0
 62
     2
 66
     1
 10
0.0
 20
0.0
 30
0.0
  0
VERTEX
  5
4DD
  8
0
 62
     2
 10
-200.0
 20
46.0
 30
0.0
  0
VERTEX
  5
4DE
  8
0
 62
     2
 10
-200.0
 20
0.0
 30
0.0
  0
SEQEND
  5
4DF
  8
0
 62
     2
  0
POLYLINE
  5
9D
  8
0
 62
     2
 66
     1
 10
0.0
 20
0.0
 30
0.0
  0
VERTEX
  5
4E0
  8
0
 62
     2
 10
0.0
 20
9.0
 30
0.0
  0
VERTEX
  5
4E1
  8
0
 62
     2
 10
-133.0
 20
9.0
 30
0.0
  0
SEQEND
  5
4E2
  8
0
 62
     2
  0
POLYLINE
  5
9E
  8
0
 62
     2
 66
     1
 10
0.0
 20
0.0
 30
0.0
  0
VERTEX
  5
4E3
  8
0
 62
     2
 10
0.0
 20
18.0
 30
0.0
  0
VERTEX
  5
4E4
  8
0
 62
     2
 10
-51.0
 20
18.0
 30
0.0
  0
SEQEND
  5
4E5
  8
0
 62
     2
  0
POLYLINE
  5
9F
  8
0
 62
     2
 66
     1
 10
0.0
 20
0.0
 30
0.0
  0
VERTEX
  5
4E6
  8
0
 62
     2
 10
0.0
 20
26.0
 30
0.0
  0
VERTEX
  5
4E7
  8
0
 62
     2
 10
-133.0
 20
26.0
 30
0.0
  0
SEQEND
  5
4E8
  8
0
 62
     2
  0
POLYLINE
  5
A0
  8
0
 62
     2
 66
     1
 10
0.0
 20
0.0
 30
0.0
  0
VERTEX
  5
4E9
  8
0
 62
     2
 10
0.0
 20
31.0
 30
0.0
  0
VERTEX
  5
4EA
  8
0
 62
     2
 10
-51.0
 20
31.0
 30
0.0
  0
SEQEND
  5
4EB
  8
0
 62
     2
  0
POLYLINE
  5
A1
  8
0
 62
     2
 66
     1
 10
0.0
 20
0.0
 30
0.0
  0
VERTEX
  5
4EC
  8
0
 62
     2
 10
0.0
 20
36.0
 30
0.0
  0
VERTEX
  5
4ED
  8
0
 62
     2
 10
-51.0
 20
36.0
 30
0.0
  0
SEQEND
  5
4EE
  8
0
 62
     2
  0
POLYLINE
  5
A2
  8
0
 62
     2
 66
     1
 10
0.0
 20
0.0
 30
0.0
  0
VERTEX
  5
4EF
  8
0
 62
     2
 10
0.0
 20
41.0
 30
0.0
  0
VERTEX
  5
4F0
  8
0
 62
     2
 10
-51.0
 20
41.0
 30
0.0
  0
SEQEND
  5
4F1
  8
0
 62
     2
  0
POLYLINE
  5
A3
  8
0
 62
     2
 66
     1
 10
0.0
 20
0.0
 30
0.0
  0
VERTEX
  5
4F2
  8
0
 62
     2
 10
0.0
 20
46.0
 30
0.0
  0
VERTEX
  5
4F3
  8
0
 62
     2
 10
-200.0
 20
46.0
 30
0.0
  0
SEQEND
  5
4F4
  8
0
 62
     2
  0
TEXT
  5
A4
  8
035
 10
517.65315785
 20
512.84858999
 30
0.0
 40
3.5
  1
  
 41
0.7
 51
15.0
  0
LINE
  5
A6
  8
035
 10
-131.8892777
 20
3.20895222
 30
0.0
 11
-130.18144539
 21
3.20895222
 31
0.0
  0
LINE
  5
A7
  8
035
 10
-131.33856161
 20
5.69307194
 30
0.0
 11
-129.32021435
 21
5.69307194
 31
0.0
  0
LINE
  5
A8
  8
035
 10
-131.8892777
 20
3.20895222
 30
0.0
 11
-131.33856161
 21
5.69307194
 31
0.0
  0
LINE
  5
A9
  8
035
 10
-130.18144539
 20
3.20895222
 30
0.0
 11
-129.8716676
 21
4.60626956
 31
0.0
  0
LINE
  5
AA
  8
035
 10
-126.37763708
 20
3.20895222
 30
0.0
 11
-125.826921
 21
5.69307194
 31
0.0
  0
LINE
  5
AB
  8
035
 10
-127.77569159
 20
4.60626956
 30
0.0
 11
-127.5347533
 21
5.69307194
 31
0.0
  0
LINE
  5
AC
  8
035
 10
-129.8716676
 20
4.60626956
 30
0.0
 11
-128.31835561
 21
3.20895222
 31
0.0
  0
LINE
  5
AD
  8
035
 10
-129.32021435
 20
5.69307194
 30
0.0
 11
-127.77569159
 21
4.60626956
 31
0.0
  0
LINE
  5
AE
  8
035
 10
-127.5347533
 20
5.69307194
 30
0.0
 11
-125.826921
 21
5.69307194
 31
0.0
  0
LINE
  5
AF
  8
035
 10
-128.31835561
 20
3.20895222
 30
0.0
 11
-126.37763708
 21
3.20895222
 31
0.0
  0
LINE
  5
B0
  8
035
 10
-125.52372093
 20
3.20895222
 30
0.0
 11
-124.97300484
 21
5.69307194
 31
0.0
  0
LINE
  5
B1
  8
035
 10
-123.71834775
 20
3.64893066
 30
0.0
 11
-123.57267391
 21
4.30602287
 31
0.0
  0
LINE
  5
B2
  8
035
 10
-120.85566798
 20
4.30602287
 30
0.0
 11
-120.79138131
 21
4.5960013
 31
0.0
  0
LINE
  5
B3
  8
035
 10
-120.86599646
 20
3.20895222
 30
0.0
 11
-120.76845559
 21
3.64893066
 31
0.0
  0
LINE
  5
B4
  8
035
 10
-125.52372093
 20
3.20895222
 30
0.0
 11
-120.86599646
 21
3.20895222
 31
0.0
  0
LINE
  5
B5
  8
035
 10
-124.97300484
 20
5.69307194
 30
0.0
 11
-120.31528038
 21
5.69307194
 31
0.0
  0
LINE
  5
B6
  8
035
 10
-123.50838724
 20
4.5960013
 30
0.0
 11
-123.36271341
 21
5.25309351
 31
0.0
  0
LINE
  5
B7
  8
035
 10
-120.41282125
 20
5.25309351
 30
0.0
 11
-120.31528038
 21
5.69307194
 31
0.0
  0
LINE
  5
B8
  8
035
 10
-119.92148829
 20
3.96774704
 30
0.0
 11
-119.53899296
 21
5.69307194
 31
0.0
  0
LINE
  5
B9
  8
035
 10
-118.17058417
 20
4.18143241
 30
0.0
 11
-117.83546176
 21
5.69307194
 31
0.0
  0
LINE
  5
BA
  8
035
 10
-116.30292741
 20
4.1008875
 30
0.0
 11
-115.94994862
 21
5.69307194
 31
0.0
  0
LINE
  5
BB
  8
035
 10
-114.65567389
 20
3.84709944
 30
0.0
 11
-114.24643164
 21
5.69307194
 31
0.0
  0
LINE
  5
BC
  8
035
 10
-119.53899296
 20
5.69307194
 30
0.0
 11
-117.83546176
 21
5.69307194
 31
0.0
  0
POLYLINE
  5
BD
  8
035
 66
     1
 10
0.0
 20
0.0
 30
0.0
  0
VERTEX
  5
4F5
  8
035
 10
-119.92148829
 20
3.96774704
 30
0.0
 42
0.05330415
  0
VERTEX
  5
4F6
  8
035
 10
-119.92791757
 20
3.90761089
 30
0.0
 42
0.24295501
  0
SEQEND
  5
4F7
  8
035
  0
POLYLINE
  5
BE
  8
035
 66
     1
 10
0.0
 20
0.0
 30
0.0
  0
VERTEX
  5
4F8
  8
035
 10
-119.92791757
 20
3.90761089
 30
0.0
 42
0.24295501
  0
VERTEX
  5
4F9
  8
035
 10
-119.80814917
 20
3.67567738
 30
0.0
 42
0.08303913
  0
VERTEX
  5
4FA
  8
035
 10
-119.15486188
 20
3.3586928
 30
0.0
 42
0.04122867
  0
VERTEX
  5
4FB
  8
035
 10
-118.37233404
 20
3.19709827
 30
0.0
 42
0.03031681
  0
VERTEX
  5
4FC
  8
035
 10
-117.28854037
 20
3.13132348
 30
0.0
 42
0.03031681
  0
VERTEX
  5
4FD
  8
035
 10
-116.2047467
 20
3.19709827
 30
0.0
 42
0.04122867
  0
VERTEX
  5
4FE
  8
035
 10
-115.42221885
 20
3.3586928
 30
0.0
 42
0.08303913
  0
VERTEX
  5
4FF
  8
035
 10
-114.76893157
 20
3.67567738
 30
0.0
 42
0.18687685
  0
VERTEX
  5
500
  8
035
 10
-114.65567389
 20
3.84709944
 30
0.0
 42
0.24295501
  0
SEQEND
  5
501
  8
035
  0
POLYLINE
  5
BF
  8
035
 66
     1
 10
0.0
 20
0.0
 30
0.0
  0
VERTEX
  5
502
  8
035
 10
-118.17535821
 20
4.14049712
 30
0.0
 42
0.19910451
  0
VERTEX
  5
503
  8
035
 10
-118.12316294
 20
4.01461822
 30
0.0
 42
0.09843668
  0
VERTEX
  5
504
  8
035
 10
-117.90049305
 20
3.86603807
 30
0.0
 42
0.05568354
  0
VERTEX
  5
505
  8
035
 10
-117.61917057
 20
3.78486094
 30
0.0
 42
0.04244351
  0
VERTEX
  5
506
  8
035
 10
-117.23690986
 20
3.75235341
 30
0.0
 42
0.04244351
  0
VERTEX
  5
507
  8
035
 10
-116.85464914
 20
3.78486094
 30
0.0
 42
0.05568354
  0
VERTEX
  5
508
  8
035
 10
-116.57332666
 20
3.86603807
 30
0.0
 42
0.09843668
  0
VERTEX
  5
509
  8
035
 10
-116.35065677
 20
4.01461822
 30
0.0
 42
0.14132714
  0
VERTEX
  5
50A
  8
035
 10
-116.30292741
 20
4.1008875
 30
0.0
 42
0.19910451
  0
SEQEND
  5
50B
  8
035
  0
POLYLINE
  5
C0
  8
035
 66
     1
 10
0.0
 20
0.0
 30
0.0
  0
VERTEX
  5
50C
  8
035
 10
-118.17058417
 20
4.18143241
 30
0.0
 42
0.05811505
  0
VERTEX
  5
50D
  8
035
 10
-118.17535821
 20
4.14049712
 30
0.0
 42
0.19910451
  0
SEQEND
  5
50E
  8
035
  0
LINE
  5
C1
  8
035
 10
-115.94994862
 20
5.69307194
 30
0.0
 11
-114.24643164
 21
5.69307194
 31
0.0
  0
LINE
  5
C2
  8
035
 10
-113.93214514
 20
5.07204201
 30
0.0
 11
-113.79446612
 21
5.69307194
 31
0.0
  0
LINE
  5
C3
  8
035
 10
-112.79260738
 20
3.20895222
 30
0.0
 11
-112.37957032
 21
5.07204201
 31
0.0
  0
LINE
  5
C4
  8
035
 10
-111.08477508
 20
3.20895222
 30
0.0
 11
-110.67173802
 21
5.07204201
 31
0.0
  0
LINE
  5
C5
  8
035
 10
-109.04153445
 20
5.07204201
 30
0.0
 11
-108.90385543
 21
5.69307194
 31
0.0
  0
LINE
  5
C6
  8
035
 10
-113.93214514
 20
5.07204201
 30
0.0
 11
-112.37957032
 21
5.07204201
 31
0.0
  0
LINE
  5
C7
  8
035
 10
-112.79260738
 20
3.20895222
 30
0.0
 11
-111.08477508
 21
3.20895222
 31
0.0
  0
LINE
  5
C8
  8
035
 10
-113.79446612
 20
5.69307194
 30
0.0
 11
-108.90385543
 21
5.69307194
 31
0.0
  0
LINE
  5
C9
  8
035
 10
-110.67173802
 20
5.07204201
 30
0.0
 11
-109.04153445
 21
5.07204201
 31
0.0
  0
LINE
  5
CA
  8
035
 10
-108.91117033
 20
3.20895222
 30
0.0
 11
-108.36045424
 21
5.69307194
 31
0.0
  0
LINE
  5
CB
  8
035
 10
-107.20333802
 20
3.20895222
 30
0.0
 11
-106.99798505
 21
4.13523964
 31
0.0
  0
LINE
  5
CC
  8
035
 10
-108.91117033
 20
3.20895222
 30
0.0
 11
-107.20333802
 21
3.20895222
 31
0.0
  0
LINE
  5
CD
  8
035
 10
-108.36045424
 20
5.69307194
 30
0.0
 11
-104.00207795
 21
5.69307194
 31
0.0
  0
LINE
  5
CE
  8
035
 10
-103.69186638
 20
3.46891398
 30
0.0
 11
-103.65141431
 21
4.04740546
 31
0.0
  0
LINE
  5
CF
  8
035
 10
-105.40403736
 20
3.40686792
 30
0.0
 11
-105.37277144
 21
3.86192107
 31
0.0
  0
LINE
  5
D0
  8
035
 10
-106.93369838
 20
4.42521807
 30
0.0
 11
-106.75016281
 21
5.25309351
 31
0.0
  0
ARC
  5
D1
  8
035
 10
-103.30466817
 20
3.44183845
 30
0.0
 40
0.38814371
 50
176.0
 51
216.86989765
  0
ARC
  5
D2
  8
035
 10
-105.03024709
 20
3.41190469
 30
0.0
 40
0.37382421
 50
180.77200466
 51
212.88187535
  0
LINE
  5
D3
  8
035
 10
-105.34418154
 20
3.20895222
 30
0.0
 11
-103.61518313
 21
3.20895222
 31
0.0
  0
POLYLINE
  5
D4
  8
035
 66
     1
 10
0.0
 20
0.0
 30
0.0
  0
VERTEX
  5
50F
  8
035
 10
-103.65141431
 20
4.04740546
 30
0.0
 42
0.08483128
  0
VERTEX
  5
510
  8
035
 10
-103.66028448
 20
4.14298186
 30
0.0
 42
0.15304844
  0
VERTEX
  5
511
  8
035
 10
-103.7516127
 20
4.28687536
 30
0.0
 42
0.02531509
  0
VERTEX
  5
512
  8
035
 10
-103.79753665
 20
4.32185205
 30
0.0
 42
0.06794818
  0
SEQEND
  5
513
  8
035
  0
POLYLINE
  5
D5
  8
035
 66
     1
 10
0.0
 20
0.0
 30
0.0
  0
VERTEX
  5
514
  8
035
 10
-103.79753665
 20
4.32185205
 30
0.0
 42
0.01536882
  0
VERTEX
  5
515
  8
035
 10
-103.68387011
 20
4.3800253
 30
0.0
 42
0.07398107
  0
VERTEX
  5
516
  8
035
 10
-103.35681602
 20
4.62940877
 30
0.0
 42
0.10689447
  0
VERTEX
  5
517
  8
035
 10
-103.15229659
 20
4.95659518
 30
0.0
 42
0.15304844
  0
VERTEX
  5
518
  8
035
 10
-103.14086331
 20
5.22904243
 30
0.0
 42
0.15304844
  0
VERTEX
  5
519
  8
035
 10
-103.28698845
 20
5.45927202
 30
0.0
 42
0.10689447
  0
VERTEX
  5
51A
  8
035
 10
-103.62770067
 20
5.64036405
 30
0.0
 42
0.06794818
  0
VERTEX
  5
51B
  8
035
 10
-104.00207795
 20
5.69307194
 30
0.0
 42
0.06056637
  0
SEQEND
  5
51C
  8
035
  0
LINE
  5
D6
  8
035
 10
-102.85612852
 20
3.20895222
 30
0.0
 11
-102.30541244
 21
5.69307194
 31
0.0
  0
LINE
  5
D7
  8
035
 10
-101.14829622
 20
3.20895222
 30
0.0
 11
-100.59758013
 21
5.69307194
 31
0.0
  0
LINE
  5
D8
  8
035
 10
-102.85612852
 20
3.20895222
 30
0.0
 11
-101.14829622
 21
3.20895222
 31
0.0
  0
LINE
  5
D9
  8
035
 10
-102.30541244
 20
5.69307194
 30
0.0
 11
-100.59758013
 21
5.69307194
 31
0.0
  0
LINE
  5
DA
  8
035
 10
-100.13912258
 20
3.20895222
 30
0.0
 11
-99.5884065
 21
5.69307194
 31
0.0
  0
LINE
  5
DB
  8
035
 10
-98.50891902
 20
3.20895222
 30
0.0
 11
-98.37124
 21
3.82998215
 31
0.0
  0
LINE
  5
DC
  8
035
 10
-99.5884065
 20
5.69307194
 30
0.0
 11
-97.95820294
 21
5.69307194
 31
0.0
  0
LINE
  5
DD
  8
035
 10
-100.13912258
 20
3.20895222
 30
0.0
 11
-98.50891902
 21
3.20895222
 31
0.0
  0
LINE
  5
DE
  8
035
 10
-98.37124
 20
3.82998215
 30
0.0
 11
-97.64255619
 21
4.14049712
 31
0.0
  0
LINE
  5
DF
  8
035
 10
-98.14447455
 20
4.85285498
 30
0.0
 11
-96.17274189
 21
5.69307194
 31
0.0
  0
LINE
  5
E0
  8
035
 10
-96.17274189
 20
5.69307194
 30
0.0
 11
-93.99913714
 21
5.69307194
 31
0.0
  0
LINE
  5
E1
  8
035
 10
-97.64255619
 20
4.14049712
 30
0.0
 11
-96.72345797
 21
3.20895222
 31
0.0
  0
LINE
  5
E2
  8
035
 10
-96.00301762
 20
4.83915579
 30
0.0
 11
-94.39459574
 21
3.20895222
 31
0.0
  0
LINE
  5
E3
  8
035
 10
-96.00301762
 20
4.83915579
 30
0.0
 11
-93.99913714
 21
5.69307194
 31
0.0
  0
LINE
  5
E4
  8
035
 10
-98.14447455
 20
4.85285498
 30
0.0
 11
-97.95820294
 21
5.69307194
 31
0.0
  0
LINE
  5
E5
  8
035
 10
-96.72345797
 20
3.20895222
 30
0.0
 11
-94.39459574
 21
3.20895222
 31
0.0
  0
LINE
  5
E6
  8
035
 10
-91.53584921
 20
3.20895222
 30
0.0
 11
-89.85971285
 21
3.20895222
 31
0.0
  0
LINE
  5
E7
  8
035
 10
-89.67221285
 20
5.69380071
 30
0.0
 11
-86.71750874
 21
5.69380071
 31
0.0
  0
LINE
  5
E8
  8
035
 10
-91.53584921
 20
3.20895222
 30
0.0
 11
-89.67221285
 21
5.69380071
 31
0.0
  0
LINE
  5
E9
  8
035
 10
-86.71750874
 20
5.69380071
 30
0.0
 11
-86.09629661
 21
3.20895222
 31
0.0
  0
LINE
  5
EA
  8
035
 10
-89.49968917
 20
3.6889838
 30
0.0
 11
-87.77396792
 21
3.6889838
 31
0.0
  0
LINE
  5
EB
  8
035
 10
-89.21979844
 20
4.06217144
 30
0.0
 11
-87.86726483
 21
4.06217144
 31
0.0
  0
LINE
  5
EC
  8
035
 10
-85.38498139
 20
3.71995231
 30
0.0
 11
-85.11661977
 21
5.2419067
 31
0.0
  0
LINE
  5
ED
  8
035
 10
-80.63292729
 20
3.20895222
 30
0.0
 11
-80.44030342
 21
4.30137647
 31
0.0
  0
LINE
  5
EE
  8
035
 10
-83.77387498
 20
4.04931829
 30
0.0
 11
-83.61397886
 21
4.95613427
 31
0.0
  0
LINE
  5
EF
  8
035
 10
-82.1859576
 20
3.20895222
 30
0.0
 11
-82.18095241
 21
3.23733804
 31
0.0
  0
LINE
  5
F0
  8
035
 10
-82.65381868
 20
4.07864919
 30
0.0
 11
-82.61454585
 21
4.30137647
 31
0.0
  0
LINE
  5
F1
  8
035
 10
-82.65381868
 20
4.07864919
 30
0.0
 11
-82.03260656
 21
4.07864919
 31
0.0
  0
ARC
  5
F2
  8
035
 10
-82.53157272
 20
-8.00312768
 30
0.0
 40
13.69715307
 50
81.6598953
 51
99.80278994
  0
ARC
  5
F3
  8
035
 10
-83.09153447
 20
16.90419001
 30
0.0
 40
13.69715307
 50
261.4614733
 51
273.81181513
  0
ARC
  5
F4
  8
035
 10
-84.81073251
 20
5.18797052
 30
0.0
 40
0.31060606
 50
99.80278994
 51
170.0
  0
ARC
  5
F5
  8
035
 10
-85.07909413
 20
3.66601613
 30
0.0
 40
0.31060606
 50
170.0
 51
261.4614733
  0
ARC
  5
F6
  8
035
 10
-80.58987023
 20
5.24184995
 30
0.0
 40
0.31060606
 50
350.0
 51
81.6598953
  0
LINE
  5
F7
  8
035
 10
-81.8984294
 20
4.96399318
 30
0.0
 11
-80.32346622
 21
4.96399318
 31
0.0
  0
LINE
  5
F8
  8
035
 10
-80.32346622
 20
4.96399318
 30
0.0
 11
-80.28398298
 21
5.18791378
 31
0.0
  0
LINE
  5
F9
  8
035
 10
-82.0521467
 20
3.96783155
 30
0.0
 11
-82.03260656
 21
4.07864919
 31
0.0
  0
ARC
  5
FA
  8
035
 10
-82.75572432
 20
1.69827357
 30
0.0
 40
3.5617969
 50
80.20833909
 51
99.78182518
  0
ARC
  5
FB
  8
035
 10
-82.98914106
 20
7.21111652
 30
0.0
 40
3.5617969
 50
261.53046777
 51
281.19306843
  0
ARC
  5
FC
  8
035
 10
-83.3080916
 20
4.90219809
 30
0.0
 40
0.31060606
 50
99.78182518
 51
170.0
  0
ARC
  5
FD
  8
035
 10
-82.20280705
 20
4.90210322
 30
0.0
 40
0.31060606
 50
11.49342497
 51
80.20833909
  0
ARC
  5
FE
  8
035
 10
-83.46798772
 20
3.99538211
 30
0.0
 40
0.31060606
 50
170.0
 51
261.53046777
  0
ARC
  5
FF
  8
035
 10
-82.35803395
 20
4.02176772
 30
0.0
 40
0.31060606
 50
281.19306843
 51
350.0
  0
LINE
  5
100
  8
035
 10
-82.1859576
 20
3.20895222
 30
0.0
 11
-80.63292729
 21
3.20895222
 31
0.0
  0
LINE
  5
101
  8
035
 10
-87.65396002
 20
3.20895222
 30
0.0
 11
-86.09629661
 21
3.20895222
 31
0.0
  0
TEXT
  5
102
  8
035
 62
     4
 10
-77.57692556
 20
3.26463621
 30
0.0
 40
2.48484848
  1
FL-9494 SCHAAN
 41
0.7
 51
15.0
  7
HELV
  0
LINE
  5
104
  8
035
 10
-123.36271341
 20
5.25309351
 30
0.0
 11
-120.41282125
 21
5.25309351
 31
0.0
  0
LINE
  5
105
  8
035
 10
-123.50838724
 20
4.5960013
 30
0.0
 11
-120.79138131
 21
4.5960013
 31
0.0
  0
LINE
  5
106
  8
035
 10
-123.57267391
 20
4.30602287
 30
0.0
 11
-120.85566798
 21
4.30602287
 31
0.0
  0
LINE
  5
107
  8
035
 10
-123.71834775
 20
3.64893066
 30
0.0
 11
-120.76845559
 21
3.64893066
 31
0.0
  0
LINE
  5
108
  8
0
 62
     4
 10
-94.08830606
 20
5.65507427
 30
0.0
 11
-94.05030839
 21
5.69307194
 31
0.0
  0
LINE
  5
109
  8
0
 62
     4
 10
-94.41310777
 20
3.20895222
 30
0.0
 11
-94.4037895
 21
3.21827049
 31
0.0
  0
LINE
  5
10A
  8
035
 10
-106.75016281
 20
5.25309351
 30
0.0
 11
-105.34360264
 21
5.25309351
 31
0.0
  0
LINE
  5
10B
  8
035
 10
-106.93369838
 20
4.42521807
 30
0.0
 11
-105.57337278
 21
4.42521807
 31
0.0
  0
LINE
  5
10C
  8
035
 10
-106.99798505
 20
4.13523964
 30
0.0
 11
-105.54909972
 21
4.13523964
 31
0.0
  0
LINE
  5
10D
  8
035
 10
-105.34360264
 20
5.25309351
 30
0.0
 11
-105.23258572
 21
5.23492969
 31
0.0
  0
LINE
  5
10E
  8
035
 10
-105.23258572
 20
5.23492969
 30
0.0
 11
-105.13638916
 21
5.18619856
 31
0.0
  0
LINE
  5
10F
  8
035
 10
-105.13638916
 20
5.18619856
 30
0.0
 11
-105.09021306
 21
5.11182233
 31
0.0
  0
LINE
  5
110
  8
035
 10
-105.09021306
 20
5.11182233
 30
0.0
 11
-105.05430109
 21
5.02205707
 31
0.0
  0
LINE
  5
111
  8
035
 10
-105.05430109
 20
5.02205707
 30
0.0
 11
-105.05301652
 21
4.92459976
 31
0.0
  0
LINE
  5
112
  8
035
 10
-105.05301652
 20
4.92459976
 30
0.0
 11
-105.06327752
 21
4.78353935
 31
0.0
  0
LINE
  5
113
  8
035
 10
-105.06327752
 20
4.78353935
 30
0.0
 11
-105.11458568
 21
4.69762382
 31
0.0
  0
LINE
  5
114
  8
035
 10
-105.11458568
 20
4.69762382
 30
0.0
 11
-105.20565018
 21
4.59118627
 31
0.0
  0
LINE
  5
115
  8
035
 10
-105.20565018
 20
4.59118627
 30
0.0
 11
-105.3428939
 21
4.50911552
 31
0.0
  0
LINE
  5
116
  8
035
 10
-105.3428939
 20
4.50911552
 30
0.0
 11
-105.47372409
 21
4.44243381
 31
0.0
  0
LINE
  5
117
  8
035
 10
-105.47372409
 20
4.44243381
 30
0.0
 11
-105.57337278
 21
4.42521807
 31
0.0
  0
LINE
  5
118
  8
035
 10
-105.54909972
 20
4.13523964
 30
0.0
 11
-105.4662193
 21
4.12357947
 31
0.0
  0
LINE
  5
119
  8
035
 10
-105.4662193
 20
4.12357947
 30
0.0
 11
-105.41301858
 21
4.08993266
 31
0.0
  0
LINE
  5
11A
  8
035
 10
-105.41301858
 20
4.08993266
 30
0.0
 11
-105.380449
 21
4.03674486
 31
0.0
  0
LINE
  5
11B
  8
035
 10
-105.380449
 20
4.03674486
 30
0.0
 11
-105.36524924
 21
3.97270396
 31
0.0
  0
LINE
  5
11C
  8
035
 10
-105.36524924
 20
3.97270396
 30
0.0
 11
-105.37277144
 21
3.86192107
 31
0.0
  0
LINE
  5
11D
  8
035
 10
-88.20539823
 20
5.41470505
 30
0.0
 11
-87.86726483
 21
4.06217144
 31
0.0
  0
LINE
  5
11E
  8
035
 10
-89.21979844
 20
4.06217144
 30
0.0
 11
-88.20539823
 21
5.41470505
 31
0.0
  0
LINE
  5
11F
  8
035
 10
-87.77396792
 20
3.6889838
 30
0.0
 11
-87.65396002
 21
3.20895222
 31
0.0
  0
LINE
  5
120
  8
035
 10
-89.85971285
 20
3.20895222
 30
0.0
 11
-89.49968917
 21
3.6889838
 31
0.0
  0
LINE
  5
121
  8
035
 10
-82.61454585
 20
4.30137647
 30
0.0
 11
-80.44030342
 21
4.30137647
 31
0.0
  0
INSERT
  5
122
  8
035
 62
     4
  2
*X1
 10
-280.0
 20
-100.0
 30
0.0
1001
ACAD
1000
HATCH
1002
{
1070
    16
1000
ANSI37,I
1040
1.8
1040
0.0
1002
}
  0
ENDBLK
  5
32C
  8
0
  0
BLOCK
  8
0
  2
*X1
 70
     1
 10
0.0
 20
0.0
 30
0.0
  3
*X1
  1

  0
LINE
  5
124
  8
0
 62
     0
 10
172.57612746
 20
103.20895222
 30
0.0
 11
172.85947964
 21
103.49230441
 31
0.0
  0
LINE
  5
125
  8
0
 62
     0
 10
174.62026874
 20
105.25309351
 30
0.0
 11
175.06024717
 21
105.69307194
 31
0.0
  0
LINE
  5
126
  8
0
 62
     0
 10
173.50241487
 20
104.13523964
 30
0.0
 11
173.7923933
 21
104.42521807
 31
0.0
  0
LINE
  5
127
  8
0
 62
     0
 10
172.25792941
 20
103.20895222
 30
0.0
 11
172.95011607
 21
103.90113888
 31
0.0
  0
LINE
  5
128
  8
0
 62
     0
 10
174.30207069
 20
105.25309351
 30
0.0
 11
174.74204912
 21
105.69307194
 31
0.0
  0
LINE
  5
129
  8
0
 62
     0
 10
173.18421682
 20
104.13523964
 30
0.0
 11
173.47419525
 21
104.42521807
 31
0.0
  0
LINE
  5
12A
  8
0
 62
     0
 10
171.93973136
 20
103.20895222
 30
0.0
 11
173.1559972
 21
104.42521807
 31
0.0
  0
LINE
  5
12B
  8
0
 62
     0
 10
173.98387264
 20
105.25309351
 30
0.0
 11
174.42385107
 21
105.69307194
 31
0.0
  0
LINE
  5
12C
  8
0
 62
     0
 10
171.6215333
 20
103.20895222
 30
0.0
 11
173.13138891
 21
104.71880783
 31
0.0
  0
LINE
  5
12D
  8
0
 62
     0
 10
173.66567459
 20
105.25309351
 30
0.0
 11
174.10565302
 21
105.69307194
 31
0.0
  0
LINE
  5
12E
  8
0
 62
     0
 10
171.30333525
 20
103.20895222
 30
0.0
 11
173.22202533
 21
105.1276423
 31
0.0
  0
LINE
  5
12F
  8
0
 62
     0
 10
173.34747654
 20
105.25309351
 30
0.0
 11
173.78745497
 21
105.69307194
 31
0.0
  0
LINE
  5
130
  8
0
 62
     0
 10
171.11836573
 20
103.34218075
 30
0.0
 11
173.46925692
 21
105.69307194
 31
0.0
  0
LINE
  5
131
  8
0
 62
     0
 10
171.20900215
 20
103.75101522
 30
0.0
 11
173.15105887
 21
105.69307194
 31
0.0
  0
LINE
  5
132
  8
0
 62
     0
 10
171.29963857
 20
104.15984969
 30
0.0
 11
172.83286081
 21
105.69307194
 31
0.0
  0
LINE
  5
133
  8
0
 62
     0
 10
171.39027499
 20
104.56868416
 30
0.0
 11
172.51466276
 21
105.69307194
 31
0.0
  0
LINE
  5
134
  8
0
 62
     0
 10
171.48091141
 20
104.97751864
 30
0.0
 11
172.19646471
 21
105.69307194
 31
0.0
  0
LINE
  5
135
  8
0
 62
     0
 10
171.57154783
 20
105.38635311
 30
0.0
 11
171.87826666
 21
105.69307194
 31
0.0
  0
LINE
  5
136
  8
0
 62
     0
 10
170.93903868
 20
105.07204201
 30
0.0
 11
170.96399915
 21
105.09700248
 31
0.0
  0
LINE
  5
137
  8
0
 62
     0
 10
168.75775084
 20
103.20895222
 30
0.0
 11
168.96008028
 21
103.41128166
 31
0.0
  0
LINE
  5
138
  8
0
 62
     0
 10
170.62084063
 20
105.07204201
 30
0.0
 11
171.05463557
 21
105.50583695
 31
0.0
  0
LINE
  5
139
  8
0
 62
     0
 10
168.43955279
 20
103.20895222
 30
0.0
 11
169.0507167
 21
103.82011613
 31
0.0
  0
LINE
  5
13A
  8
0
 62
     0
 10
170.30264258
 20
105.07204201
 30
0.0
 11
170.9236725
 21
105.69307194
 31
0.0
  0
LINE
  5
13B
  8
0
 62
     0
 10
168.12135474
 20
103.20895222
 30
0.0
 11
169.14135312
 21
104.22895061
 31
0.0
  0
LINE
  5
13C
  8
0
 62
     0
 10
169.98444452
 20
105.07204201
 30
0.0
 11
170.60547445
 21
105.69307194
 31
0.0
  0
LINE
  5
13D
  8
0
 62
     0
 10
167.80315669
 20
103.20895222
 30
0.0
 11
169.23198954
 21
104.63778508
 31
0.0
  0
LINE
  5
13E
  8
0
 62
     0
 10
169.66624647
 20
105.07204201
 30
0.0
 11
170.2872764
 21
105.69307194
 31
0.0
  0
LINE
  5
13F
  8
0
 62
     0
 10
167.48495863
 20
103.20895222
 30
0.0
 11
169.32262596
 21
105.04661955
 31
0.0
  0
LINE
  5
140
  8
0
 62
     0
 10
169.34804842
 20
105.07204201
 30
0.0
 11
169.96907835
 21
105.69307194
 31
0.0
  0
LINE
  5
141
  8
0
 62
     0
 10
167.21896636
 20
103.261158
 30
0.0
 11
169.6508803
 21
105.69307194
 31
0.0
  0
LINE
  5
142
  8
0
 62
     0
 10
167.30960278
 20
103.66999247
 30
0.0
 11
169.33268225
 21
105.69307194
 31
0.0
  0
LINE
  5
143
  8
0
 62
     0
 10
167.4002392
 20
104.07882694
 30
0.0
 11
169.0144842
 21
105.69307194
 31
0.0
  0
LINE
  5
144
  8
0
 62
     0
 10
167.49087562
 20
104.48766142
 30
0.0
 11
168.69628614
 21
105.69307194
 31
0.0
  0
LINE
  5
145
  8
0
 62
     0
 10
167.58151204
 20
104.89649589
 30
0.0
 11
168.37808809
 21
105.69307194
 31
0.0
  0
LINE
  5
146
  8
0
 62
     0
 10
167.43886011
 20
105.07204201
 30
0.0
 11
168.05989004
 21
105.69307194
 31
0.0
  0
LINE
  5
147
  8
0
 62
     0
 10
167.12066206
 20
105.07204201
 30
0.0
 11
167.74169199
 21
105.69307194
 31
0.0
  0
LINE
  5
148
  8
0
 62
     0
 10
166.80246401
 20
105.07204201
 30
0.0
 11
167.42349394
 21
105.69307194
 31
0.0
  0
LINE
  5
149
  8
0
 62
     0
 10
164.88837609
 20
103.47615214
 30
0.0
 11
165.36853852
 21
103.95631457
 31
0.0
  0
LINE
  5
14A
  8
0
 62
     0
 10
166.48426596
 20
105.07204201
 30
0.0
 11
167.10529589
 21
105.69307194
 31
0.0
  0
LINE
  5
14B
  8
0
 62
     0
 10
164.40546606
 20
103.31144016
 30
0.0
 11
165.45917494
 21
104.36514904
 31
0.0
  0
LINE
  5
14C
  8
0
 62
     0
 10
166.16606791
 20
105.07204201
 30
0.0
 11
166.78709784
 21
105.69307194
 31
0.0
  0
LINE
  5
14D
  8
0
 62
     0
 10
164.00276878
 20
103.22694094
 30
0.0
 11
165.54981136
 21
104.77398351
 31
0.0
  0
LINE
  5
14E
  8
0
 62
     0
 10
166.130516
 20
105.35468816
 30
0.0
 11
166.46889978
 21
105.69307194
 31
0.0
  0
LINE
  5
14F
  8
0
 62
     0
 10
163.63685936
 20
103.17922956
 30
0.0
 11
165.64044778
 21
105.18281799
 31
0.0
  0
LINE
  5
150
  8
0
 62
     0
 10
163.28941059
 20
103.14997885
 30
0.0
 11
165.7310842
 21
105.59165246
 31
0.0
  0
LINE
  5
151
  8
0
 62
     0
 10
162.95589117
 20
103.13465748
 30
0.0
 11
165.51430563
 21
105.69307194
 31
0.0
  0
LINE
  5
152
  8
0
 62
     0
 10
162.63468796
 20
103.13165232
 30
0.0
 11
163.33511932
 21
103.83208368
 31
0.0
  0
LINE
  5
153
  8
0
 62
     0
 10
163.72360554
 20
104.2205699
 30
0.0
 11
165.19610758
 21
105.69307194
 31
0.0
  0
LINE
  5
154
  8
0
 62
     0
 10
162.3245183
 20
103.13968071
 30
0.0
 11
162.94446891
 21
103.75963132
 31
0.0
  0
LINE
  5
155
  8
0
 62
     0
 10
163.81424196
 20
104.62940437
 30
0.0
 11
164.87790953
 21
105.69307194
 31
0.0
  0
LINE
  5
156
  8
0
 62
     0
 10
162.02434276
 20
103.15770322
 30
0.0
 11
162.62331237
 21
103.75667284
 31
0.0
  0
LINE
  5
157
  8
0
 62
     0
 10
163.90487838
 20
105.03823884
 30
0.0
 11
164.55971147
 21
105.69307194
 31
0.0
  0
LINE
  5
158
  8
0
 62
     0
 10
161.73330558
 20
103.1848641
 30
0.0
 11
162.34079858
 21
103.79235709
 31
0.0
  0
LINE
  5
159
  8
0
 62
     0
 10
163.9955148
 20
105.44707331
 30
0.0
 11
164.24151342
 21
105.69307194
 31
0.0
  0
LINE
  5
15A
  8
0
 62
     0
 10
161.45200722
 20
103.22176379
 30
0.0
 11
162.09722862
 21
103.86698519
 31
0.0
  0
LINE
  5
15B
  8
0
 62
     0
 10
161.18417054
 20
103.27212516
 30
0.0
 11
161.90240855
 21
103.99036317
 31
0.0
  0
LINE
  5
15C
  8
0
 62
     0
 10
160.92875772
 20
103.33491039
 30
0.0
 11
161.8448361
 21
104.25098877
 31
0.0
  0
LINE
  5
15D
  8
0
 62
     0
 10
160.68732066
 20
103.41167138
 30
0.0
 11
161.93547252
 21
104.65982324
 31
0.0
  0
LINE
  5
15E
  8
0
 62
     0
 10
160.46671833
 20
103.5092671
 30
0.0
 11
162.02610894
 21
105.06865772
 31
0.0
  0
LINE
  5
15F
  8
0
 62
     0
 10
160.26510328
 20
103.62585011
 30
0.0
 11
162.11674536
 21
105.47749219
 31
0.0
  0
LINE
  5
160
  8
0
 62
     0
 10
160.10189365
 20
103.78083852
 30
0.0
 11
162.01412706
 21
105.69307194
 31
0.0
  0
LINE
  5
161
  8
0
 62
     0
 10
160.10924842
 20
104.10639135
 30
0.0
 11
161.69592901
 21
105.69307194
 31
0.0
  0
LINE
  5
162
  8
0
 62
     0
 10
158.89361124
 20
103.20895222
 30
0.0
 11
159.20247755
 21
103.51781854
 31
0.0
  0
LINE
  5
163
  8
0
 62
     0
 10
160.19988484
 20
104.51522582
 30
0.0
 11
161.37773096
 21
105.69307194
 31
0.0
  0
LINE
  5
164
  8
0
 62
     0
 10
158.57541319
 20
103.20895222
 30
0.0
 11
159.01539162
 21
103.64893066
 31
0.0
  0
LINE
  5
165
  8
0
 62
     0
 10
160.29052126
 20
104.92406029
 30
0.0
 11
161.05953291
 21
105.69307194
 31
0.0
  0
LINE
  5
166
  8
0
 62
     0
 10
158.25721514
 20
103.20895222
 30
0.0
 11
158.69719357
 21
103.64893066
 31
0.0
  0
LINE
  5
167
  8
0
 62
     0
 10
160.38115768
 20
105.33289476
 30
0.0
 11
160.74133486
 21
105.69307194
 31
0.0
  0
LINE
  5
168
  8
0
 62
     0
 10
157.93901709
 20
103.20895222
 30
0.0
 11
158.37899552
 21
103.64893066
 31
0.0
  0
LINE
  5
169
  8
0
 62
     0
 10
159.03608773
 20
104.30602287
 30
0.0
 11
159.17516463
 21
104.44509977
 31
0.0
  0
LINE
  5
16A
  8
0
 62
     0
 10
157.62081904
 20
103.20895222
 30
0.0
 11
158.06079747
 21
103.64893066
 31
0.0
  0
LINE
  5
16B
  8
0
 62
     0
 10
158.71788968
 20
104.30602287
 30
0.0
 11
159.00786811
 21
104.5960013
 31
0.0
  0
LINE
  5
16C
  8
0
 62
     0
 10
157.30262099
 20
103.20895222
 30
0.0
 11
157.74259942
 21
103.64893066
 31
0.0
  0
LINE
  5
16D
  8
0
 62
     0
 10
159.34676227
 20
105.25309351
 30
0.0
 11
159.65565966
 21
105.5619909
 31
0.0
  0
LINE
  5
16E
  8
0
 62
     0
 10
158.39969163
 20
104.30602287
 30
0.0
 11
158.68967006
 21
104.5960013
 31
0.0
  0
LINE
  5
16F
  8
0
 62
     0
 10
156.98442293
 20
103.20895222
 30
0.0
 11
157.42440137
 21
103.64893066
 31
0.0
  0
LINE
  5
170
  8
0
 62
     0
 10
159.02856422
 20
105.25309351
 30
0.0
 11
159.46854265
 21
105.69307194
 31
0.0
  0
LINE
  5
171
  8
0
 62
     0
 10
158.08149358
 20
104.30602287
 30
0.0
 11
158.37147201
 21
104.5960013
 31
0.0
  0
LINE
  5
172
  8
0
 62
     0
 10
156.66622488
 20
103.20895222
 30
0.0
 11
157.10620332
 21
103.64893066
 31
0.0
  0
LINE
  5
173
  8
0
 62
     0
 10
158.71036617
 20
105.25309351
 30
0.0
 11
159.1503446
 21
105.69307194
 31
0.0
  0
LINE
  5
174
  8
0
 62
     0
 10
157.76329552
 20
104.30602287
 30
0.0
 11
158.05327396
 21
104.5960013
 31
0.0
  0
LINE
  5
175
  8
0
 62
     0
 10
156.34802683
 20
103.20895222
 30
0.0
 11
156.78800526
 21
103.64893066
 31
0.0
  0
LINE
  5
176
  8
0
 62
     0
 10
158.39216811
 20
105.25309351
 30
0.0
 11
158.83214655
 21
105.69307194
 31
0.0
  0
LINE
  5
177
  8
0
 62
     0
 10
157.44509747
 20
104.30602287
 30
0.0
 11
157.73507591
 21
104.5960013
 31
0.0
  0
LINE
  5
178
  8
0
 62
     0
 10
156.02982878
 20
103.20895222
 30
0.0
 11
156.46980721
 21
103.64893066
 31
0.0
  0
LINE
  5
179
  8
0
 62
     0
 10
158.07397006
 20
105.25309351
 30
0.0
 11
158.5139485
 21
105.69307194
 31
0.0
  0
LINE
  5
17A
  8
0
 62
     0
 10
157.12689942
 20
104.30602287
 30
0.0
 11
157.41687785
 21
104.5960013
 31
0.0
  0
LINE
  5
17B
  8
0
 62
     0
 10
155.71163073
 20
103.20895222
 30
0.0
 11
156.31869409
 21
103.81601558
 31
0.0
  0
LINE
  5
17C
  8
0
 62
     0
 10
157.75577201
 20
105.25309351
 30
0.0
 11
158.19575044
 21
105.69307194
 31
0.0
  0
LINE
  5
17D
  8
0
 62
     0
 10
156.80870137
 20
104.30602287
 30
0.0
 11
157.0986798
 21
104.5960013
 31
0.0
  0
LINE
  5
17E
  8
0
 62
     0
 10
155.39343268
 20
103.20895222
 30
0.0
 11
156.40933051
 21
104.22485005
 31
0.0
  0
LINE
  5
17F
  8
0
 62
     0
 10
157.43757396
 20
105.25309351
 30
0.0
 11
157.87755239
 21
105.69307194
 31
0.0
  0
LINE
  5
180
  8
0
 62
     0
 10
156.49050332
 20
104.30602287
 30
0.0
 11
156.78048175
 21
104.5960013
 31
0.0
  0
LINE
  5
181
  8
0
 62
     0
 10
155.07523462
 20
103.20895222
 30
0.0
 11
156.49996693
 21
104.63368453
 31
0.0
  0
LINE
  5
182
  8
0
 62
     0
 10
157.11937591
 20
105.25309351
 30
0.0
 11
157.55935434
 21
105.69307194
 31
0.0
  0
LINE
  5
183
  8
0
 62
     0
 10
154.75703657
 20
103.20895222
 30
0.0
 11
156.59060335
 21
105.042519
 31
0.0
  0
LINE
  5
184
  8
0
 62
     0
 10
156.80117786
 20
105.25309351
 30
0.0
 11
157.24115629
 21
105.69307194
 31
0.0
  0
LINE
  5
185
  8
0
 62
     0
 10
154.48694375
 20
103.25705745
 30
0.0
 11
156.92295824
 21
105.69307194
 31
0.0
  0
LINE
  5
186
  8
0
 62
     0
 10
154.57758017
 20
103.66589192
 30
0.0
 11
156.60476019
 21
105.69307194
 31
0.0
  0
LINE
  5
187
  8
0
 62
     0
 10
154.66821659
 20
104.07472639
 30
0.0
 11
156.28656213
 21
105.69307194
 31
0.0
  0
LINE
  5
188
  8
0
 62
     0
 10
153.48424437
 20
103.20895222
 30
0.0
 11
153.661705
 21
103.38641285
 31
0.0
  0
LINE
  5
189
  8
0
 62
     0
 10
154.75885301
 20
104.48356086
 30
0.0
 11
155.96836408
 21
105.69307194
 31
0.0
  0
LINE
  5
18A
  8
0
 62
     0
 10
153.16604632
 20
103.20895222
 30
0.0
 11
153.75234142
 21
103.79524733
 31
0.0
  0
LINE
  5
18B
  8
0
 62
     0
 10
154.84948943
 20
104.89239534
 30
0.0
 11
155.65016603
 21
105.69307194
 31
0.0
  0
LINE
  5
18C
  8
0
 62
     0
 10
152.84784826
 20
103.20895222
 30
0.0
 11
153.84297784
 21
104.2040818
 31
0.0
  0
LINE
  5
18D
  8
0
 62
     0
 10
154.94012585
 20
105.30122981
 30
0.0
 11
155.33196798
 21
105.69307194
 31
0.0
  0
LINE
  5
18E
  8
0
 62
     0
 10
152.52965021
 20
103.20895222
 30
0.0
 11
153.93361426
 21
104.61291627
 31
0.0
  0
LINE
  5
18F
  8
0
 62
     0
 10
152.21145216
 20
103.20895222
 30
0.0
 11
154.02425068
 21
105.02175074
 31
0.0
  0
LINE
  5
190
  8
0
 62
     0
 10
151.89325411
 20
103.20895222
 30
0.0
 11
154.1148871
 21
105.43058521
 31
0.0
  0
LINE
  5
191
  8
0
 62
     0
 10
151.62553266
 20
103.25942882
 30
0.0
 11
154.05917577
 21
105.69307194
 31
0.0
  0
LINE
  5
192
  8
0
 62
     0
 10
151.45802234
 20
103.41011656
 30
0.0
 11
153.74097772
 21
105.69307194
 31
0.0
  0
LINE
  5
193
  8
0
 62
     0
 10
151.29051203
 20
103.5608043
 30
0.0
 11
153.42277967
 21
105.69307194
 31
0.0
  0
LINE
  5
194
  8
0
 62
     0
 10
151.12300171
 20
103.71149203
 30
0.0
 11
152.1030809
 21
104.69157122
 31
0.0
  0
LINE
  5
195
  8
0
 62
     0
 10
152.28313676
 20
104.87162708
 30
0.0
 11
153.10458162
 21
105.69307194
 31
0.0
  0
LINE
  5
196
  8
0
 62
     0
 10
150.9554914
 20
103.86217977
 30
0.0
 11
151.91630652
 21
104.82299489
 31
0.0
  0
LINE
  5
197
  8
0
 62
     0
 10
152.37377318
 20
105.28046155
 30
0.0
 11
152.78638357
 21
105.69307194
 31
0.0
  0
LINE
  5
198
  8
0
 62
     0
 10
150.78798108
 20
104.01286751
 30
0.0
 11
151.72953213
 21
104.95441856
 31
0.0
  0
LINE
  5
199
  8
0
 62
     0
 10
152.4644096
 20
105.68929602
 30
0.0
 11
152.46818552
 21
105.69307194
 31
0.0
  0
LINE
  5
19A
  8
0
 62
     0
 10
149.66586775
 20
103.20895222
 30
0.0
 11
149.86204636
 21
103.40513083
 31
0.0
  0
LINE
  5
19B
  8
0
 62
     0
 10
150.62047077
 20
104.16355524
 30
0.0
 11
151.54275775
 21
105.08584222
 31
0.0
  0
LINE
  5
19C
  8
0
 62
     0
 10
149.3476697
 20
103.20895222
 30
0.0
 11
149.95268278
 21
103.81396531
 31
0.0
  0
LINE
  5
19D
  8
0
 62
     0
 10
150.45296045
 20
104.31424298
 30
0.0
 11
151.35598336
 21
105.21726589
 31
0.0
  0
LINE
  5
19E
  8
0
 62
     0
 10
149.02947165
 20
103.20895222
 30
0.0
 11
150.0433192
 21
104.22279978
 31
0.0
  0
LINE
  5
19F
  8
0
 62
     0
 10
150.28545014
 20
104.46493071
 30
0.0
 11
151.16920898
 21
105.34868956
 31
0.0
  0
LINE
  5
1A0
  8
0
 62
     0
 10
148.71127359
 20
103.20895222
 30
0.0
 11
150.98243459
 21
105.48011322
 31
0.0
  0
LINE
  5
1A1
  8
0
 62
     0
 10
148.39307554
 20
103.20895222
 30
0.0
 11
150.79566021
 21
105.61153689
 31
0.0
  0
LINE
  5
1A2
  8
0
 62
     0
 10
148.12093244
 20
103.25500717
 30
0.0
 11
150.55899721
 21
105.69307194
 31
0.0
  0
LINE
  5
1A3
  8
0
 62
     0
 10
148.21156886
 20
103.66384165
 30
0.0
 11
150.24079916
 21
105.69307194
 31
0.0
  0
LINE
  5
1A4
  8
0
 62
     0
 10
148.30220528
 20
104.07267612
 30
0.0
 11
149.9226011
 21
105.69307194
 31
0.0
  0
LINE
  5
1A5
  8
0
 62
     0
 10
148.3928417
 20
104.48151059
 30
0.0
 11
149.60440305
 21
105.69307194
 31
0.0
  0
LINE
  5
1A6
  8
0
 62
     0
 10
148.48347812
 20
104.89034506
 30
0.0
 11
149.286205
 21
105.69307194
 31
0.0
  0
LINE
  5
1A7
  8
0
 62
     0
 10
148.57411454
 20
105.29917953
 30
0.0
 11
148.96800695
 21
105.69307194
 31
0.0
  0
LINE
  5
1A8
  8
0
 62
     0
 10
173.82061292
 20
104.13523964
 30
0.0
 11
174.11059135
 21
104.42521807
 31
0.0
  0
LINE
  5
1A9
  8
0
 62
     0
 10
174.86666021
 20
105.18128692
 30
0.0
 11
175.37844523
 21
105.69307194
 31
0.0
  0
LINE
  5
1AA
  8
0
 62
     0
 10
174.13881097
 20
104.13523964
 30
0.0
 11
174.42924097
 21
104.42566963
 31
0.0
  0
LINE
  5
1AB
  8
0
 62
     0
 10
174.94673875
 20
104.94316741
 30
0.0
 11
175.69664328
 21
105.69307194
 31
0.0
  0
LINE
  5
1AC
  8
0
 62
     0
 10
174.4562556
 20
104.13448621
 30
0.0
 11
176.01467092
 21
105.69290153
 31
0.0
  0
LINE
  5
1AD
  8
0
 62
     0
 10
174.63051555
 20
103.99054811
 30
0.0
 11
176.29894327
 21
105.65897583
 31
0.0
  0
LINE
  5
1AE
  8
0
 62
     0
 10
174.61299999
 20
103.6548345
 30
0.0
 11
176.5351134
 21
105.57694791
 31
0.0
  0
LINE
  5
1AF
  8
0
 62
     0
 10
174.60526102
 20
103.32889747
 30
0.0
 11
176.72507459
 21
105.44871104
 31
0.0
  0
LINE
  5
1B0
  8
0
 62
     0
 10
174.80351382
 20
103.20895222
 30
0.0
 11
176.85089975
 21
105.25633816
 31
0.0
  0
LINE
  5
1B1
  8
0
 62
     0
 10
175.12171187
 20
103.20895222
 30
0.0
 11
176.22121276
 21
104.30845311
 31
0.0
  0
LINE
  5
1B2
  8
0
 62
     0
 10
176.26608301
 20
104.35332336
 30
0.0
 11
176.83422906
 21
104.92146941
 31
0.0
  0
LINE
  5
1B3
  8
0
 62
     0
 10
175.43990992
 20
103.20895222
 30
0.0
 11
176.34575756
 21
104.11479986
 31
0.0
  0
LINE
  5
1B4
  8
0
 62
     0
 10
177.62923264
 20
105.39827494
 30
0.0
 11
177.92402964
 21
105.69307194
 31
0.0
  0
LINE
  5
1B5
  8
0
 62
     0
 10
175.75810797
 20
103.20895222
 30
0.0
 11
176.32994185
 21
103.7807861
 31
0.0
  0
LINE
  5
1B6
  8
0
 62
     0
 10
177.53859622
 20
104.98944047
 30
0.0
 11
178.24222769
 21
105.69307194
 31
0.0
  0
LINE
  5
1B7
  8
0
 62
     0
 10
176.07630603
 20
103.20895222
 30
0.0
 11
176.30719327
 21
103.43983947
 31
0.0
  0
LINE
  5
1B8
  8
0
 62
     0
 10
177.4479598
 20
104.580606
 30
0.0
 11
178.56042574
 21
105.69307194
 31
0.0
  0
LINE
  5
1B9
  8
0
 62
     0
 10
177.35732338
 20
104.17177153
 30
0.0
 11
178.87862379
 21
105.69307194
 31
0.0
  0
LINE
  5
1BA
  8
0
 62
     0
 10
177.26668696
 20
103.76293706
 30
0.0
 11
179.19682184
 21
105.69307194
 31
0.0
  0
LINE
  5
1BB
  8
0
 62
     0
 10
177.17605054
 20
103.35410258
 30
0.0
 11
179.37034656
 21
105.5483986
 31
0.0
  0
LINE
  5
1BC
  8
0
 62
     0
 10
177.34909823
 20
103.20895222
 30
0.0
 11
179.27971014
 21
105.13956413
 31
0.0
  0
LINE
  5
1BD
  8
0
 62
     0
 10
177.66729628
 20
103.20895222
 30
0.0
 11
179.18907372
 21
104.73072966
 31
0.0
  0
LINE
  5
1BE
  8
0
 62
     0
 10
177.98549434
 20
103.20895222
 30
0.0
 11
179.0984373
 21
104.32189519
 31
0.0
  0
LINE
  5
1BF
  8
0
 62
     0
 10
180.39506677
 20
105.61852466
 30
0.0
 11
180.46961405
 21
105.69307194
 31
0.0
  0
LINE
  5
1C0
  8
0
 62
     0
 10
178.30369239
 20
103.20895222
 30
0.0
 11
179.00780088
 21
103.91306072
 31
0.0
  0
LINE
  5
1C1
  8
0
 62
     0
 10
180.30443035
 20
105.20969018
 30
0.0
 11
180.7878121
 21
105.69307194
 31
0.0
  0
LINE
  5
1C2
  8
0
 62
     0
 10
178.62189044
 20
103.20895222
 30
0.0
 11
178.91716446
 21
103.50422625
 31
0.0
  0
LINE
  5
1C3
  8
0
 62
     0
 10
180.21379393
 20
104.80085571
 30
0.0
 11
181.10601015
 21
105.69307194
 31
0.0
  0
LINE
  5
1C4
  8
0
 62
     0
 10
180.12315751
 20
104.39202124
 30
0.0
 11
181.42420821
 21
105.69307194
 31
0.0
  0
LINE
  5
1C5
  8
0
 62
     0
 10
180.03252108
 20
103.98318677
 30
0.0
 11
181.74240626
 21
105.69307194
 31
0.0
  0
LINE
  5
1C6
  8
0
 62
     0
 10
179.94188466
 20
103.5743523
 30
0.0
 11
182.03643996
 21
105.66890759
 31
0.0
  0
LINE
  5
1C7
  8
0
 62
     0
 10
179.89468264
 20
103.20895222
 30
0.0
 11
181.94580354
 21
105.26007312
 31
0.0
  0
LINE
  5
1C8
  8
0
 62
     0
 10
180.2128807
 20
103.20895222
 30
0.0
 11
181.85771759
 21
104.85378912
 31
0.0
  0
LINE
  5
1C9
  8
0
 62
     0
 10
180.53107875
 20
103.20895222
 30
0.0
 11
182.41219641
 21
105.09006989
 31
0.0
  0
LINE
  5
1CA
  8
0
 62
     0
 10
180.8492768
 20
103.20895222
 30
0.0
 11
182.96667523
 21
105.32635066
 31
0.0
  0
LINE
  5
1CB
  8
0
 62
     0
 10
181.16747485
 20
103.20895222
 30
0.0
 11
181.58325786
 21
103.62473523
 31
0.0
  0
LINE
  5
1CC
  8
0
 62
     0
 10
181.90712467
 20
103.94860205
 30
0.0
 11
183.52115405
 21
105.56263143
 31
0.0
  0
LINE
  5
1CD
  8
0
 62
     0
 10
181.4856729
 20
103.20895222
 30
0.0
 11
181.49262143
 21
103.21590076
 31
0.0
  0
LINE
  5
1CE
  8
0
 62
     0
 10
182.3871298
 20
104.11040912
 30
0.0
 11
183.96979262
 21
105.69307194
 31
0.0
  0
LINE
  5
1CF
  8
0
 62
     0
 10
182.54515879
 20
103.95024006
 30
0.0
 11
184.28799067
 21
105.69307194
 31
0.0
  0
LINE
  5
1D0
  8
0
 62
     0
 10
182.70318778
 20
103.790071
 30
0.0
 11
184.60618872
 21
105.69307194
 31
0.0
  0
LINE
  5
1D1
  8
0
 62
     0
 10
182.86121677
 20
103.62990193
 30
0.0
 11
184.03347938
 21
104.80216454
 31
0.0
  0
LINE
  5
1D2
  8
0
 62
     0
 10
184.12503996
 20
104.89372513
 30
0.0
 11
184.92438677
 21
105.69307194
 31
0.0
  0
LINE
  5
1D3
  8
0
 62
     0
 10
183.01924576
 20
103.46973287
 30
0.0
 11
184.19150837
 21
104.64199548
 31
0.0
  0
LINE
  5
1D4
  8
0
 62
     0
 10
184.67951878
 20
105.1300059
 30
0.0
 11
185.24258482
 21
105.69307194
 31
0.0
  0
LINE
  5
1D5
  8
0
 62
     0
 10
183.17727475
 20
103.30956381
 30
0.0
 11
184.34953736
 21
104.48182642
 31
0.0
  0
LINE
  5
1D6
  8
0
 62
     0
 10
185.2339976
 20
105.36628667
 30
0.0
 11
185.56078288
 21
105.69307194
 31
0.0
  0
LINE
  5
1D7
  8
0
 62
     0
 10
183.39486121
 20
103.20895222
 30
0.0
 11
184.50756635
 21
104.32165736
 31
0.0
  0
LINE
  5
1D8
  8
0
 62
     0
 10
185.78847642
 20
105.60256744
 30
0.0
 11
185.87898093
 21
105.69307194
 31
0.0
  0
LINE
  5
1D9
  8
0
 62
     0
 10
183.71305926
 20
103.20895222
 30
0.0
 11
184.66559534
 21
104.1614883
 31
0.0
  0
LINE
  5
1DA
  8
0
 62
     0
 10
184.03125731
 20
103.20895222
 30
0.0
 11
184.82362433
 21
104.00131924
 31
0.0
  0
LINE
  5
1DB
  8
0
 62
     0
 10
184.34945537
 20
103.20895222
 30
0.0
 11
184.98165332
 21
103.84115018
 31
0.0
  0
LINE
  5
1DC
  8
0
 62
     0
 10
184.66765342
 20
103.20895222
 30
0.0
 11
185.13968231
 21
103.68098111
 31
0.0
  0
LINE
  5
1DD
  8
0
 62
     0
 10
184.98585147
 20
103.20895222
 30
0.0
 11
185.2977113
 21
103.52081205
 31
0.0
  0
LINE
  5
1DE
  8
0
 62
     0
 10
185.30404952
 20
103.20895222
 30
0.0
 11
185.45574029
 21
103.36064299
 31
0.0
  0
LINE
  5
1DF
  8
0
 62
     0
 10
190.30770136
 20
105.66701965
 30
0.0
 11
190.33448242
 21
105.69380071
 31
0.0
  0
LINE
  5
1E0
  8
0
 62
     0
 10
189.3531072
 20
104.39422745
 30
0.0
 11
190.65268047
 21
105.69380071
 31
0.0
  0
LINE
  5
1E1
  8
0
 62
     0
 10
188.48603004
 20
103.20895222
 30
0.0
 11
190.97087852
 21
105.69380071
 31
0.0
  0
LINE
  5
1E2
  8
0
 62
     0
 10
188.80422809
 20
103.20895222
 30
0.0
 11
191.28907657
 21
105.69380071
 31
0.0
  0
LINE
  5
1E3
  8
0
 62
     0
 10
189.12242614
 20
103.20895222
 30
0.0
 11
191.60727462
 21
105.69380071
 31
0.0
  0
LINE
  5
1E4
  8
0
 62
     0
 10
189.44062419
 20
103.20895222
 30
0.0
 11
191.92547268
 21
105.69380071
 31
0.0
  0
LINE
  5
1E5
  8
0
 62
     0
 10
189.75882224
 20
103.20895222
 30
0.0
 11
191.28468189
 21
104.73481187
 31
0.0
  0
LINE
  5
1E6
  8
0
 62
     0
 10
191.82859643
 20
105.27872641
 30
0.0
 11
192.24367073
 21
105.69380071
 31
0.0
  0
LINE
  5
1E7
  8
0
 62
     0
 10
190.07702029
 20
103.20895222
 30
0.0
 11
190.33008773
 21
103.46201966
 31
0.0
  0
LINE
  5
1E8
  8
0
 62
     0
 10
191.89223604
 20
105.02416797
 30
0.0
 11
192.56186878
 21
105.69380071
 31
0.0
  0
LINE
  5
1E9
  8
0
 62
     0
 10
190.55705187
 20
103.6889838
 30
0.0
 11
190.93023951
 21
104.06217144
 31
0.0
  0
LINE
  5
1EA
  8
0
 62
     0
 10
190.87524992
 20
103.6889838
 30
0.0
 11
191.24843756
 21
104.06217144
 31
0.0
  0
LINE
  5
1EB
  8
0
 62
     0
 10
191.95587565
 20
104.76960953
 30
0.0
 11
192.88006683
 21
105.69380071
 31
0.0
  0
LINE
  5
1EC
  8
0
 62
     0
 10
191.19344797
 20
103.6889838
 30
0.0
 11
191.56663561
 21
104.06217144
 31
0.0
  0
LINE
  5
1ED
  8
0
 62
     0
 10
192.01951526
 20
104.51505109
 30
0.0
 11
193.19826488
 21
105.69380071
 31
0.0
  0
LINE
  5
1EE
  8
0
 62
     0
 10
191.51164602
 20
103.6889838
 30
0.0
 11
191.88483366
 21
104.06217144
 31
0.0
  0
LINE
  5
1EF
  8
0
 62
     0
 10
192.08315487
 20
104.26049265
 30
0.0
 11
193.3292856
 21
105.50662338
 31
0.0
  0
LINE
  5
1F0
  8
0
 62
     0
 10
191.82984407
 20
103.6889838
 30
0.0
 11
193.39292521
 21
105.25206493
 31
0.0
  0
LINE
  5
1F1
  8
0
 62
     0
 10
192.14804213
 20
103.6889838
 30
0.0
 11
193.45656482
 21
104.99750649
 31
0.0
  0
LINE
  5
1F2
  8
0
 62
     0
 10
192.2740737
 20
103.49681732
 30
0.0
 11
193.52020443
 21
104.74294805
 31
0.0
  0
LINE
  5
1F3
  8
0
 62
     0
 10
192.33771331
 20
103.24225888
 30
0.0
 11
193.58384404
 21
104.48838961
 31
0.0
  0
LINE
  5
1F4
  8
0
 62
     0
 10
192.62260471
 20
103.20895222
 30
0.0
 11
193.64748365
 21
104.23383117
 31
0.0
  0
LINE
  5
1F5
  8
0
 62
     0
 10
192.94080276
 20
103.20895222
 30
0.0
 11
193.71112326
 21
103.97927273
 31
0.0
  0
LINE
  5
1F6
  8
0
 62
     0
 10
194.86403287
 20
105.13218233
 30
0.0
 11
195.24405355
 21
105.51220302
 31
0.0
  0
LINE
  5
1F7
  8
0
 62
     0
 10
193.25900081
 20
103.20895222
 30
0.0
 11
193.77476287
 21
103.72471429
 31
0.0
  0
LINE
  5
1F8
  8
0
 62
     0
 10
194.79591493
 20
104.74586635
 30
0.0
 11
195.61858584
 21
105.56853725
 31
0.0
  0
LINE
  5
1F9
  8
0
 62
     0
 10
193.57719886
 20
103.20895222
 30
0.0
 11
193.83840248
 21
103.47015585
 31
0.0
  0
LINE
  5
1FA
  8
0
 62
     0
 10
194.727797
 20
104.35955037
 30
0.0
 11
195.98130283
 21
105.6130562
 31
0.0
  0
LINE
  5
1FB
  8
0
 62
     0
 10
193.89539691
 20
103.20895222
 30
0.0
 11
193.90204209
 21
103.2155974
 31
0.0
  0
LINE
  5
1FC
  8
0
 62
     0
 10
194.65967907
 20
103.97323439
 30
0.0
 11
196.33335804
 21
105.64691336
 31
0.0
  0
LINE
  5
1FD
  8
0
 62
     0
 10
194.61527704
 20
103.6106343
 30
0.0
 11
196.67570979
 21
105.67106705
 31
0.0
  0
LINE
  5
1FE
  8
0
 62
     0
 10
194.73789355
 20
103.41505276
 30
0.0
 11
197.00916453
 21
105.68632374
 31
0.0
  0
LINE
  5
1FF
  8
0
 62
     0
 10
194.98395135
 20
103.34291251
 30
0.0
 11
196.340819
 21
104.69978016
 31
0.0
  0
LINE
  5
200
  8
0
 62
     0
 10
196.88271016
 20
105.24167132
 30
0.0
 11
197.33440858
 21
105.69336973
 31
0.0
  0
LINE
  5
201
  8
0
 62
     0
 10
195.26520309
 20
103.3059662
 30
0.0
 11
196.27270107
 21
104.31346417
 31
0.0
  0
LINE
  5
202
  8
0
 62
     0
 10
197.21921924
 20
105.25998234
 30
0.0
 11
197.65203167
 21
105.69279477
 31
0.0
  0
LINE
  5
203
  8
0
 62
     0
 10
195.55182226
 20
103.27438732
 30
0.0
 11
196.22509427
 21
103.94765933
 31
0.0
  0
LINE
  5
204
  8
0
 62
     0
 10
197.52632082
 20
105.24888588
 30
0.0
 11
197.96254492
 21
105.68510998
 31
0.0
  0
LINE
  5
205
  8
0
 62
     0
 10
195.84408785
 20
103.24845486
 30
0.0
 11
196.34387241
 21
103.74823941
 31
0.0
  0
LINE
  5
206
  8
0
 62
     0
 10
197.81042136
 20
105.21478836
 30
0.0
 11
198.26639468
 21
105.67076169
 31
0.0
  0
LINE
  5
207
  8
0
 62
     0
 10
196.14231225
 20
103.2284812
 30
0.0
 11
196.5883044
 21
103.67447335
 31
0.0
  0
LINE
  5
208
  8
0
 62
     0
 10
198.02599527
 20
105.11216422
 30
0.0
 11
198.56397335
 21
105.6501423
 31
0.0
  0
LINE
  5
209
  8
0
 62
     0
 10
196.44684693
 20
103.21481783
 30
0.0
 11
196.88362206
 21
103.65159296
 31
0.0
  0
LINE
  5
20A
  8
0
 62
     0
 10
198.19602228
 20
104.96399318
 30
0.0
 11
198.85562798
 21
105.62359888
 31
0.0
  0
LINE
  5
20B
  8
0
 62
     0
 10
197.3537816
 20
104.1217525
 30
0.0
 11
197.53340557
 21
104.30137647
 31
0.0
  0
LINE
  5
20C
  8
0
 62
     0
 10
196.75808957
 20
103.20786242
 30
0.0
 11
197.20483253
 21
103.65460538
 31
0.0
  0
LINE
  5
20D
  8
0
 62
     0
 10
198.51422033
 20
104.96399318
 30
0.0
 11
199.14166716
 21
105.59144001
 31
0.0
  0
LINE
  5
20E
  8
0
 62
     0
 10
197.62887635
 20
104.07864919
 30
0.0
 11
197.85160362
 21
104.30137647
 31
0.0
  0
LINE
  5
20F
  8
0
 62
     0
 10
197.0764928
 20
103.2080676
 30
0.0
 11
197.5603927
 21
103.69196749
 31
0.0
  0
LINE
  5
210
  8
0
 62
     0
 10
198.83241838
 20
104.96399318
 30
0.0
 11
199.42236665
 21
105.55394145
 31
0.0
  0
LINE
  5
211
  8
0
 62
     0
 10
197.9470744
 20
104.07864919
 30
0.0
 11
198.16980167
 21
104.30137647
 31
0.0
  0
LINE
  5
212
  8
0
 62
     0
 10
197.40257533
 20
103.21595207
 30
0.0
 11
198.48799972
 21
104.30137647
 31
0.0
  0
LINE
  5
213
  8
0
 62
     0
 10
199.15061643
 20
104.96399318
 30
0.0
 11
199.63874155
 21
105.4521183
 31
0.0
  0
LINE
  5
214
  8
0
 62
     0
 10
197.73693617
 20
103.23211487
 30
0.0
 11
198.80619777
 21
104.30137647
 31
0.0
  0
LINE
  5
215
  8
0
 62
     0
 10
199.46881448
 20
104.96399318
 30
0.0
 11
199.71954943
 21
105.21472813
 31
0.0
  0
LINE
  5
216
  8
0
 62
     0
 10
198.03197158
 20
103.20895222
 30
0.0
 11
199.12439582
 21
104.30137647
 31
0.0
  0
LINE
  5
217
  8
0
 62
     0
 10
198.35016963
 20
103.20895222
 30
0.0
 11
199.44259388
 21
104.30137647
 31
0.0
  0
LINE
  5
218
  8
0
 62
     0
 10
198.66836769
 20
103.20895222
 30
0.0
 11
199.51664729
 21
104.05723183
 31
0.0
  0
LINE
  5
219
  8
0
 62
     0
 10
198.98656574
 20
103.20895222
 30
0.0
 11
199.44852936
 21
103.67091585
 31
0.0
  0
LINE
  5
21A
  8
0
 62
     0
 10
199.30476379
 20
103.20895222
 30
0.0
 11
199.38041143
 21
103.28459986
 31
0.0
  0
LINE
  5
21B
  8
0
 62
     0
 10
174.89614482
 20
103.20895222
 30
0.0
 11
174.60253745
 21
103.50255959
 31
0.0
  0
LINE
  5
21C
  8
0
 62
     0
 10
173.17764436
 20
104.92745268
 30
0.0
 11
172.4120251
 21
105.69307194
 31
0.0
  0
LINE
  5
21D
  8
0
 62
     0
 10
173.9698574
 20
104.13523964
 30
0.0
 11
173.67987897
 21
104.42521807
 31
0.0
  0
LINE
  5
21E
  8
0
 62
     0
 10
173.65165935
 20
104.13523964
 30
0.0
 11
173.36168092
 21
104.42521807
 31
0.0
  0
LINE
  5
21F
  8
0
 62
     0
 10
173.11990259
 20
104.6669964
 30
0.0
 11
172.09382705
 21
105.69307194
 31
0.0
  0
LINE
  5
220
  8
0
 62
     0
 10
173.3334613
 20
104.13523964
 30
0.0
 11
171.775629
 21
105.69307194
 31
0.0
  0
LINE
  5
221
  8
0
 62
     0
 10
173.01526325
 20
104.13523964
 30
0.0
 11
171.60649832
 21
105.54400457
 31
0.0
  0
LINE
  5
222
  8
0
 62
     0
 10
172.94667729
 20
103.88562755
 30
0.0
 11
171.54875655
 21
105.28354829
 31
0.0
  0
LINE
  5
223
  8
0
 62
     0
 10
172.88893552
 20
103.62517127
 30
0.0
 11
171.49101478
 21
105.023092
 31
0.0
  0
LINE
  5
224
  8
0
 62
     0
 10
171.04622182
 20
105.46788497
 30
0.0
 11
170.82103484
 21
105.69307194
 31
0.0
  0
LINE
  5
225
  8
0
 62
     0
 10
172.83119375
 20
103.36471498
 30
0.0
 11
171.43327301
 21
104.76263572
 31
0.0
  0
LINE
  5
226
  8
0
 62
     0
 10
170.98848005
 20
105.20742868
 30
0.0
 11
170.50283679
 21
105.69307194
 31
0.0
  0
LINE
  5
227
  8
0
 62
     0
 10
172.66875846
 20
103.20895222
 30
0.0
 11
171.37553124
 21
104.50217944
 31
0.0
  0
LINE
  5
228
  8
0
 62
     0
 10
170.80566867
 20
105.07204201
 30
0.0
 11
170.18463874
 21
105.69307194
 31
0.0
  0
LINE
  5
229
  8
0
 62
     0
 10
172.3505604
 20
103.20895222
 30
0.0
 11
171.31778948
 21
104.24172315
 31
0.0
  0
LINE
  5
22A
  8
0
 62
     0
 10
170.48747062
 20
105.07204201
 30
0.0
 11
169.86644069
 21
105.69307194
 31
0.0
  0
LINE
  5
22B
  8
0
 62
     0
 10
172.03236235
 20
103.20895222
 30
0.0
 11
171.26004771
 21
103.98126687
 31
0.0
  0
LINE
  5
22C
  8
0
 62
     0
 10
170.16927257
 20
105.07204201
 30
0.0
 11
169.54824264
 21
105.69307194
 31
0.0
  0
LINE
  5
22D
  8
0
 62
     0
 10
171.7141643
 20
103.20895222
 30
0.0
 11
171.20230594
 21
103.72081059
 31
0.0
  0
LINE
  5
22E
  8
0
 62
     0
 10
169.85107451
 20
105.07204201
 30
0.0
 11
169.23004458
 21
105.69307194
 31
0.0
  0
LINE
  5
22F
  8
0
 62
     0
 10
171.39596625
 20
103.20895222
 30
0.0
 11
171.14456417
 21
103.4603543
 31
0.0
  0
LINE
  5
230
  8
0
 62
     0
 10
169.53287646
 20
105.07204201
 30
0.0
 11
168.91184653
 21
105.69307194
 31
0.0
  0
LINE
  5
231
  8
0
 62
     0
 10
169.30765056
 20
104.97906987
 30
0.0
 11
168.59364848
 21
105.69307194
 31
0.0
  0
LINE
  5
232
  8
0
 62
     0
 10
169.24990879
 20
104.71861358
 30
0.0
 11
168.27545043
 21
105.69307194
 31
0.0
  0
LINE
  5
233
  8
0
 62
     0
 10
169.19216702
 20
104.4581573
 30
0.0
 11
167.95725238
 21
105.69307194
 31
0.0
  0
LINE
  5
234
  8
0
 62
     0
 10
169.13442525
 20
104.19770102
 30
0.0
 11
167.63905433
 21
105.69307194
 31
0.0
  0
LINE
  5
235
  8
0
 62
     0
 10
169.07668348
 20
103.93724473
 30
0.0
 11
167.32085628
 21
105.69307194
 31
0.0
  0
LINE
  5
236
  8
0
 62
     0
 10
169.01894172
 20
103.67678845
 30
0.0
 11
167.00265822
 21
105.69307194
 31
0.0
  0
LINE
  5
237
  8
0
 62
     0
 10
168.96119995
 20
103.41633217
 30
0.0
 11
167.56327921
 21
104.8142529
 31
0.0
  0
LINE
  5
238
  8
0
 62
     0
 10
167.3054901
 20
105.07204201
 30
0.0
 11
166.68446017
 21
105.69307194
 31
0.0
  0
LINE
  5
239
  8
0
 62
     0
 10
168.85038184
 20
103.20895222
 30
0.0
 11
167.50553744
 21
104.55379662
 31
0.0
  0
LINE
  5
23A
  8
0
 62
     0
 10
166.98729205
 20
105.07204201
 30
0.0
 11
166.36626212
 21
105.69307194
 31
0.0
  0
LINE
  5
23B
  8
0
 62
     0
 10
168.53218379
 20
103.20895222
 30
0.0
 11
167.44779567
 21
104.29334034
 31
0.0
  0
LINE
  5
23C
  8
0
 62
     0
 10
166.669094
 20
105.07204201
 30
0.0
 11
166.17695864
 21
105.56417737
 31
0.0
  0
LINE
  5
23D
  8
0
 62
     0
 10
168.21398573
 20
103.20895222
 30
0.0
 11
167.39005391
 21
104.03288405
 31
0.0
  0
LINE
  5
23E
  8
0
 62
     0
 10
165.74926721
 20
105.67367074
 30
0.0
 11
165.72986602
 21
105.69307194
 31
0.0
  0
LINE
  5
23F
  8
0
 62
     0
 10
166.35089595
 20
105.07204201
 30
0.0
 11
166.11921687
 21
105.30372109
 31
0.0
  0
LINE
  5
240
  8
0
 62
     0
 10
167.89578768
 20
103.20895222
 30
0.0
 11
167.33231214
 21
103.77242777
 31
0.0
  0
LINE
  5
241
  8
0
 62
     0
 10
165.69152545
 20
105.41321446
 30
0.0
 11
165.41166797
 21
105.69307194
 31
0.0
  0
LINE
  5
242
  8
0
 62
     0
 10
167.57758963
 20
103.20895222
 30
0.0
 11
167.27457037
 21
103.51197149
 31
0.0
  0
LINE
  5
243
  8
0
 62
     0
 10
165.63378368
 20
105.15275818
 30
0.0
 11
165.09346991
 21
105.69307194
 31
0.0
  0
LINE
  5
244
  8
0
 62
     0
 10
167.25939158
 20
103.20895222
 30
0.0
 11
167.2168286
 21
103.2515152
 31
0.0
  0
LINE
  5
245
  8
0
 62
     0
 10
165.57604191
 20
104.89230189
 30
0.0
 11
164.77527186
 21
105.69307194
 31
0.0
  0
LINE
  5
246
  8
0
 62
     0
 10
165.51830014
 20
104.63184561
 30
0.0
 11
164.45707381
 21
105.69307194
 31
0.0
  0
LINE
  5
247
  8
0
 62
     0
 10
165.46055837
 20
104.37138933
 30
0.0
 11
164.13887576
 21
105.69307194
 31
0.0
  0
LINE
  5
248
  8
0
 62
     0
 10
165.40281661
 20
104.11093304
 30
0.0
 11
164.00842812
 21
105.50532153
 31
0.0
  0
LINE
  5
249
  8
0
 62
     0
 10
165.34507484
 20
103.85047676
 30
0.0
 11
163.95068635
 21
105.24486525
 31
0.0
  0
LINE
  5
24A
  8
0
 62
     0
 10
165.21380809
 20
103.66354546
 30
0.0
 11
163.89294458
 21
104.98440897
 31
0.0
  0
LINE
  5
24B
  8
0
 62
     0
 10
165.01744849
 20
103.541707
 30
0.0
 11
163.83520281
 21
104.72395268
 31
0.0
  0
LINE
  5
24C
  8
0
 62
     0
 10
164.80265246
 20
103.43830499
 30
0.0
 11
163.77746104
 21
104.4634964
 31
0.0
  0
LINE
  5
24D
  8
0
 62
     0
 10
164.5671734
 20
103.355586
 30
0.0
 11
163.71971928
 21
104.20304012
 31
0.0
  0
LINE
  5
24E
  8
0
 62
     0
 10
164.31518251
 20
103.28937883
 30
0.0
 11
163.61871167
 21
103.98584967
 31
0.0
  0
LINE
  5
24F
  8
0
 62
     0
 10
162.11861877
 20
105.48594257
 30
0.0
 11
161.9114894
 21
105.69307194
 31
0.0
  0
LINE
  5
250
  8
0
 62
     0
 10
164.051144
 20
103.23521929
 30
0.0
 11
163.42217573
 21
103.86418756
 31
0.0
  0
LINE
  5
251
  8
0
 62
     0
 10
162.060877
 20
105.22548629
 30
0.0
 11
161.59329135
 21
105.69307194
 31
0.0
  0
LINE
  5
252
  8
0
 62
     0
 10
163.77366986
 20
103.19449538
 30
0.0
 11
163.17740428
 21
103.79076096
 31
0.0
  0
LINE
  5
253
  8
0
 62
     0
 10
162.00313523
 20
104.96503001
 30
0.0
 11
161.2750933
 21
105.69307194
 31
0.0
  0
LINE
  5
254
  8
0
 62
     0
 10
163.48518176
 20
103.16478543
 30
0.0
 11
162.89383503
 21
103.75613215
 31
0.0
  0
LINE
  5
255
  8
0
 62
     0
 10
161.94539346
 20
104.70457372
 30
0.0
 11
160.95689524
 21
105.69307194
 31
0.0
  0
LINE
  5
256
  8
0
 62
     0
 10
163.18777869
 20
103.14399045
 30
0.0
 11
162.5712746
 21
103.76049454
 31
0.0
  0
LINE
  5
257
  8
0
 62
     0
 10
161.88765169
 20
104.44411744
 30
0.0
 11
160.63869719
 21
105.69307194
 31
0.0
  0
LINE
  5
258
  8
0
 62
     0
 10
162.88065039
 20
103.13292069
 30
0.0
 11
162.17664961
 21
103.83692147
 31
0.0
  0
LINE
  5
259
  8
0
 62
     0
 10
161.82990993
 20
104.18366116
 30
0.0
 11
160.43550979
 21
105.57806129
 31
0.0
  0
LINE
  5
25A
  8
0
 62
     0
 10
162.56281676
 20
103.13255627
 30
0.0
 11
160.37776802
 21
105.31760501
 31
0.0
  0
LINE
  5
25B
  8
0
 62
     0
 10
162.23307432
 20
103.14410066
 30
0.0
 11
160.32002625
 21
105.05714873
 31
0.0
  0
LINE
  5
25C
  8
0
 62
     0
 10
159.68460774
 20
105.69256724
 30
0.0
 11
159.68410304
 21
105.69307194
 31
0.0
  0
LINE
  5
25D
  8
0
 62
     0
 10
161.88991852
 20
103.16905841
 30
0.0
 11
160.26228448
 21
104.79669244
 31
0.0
  0
LINE
  5
25E
  8
0
 62
     0
 10
159.62686597
 20
105.43211096
 30
0.0
 11
159.36590499
 21
105.69307194
 31
0.0
  0
LINE
  5
25F
  8
0
 62
     0
 10
161.53090364
 20
103.20987524
 30
0.0
 11
160.20454272
 21
104.53623616
 31
0.0
  0
LINE
  5
260
  8
0
 62
     0
 10
159.48768537
 20
105.25309351
 30
0.0
 11
159.04770694
 21
105.69307194
 31
0.0
  0
LINE
  5
261
  8
0
 62
     0
 10
161.14083193
 20
103.2817489
 30
0.0
 11
160.14680095
 21
104.27577988
 31
0.0
  0
LINE
  5
262
  8
0
 62
     0
 10
159.16948732
 20
105.25309351
 30
0.0
 11
158.72950888
 21
105.69307194
 31
0.0
  0
LINE
  5
263
  8
0
 62
     0
 10
160.69595894
 20
103.40842384
 30
0.0
 11
160.08905918
 21
104.01532359
 31
0.0
  0
LINE
  5
264
  8
0
 62
     0
 10
158.85128927
 20
105.25309351
 30
0.0
 11
158.41131083
 21
105.69307194
 31
0.0
  0
LINE
  5
265
  8
0
 62
     0
 10
159.20527334
 20
104.58091138
 30
0.0
 11
159.19018342
 21
104.5960013
 31
0.0
  0
LINE
  5
266
  8
0
 62
     0
 10
158.53309121
 20
105.25309351
 30
0.0
 11
158.09311278
 21
105.69307194
 31
0.0
  0
LINE
  5
267
  8
0
 62
     0
 10
159.14753157
 20
104.3204551
 30
0.0
 11
158.87198537
 21
104.5960013
 31
0.0
  0
LINE
  5
268
  8
0
 62
     0
 10
158.21489316
 20
105.25309351
 30
0.0
 11
157.77491473
 21
105.69307194
 31
0.0
  0
LINE
  5
269
  8
0
 62
     0
 10
158.84376575
 20
104.30602287
 30
0.0
 11
158.55378732
 21
104.5960013
 31
0.0
  0
LINE
  5
26A
  8
0
 62
     0
 10
157.89669511
 20
105.25309351
 30
0.0
 11
157.45671668
 21
105.69307194
 31
0.0
  0
LINE
  5
26B
  8
0
 62
     0
 10
159.22267359
 20
103.60891698
 30
0.0
 11
159.18265991
 21
103.64893066
 31
0.0
  0
LINE
  5
26C
  8
0
 62
     0
 10
157.57849706
 20
105.25309351
 30
0.0
 11
157.13851863
 21
105.69307194
 31
0.0
  0
LINE
  5
26D
  8
0
 62
     0
 10
158.5255677
 20
104.30602287
 30
0.0
 11
158.23558927
 21
104.5960013
 31
0.0
  0
LINE
  5
26E
  8
0
 62
     0
 10
159.16493182
 20
103.34846069
 30
0.0
 11
158.86446186
 21
103.64893066
 31
0.0
  0
LINE
  5
26F
  8
0
 62
     0
 10
157.26029901
 20
105.25309351
 30
0.0
 11
156.82032058
 21
105.69307194
 31
0.0
  0
LINE
  5
270
  8
0
 62
     0
 10
158.20736965
 20
104.30602287
 30
0.0
 11
157.91739122
 21
104.5960013
 31
0.0
  0
LINE
  5
271
  8
0
 62
     0
 10
158.98624224
 20
103.20895222
 30
0.0
 11
158.54626381
 21
103.64893066
 31
0.0
  0
LINE
  5
272
  8
0
 62
     0
 10
156.94210096
 20
105.25309351
 30
0.0
 11
156.50212252
 21
105.69307194
 31
0.0
  0
LINE
  5
273
  8
0
 62
     0
 10
157.8891716
 20
104.30602287
 30
0.0
 11
157.59919317
 21
104.5960013
 31
0.0
  0
LINE
  5
274
  8
0
 62
     0
 10
158.66804419
 20
103.20895222
 30
0.0
 11
158.22806576
 21
103.64893066
 31
0.0
  0
LINE
  5
275
  8
0
 62
     0
 10
156.63485792
 20
105.24213849
 30
0.0
 11
156.18392447
 21
105.69307194
 31
0.0
  0
LINE
  5
276
  8
0
 62
     0
 10
157.57097355
 20
104.30602287
 30
0.0
 11
157.28099511
 21
104.5960013
 31
0.0
  0
LINE
  5
277
  8
0
 62
     0
 10
158.34984614
 20
103.20895222
 30
0.0
 11
157.9098677
 21
103.64893066
 31
0.0
  0
LINE
  5
278
  8
0
 62
     0
 10
156.57711615
 20
104.98168221
 30
0.0
 11
155.86572642
 21
105.69307194
 31
0.0
  0
LINE
  5
279
  8
0
 62
     0
 10
157.25277549
 20
104.30602287
 30
0.0
 11
156.96279706
 21
104.5960013
 31
0.0
  0
LINE
  5
27A
  8
0
 62
     0
 10
158.03164808
 20
103.20895222
 30
0.0
 11
157.59166965
 21
103.64893066
 31
0.0
  0
LINE
  5
27B
  8
0
 62
     0
 10
156.51937439
 20
104.72122592
 30
0.0
 11
155.54752837
 21
105.69307194
 31
0.0
  0
LINE
  5
27C
  8
0
 62
     0
 10
156.93457744
 20
104.30602287
 30
0.0
 11
156.64459901
 21
104.5960013
 31
0.0
  0
LINE
  5
27D
  8
0
 62
     0
 10
157.71345003
 20
103.20895222
 30
0.0
 11
157.2734716
 21
103.64893066
 31
0.0
  0
LINE
  5
27E
  8
0
 62
     0
 10
156.61637939
 20
104.30602287
 30
0.0
 11
155.22933032
 21
105.69307194
 31
0.0
  0
LINE
  5
27F
  8
0
 62
     0
 10
157.39525198
 20
103.20895222
 30
0.0
 11
156.95527355
 21
103.64893066
 31
0.0
  0
LINE
  5
280
  8
0
 62
     0
 10
156.40389085
 20
104.20031336
 30
0.0
 11
155.00597011
 21
105.59823409
 31
0.0
  0
LINE
  5
281
  8
0
 62
     0
 10
157.07705393
 20
103.20895222
 30
0.0
 11
156.6370755
 21
103.64893066
 31
0.0
  0
LINE
  5
282
  8
0
 62
     0
 10
156.34614908
 20
103.93985707
 30
0.0
 11
154.94822834
 21
105.33777781
 31
0.0
  0
LINE
  5
283
  8
0
 62
     0
 10
156.75885588
 20
103.20895222
 30
0.0
 11
156.31887745
 21
103.64893066
 31
0.0
  0
LINE
  5
284
  8
0
 62
     0
 10
156.28840731
 20
103.67940079
 30
0.0
 11
154.89048658
 21
105.07732153
 31
0.0
  0
LINE
  5
285
  8
0
 62
     0
 10
156.44065783
 20
103.20895222
 30
0.0
 11
154.83274481
 21
104.81686524
 31
0.0
  0
LINE
  5
286
  8
0
 62
     0
 10
154.13378444
 20
105.51582561
 30
0.0
 11
153.95653811
 21
105.69307194
 31
0.0
  0
LINE
  5
287
  8
0
 62
     0
 10
156.12245978
 20
103.20895222
 30
0.0
 11
154.77500304
 21
104.55640896
 31
0.0
  0
LINE
  5
288
  8
0
 62
     0
 10
154.07604267
 20
105.25536933
 30
0.0
 11
153.63834006
 21
105.69307194
 31
0.0
  0
LINE
  5
289
  8
0
 62
     0
 10
155.80426172
 20
103.20895222
 30
0.0
 11
154.71726127
 21
104.29595268
 31
0.0
  0
LINE
  5
28A
  8
0
 62
     0
 10
154.0183009
 20
104.99491304
 30
0.0
 11
153.32014201
 21
105.69307194
 31
0.0
  0
LINE
  5
28B
  8
0
 62
     0
 10
155.48606367
 20
103.20895222
 30
0.0
 11
154.65951951
 21
104.03549639
 31
0.0
  0
LINE
  5
28C
  8
0
 62
     0
 10
153.96055914
 20
104.73445676
 30
0.0
 11
153.00194396
 21
105.69307194
 31
0.0
  0
LINE
  5
28D
  8
0
 62
     0
 10
155.16786562
 20
103.20895222
 30
0.0
 11
154.60177774
 21
103.77504011
 31
0.0
  0
LINE
  5
28E
  8
0
 62
     0
 10
153.90281737
 20
104.47400048
 30
0.0
 11
152.68374591
 21
105.69307194
 31
0.0
  0
LINE
  5
28F
  8
0
 62
     0
 10
154.84966757
 20
103.20895222
 30
0.0
 11
154.54403597
 21
103.51458382
 31
0.0
  0
LINE
  5
290
  8
0
 62
     0
 10
153.8450756
 20
104.21354419
 30
0.0
 11
152.44715486
 21
105.61146493
 31
0.0
  0
LINE
  5
291
  8
0
 62
     0
 10
154.53146952
 20
103.20895222
 30
0.0
 11
154.4862942
 21
103.25412754
 31
0.0
  0
LINE
  5
292
  8
0
 62
     0
 10
153.78733383
 20
103.95308791
 30
0.0
 11
152.38941309
 21
105.35100865
 31
0.0
  0
LINE
  5
293
  8
0
 62
     0
 10
153.72959206
 20
103.69263163
 30
0.0
 11
152.33167133
 21
105.09055236
 31
0.0
  0
LINE
  5
294
  8
0
 62
     0
 10
153.6718503
 20
103.43217534
 30
0.0
 11
152.27392956
 21
104.83009608
 31
0.0
  0
LINE
  5
295
  8
0
 62
     0
 10
153.57687536
 20
103.20895222
 30
0.0
 11
152.07330356
 21
104.71252402
 31
0.0
  0
LINE
  5
296
  8
0
 62
     0
 10
153.25867731
 20
103.20895222
 30
0.0
 11
150.99958225
 21
105.46804729
 31
0.0
  0
LINE
  5
297
  8
0
 62
     0
 10
152.94047926
 20
103.20895222
 30
0.0
 11
150.45635954
 21
105.69307194
 31
0.0
  0
LINE
  5
298
  8
0
 62
     0
 10
152.62228121
 20
103.20895222
 30
0.0
 11
150.13816149
 21
105.69307194
 31
0.0
  0
LINE
  5
299
  8
0
 62
     0
 10
152.30408316
 20
103.20895222
 30
0.0
 11
149.81996344
 21
105.69307194
 31
0.0
  0
LINE
  5
29A
  8
0
 62
     0
 10
151.98588511
 20
103.20895222
 30
0.0
 11
149.50176539
 21
105.69307194
 31
0.0
  0
LINE
  5
29B
  8
0
 62
     0
 10
151.5426646
 20
103.33397468
 30
0.0
 11
149.18356734
 21
105.69307194
 31
0.0
  0
LINE
  5
29C
  8
0
 62
     0
 10
150.09636542
 20
104.46207581
 30
0.0
 11
148.86536929
 21
105.69307194
 31
0.0
  0
LINE
  5
29D
  8
0
 62
     0
 10
150.03862365
 20
104.20161953
 30
0.0
 11
148.64070291
 21
105.59954026
 31
0.0
  0
LINE
  5
29E
  8
0
 62
     0
 10
149.98088188
 20
103.94116324
 30
0.0
 11
148.58296114
 21
105.33908398
 31
0.0
  0
LINE
  5
29F
  8
0
 62
     0
 10
149.92314011
 20
103.68070696
 30
0.0
 11
148.52521938
 21
105.0786277
 31
0.0
  0
LINE
  5
2A0
  8
0
 62
     0
 10
149.86539835
 20
103.42025067
 30
0.0
 11
148.46747761
 21
104.81817141
 31
0.0
  0
LINE
  5
2A1
  8
0
 62
     0
 10
149.75849874
 20
103.20895222
 30
0.0
 11
148.40973584
 21
104.55771513
 31
0.0
  0
LINE
  5
2A2
  8
0
 62
     0
 10
149.44030069
 20
103.20895222
 30
0.0
 11
148.35199407
 21
104.29725885
 31
0.0
  0
LINE
  5
2A3
  8
0
 62
     0
 10
149.12210264
 20
103.20895222
 30
0.0
 11
148.2942523
 21
104.03680256
 31
0.0
  0
LINE
  5
2A4
  8
0
 62
     0
 10
148.80390459
 20
103.20895222
 30
0.0
 11
148.23651054
 21
103.77634628
 31
0.0
  0
LINE
  5
2A5
  8
0
 62
     0
 10
148.48570654
 20
103.20895222
 30
0.0
 11
148.17876877
 21
103.51588999
 31
0.0
  0
LINE
  5
2A6
  8
0
 62
     0
 10
148.16750849
 20
103.20895222
 30
0.0
 11
148.121027
 21
103.25543371
 31
0.0
  0
LINE
  5
2A7
  8
0
 62
     0
 10
175.21434287
 20
103.20895222
 30
0.0
 11
174.6229947
 21
103.80030039
 31
0.0
  0
LINE
  5
2A8
  8
0
 62
     0
 10
173.23538612
 20
105.18790897
 30
0.0
 11
172.73022315
 21
105.69307194
 31
0.0
  0
LINE
  5
2A9
  8
0
 62
     0
 10
174.28805546
 20
104.13523964
 30
0.0
 11
173.99807702
 21
104.42521807
 31
0.0
  0
LINE
  5
2AA
  8
0
 62
     0
 10
175.53254092
 20
103.20895222
 30
0.0
 11
174.31627508
 21
104.42521807
 31
0.0
  0
LINE
  5
2AB
  8
0
 62
     0
 10
173.48839964
 20
105.25309351
 30
0.0
 11
173.0484212
 21
105.69307194
 31
0.0
  0
LINE
  5
2AC
  8
0
 62
     0
 10
175.85073897
 20
103.20895222
 30
0.0
 11
174.58654126
 21
104.47314994
 31
0.0
  0
LINE
  5
2AD
  8
0
 62
     0
 10
173.80659769
 20
105.25309351
 30
0.0
 11
173.36661925
 21
105.69307194
 31
0.0
  0
LINE
  5
2AE
  8
0
 62
     0
 10
176.16893702
 20
103.20895222
 30
0.0
 11
174.78956454
 21
104.58832471
 31
0.0
  0
LINE
  5
2AF
  8
0
 62
     0
 10
174.12479574
 20
105.25309351
 30
0.0
 11
173.68481731
 21
105.69307194
 31
0.0
  0
LINE
  5
2B0
  8
0
 62
     0
 10
176.31142199
 20
103.38466531
 30
0.0
 11
174.92768358
 21
104.76840372
 31
0.0
  0
LINE
  5
2B1
  8
0
 62
     0
 10
174.44299379
 20
105.25309351
 30
0.0
 11
174.00301536
 21
105.69307194
 31
0.0
  0
LINE
  5
2B2
  8
0
 62
     0
 10
176.32363868
 20
103.69064667
 30
0.0
 11
174.91467088
 21
105.09961447
 31
0.0
  0
LINE
  5
2B3
  8
0
 62
     0
 10
174.79161547
 20
105.22266988
 30
0.0
 11
174.32121341
 21
105.69307194
 31
0.0
  0
LINE
  5
2B4
  8
0
 62
     0
 10
176.34443504
 20
103.98804836
 30
0.0
 11
174.63941146
 21
105.69307194
 31
0.0
  0
LINE
  5
2B5
  8
0
 62
     0
 10
177.44172923
 20
103.20895222
 30
0.0
 11
177.1979222
 21
103.45275926
 31
0.0
  0
LINE
  5
2B6
  8
0
 62
     0
 10
176.28661537
 20
104.36406608
 30
0.0
 11
174.95760951
 21
105.69307194
 31
0.0
  0
LINE
  5
2B7
  8
0
 62
     0
 10
177.75992728
 20
103.20895222
 30
0.0
 11
177.25566397
 21
103.71321554
 31
0.0
  0
LINE
  5
2B8
  8
0
 62
     0
 10
176.48170003
 20
104.48717947
 30
0.0
 11
175.27580756
 21
105.69307194
 31
0.0
  0
LINE
  5
2B9
  8
0
 62
     0
 10
178.07812533
 20
103.20895222
 30
0.0
 11
177.31340573
 21
103.97367182
 31
0.0
  0
LINE
  5
2BA
  8
0
 62
     0
 10
176.65028609
 20
104.63679147
 30
0.0
 11
175.59400562
 21
105.69307194
 31
0.0
  0
LINE
  5
2BB
  8
0
 62
     0
 10
178.39632338
 20
103.20895222
 30
0.0
 11
177.3711475
 21
104.23412811
 31
0.0
  0
LINE
  5
2BC
  8
0
 62
     0
 10
176.78534553
 20
104.81993008
 30
0.0
 11
175.91220367
 21
105.69307194
 31
0.0
  0
LINE
  5
2BD
  8
0
 62
     0
 10
178.71452143
 20
103.20895222
 30
0.0
 11
177.42888927
 21
104.49458439
 31
0.0
  0
LINE
  5
2BE
  8
0
 62
     0
 10
176.87090235
 20
105.05257131
 30
0.0
 11
176.25542788
 21
105.66804578
 31
0.0
  0
LINE
  5
2BF
  8
0
 62
     0
 10
178.88455178
 20
103.35711994
 30
0.0
 11
177.48663104
 21
104.75504067
 31
0.0
  0
LINE
  5
2C0
  8
0
 62
     0
 10
178.94229354
 20
103.61757622
 30
0.0
 11
177.5443728
 21
105.01549696
 31
0.0
  0
LINE
  5
2C1
  8
0
 62
     0
 10
179.00003531
 20
103.8780325
 30
0.0
 11
177.60211457
 21
105.27595324
 31
0.0
  0
LINE
  5
2C2
  8
0
 62
     0
 10
179.98731364
 20
103.20895222
 30
0.0
 11
179.88382115
 21
103.31244471
 31
0.0
  0
LINE
  5
2C3
  8
0
 62
     0
 10
179.05777708
 20
104.13848879
 30
0.0
 11
177.65985634
 21
105.53640952
 31
0.0
  0
LINE
  5
2C4
  8
0
 62
     0
 10
180.30551169
 20
103.20895222
 30
0.0
 11
179.94156292
 21
103.572901
 31
0.0
  0
LINE
  5
2C5
  8
0
 62
     0
 10
179.11551885
 20
104.39894507
 30
0.0
 11
177.82139198
 21
105.69307194
 31
0.0
  0
LINE
  5
2C6
  8
0
 62
     0
 10
180.62370974
 20
103.20895222
 30
0.0
 11
179.99930469
 21
103.83335728
 31
0.0
  0
LINE
  5
2C7
  8
0
 62
     0
 10
179.17326061
 20
104.65940135
 30
0.0
 11
178.13959003
 21
105.69307194
 31
0.0
  0
LINE
  5
2C8
  8
0
 62
     0
 10
180.94190779
 20
103.20895222
 30
0.0
 11
180.05704646
 21
104.09381356
 31
0.0
  0
LINE
  5
2C9
  8
0
 62
     0
 10
179.23100238
 20
104.91985764
 30
0.0
 11
178.45778808
 21
105.69307194
 31
0.0
  0
LINE
  5
2CA
  8
0
 62
     0
 10
181.26010585
 20
103.20895222
 30
0.0
 11
180.11478822
 21
104.35426985
 31
0.0
  0
LINE
  5
2CB
  8
0
 62
     0
 10
179.28874415
 20
105.18031392
 30
0.0
 11
178.77598613
 21
105.69307194
 31
0.0
  0
LINE
  5
2CC
  8
0
 62
     0
 10
181.50690888
 20
103.28034725
 30
0.0
 11
180.17252999
 21
104.61472613
 31
0.0
  0
LINE
  5
2CD
  8
0
 62
     0
 10
179.34648592
 20
105.4407702
 30
0.0
 11
179.09418418
 21
105.69307194
 31
0.0
  0
LINE
  5
2CE
  8
0
 62
     0
 10
181.56465065
 20
103.54080353
 30
0.0
 11
180.23027176
 21
104.87518242
 31
0.0
  0
LINE
  5
2CF
  8
0
 62
     0
 10
181.62239241
 20
103.80125981
 30
0.0
 11
180.28801353
 21
105.1356387
 31
0.0
  0
LINE
  5
2D0
  8
0
 62
     0
 10
181.82727477
 20
103.91457551
 30
0.0
 11
180.34575529
 21
105.39609498
 31
0.0
  0
LINE
  5
2D1
  8
0
 62
     0
 10
182.05039452
 20
104.00965381
 30
0.0
 11
180.40349706
 21
105.65655127
 31
0.0
  0
LINE
  5
2D2
  8
0
 62
     0
 10
182.27351427
 20
104.10473211
 30
0.0
 11
180.68517444
 21
105.69307194
 31
0.0
  0
LINE
  5
2D3
  8
0
 62
     0
 10
183.48749221
 20
103.20895222
 30
0.0
 11
181.00337249
 21
105.69307194
 31
0.0
  0
LINE
  5
2D4
  8
0
 62
     0
 10
183.80569026
 20
103.20895222
 30
0.0
 11
182.0702757
 21
104.94436678
 31
0.0
  0
LINE
  5
2D5
  8
0
 62
     0
 10
181.91110125
 20
105.10354123
 30
0.0
 11
181.32157054
 21
105.69307194
 31
0.0
  0
LINE
  5
2D6
  8
0
 62
     0
 10
184.12388831
 20
103.20895222
 30
0.0
 11
182.29339545
 21
105.03944508
 31
0.0
  0
LINE
  5
2D7
  8
0
 62
     0
 10
181.96884302
 20
105.36399751
 30
0.0
 11
181.63976859
 21
105.69307194
 31
0.0
  0
LINE
  5
2D8
  8
0
 62
     0
 10
184.44208636
 20
103.20895222
 30
0.0
 11
182.5165152
 21
105.13452339
 31
0.0
  0
LINE
  5
2D9
  8
0
 62
     0
 10
182.02658479
 20
105.6244538
 30
0.0
 11
181.95796665
 21
105.69307194
 31
0.0
  0
LINE
  5
2DA
  8
0
 62
     0
 10
184.76028441
 20
103.20895222
 30
0.0
 11
182.73963495
 21
105.22960169
 31
0.0
  0
LINE
  5
2DB
  8
0
 62
     0
 10
185.07848246
 20
103.20895222
 30
0.0
 11
182.9627547
 21
105.32467999
 31
0.0
  0
LINE
  5
2DC
  8
0
 62
     0
 10
185.39668052
 20
103.20895222
 30
0.0
 11
183.18587444
 21
105.4197583
 31
0.0
  0
LINE
  5
2DD
  8
0
 62
     0
 10
184.05847225
 20
104.86535854
 30
0.0
 11
183.40899419
 21
105.5148366
 31
0.0
  0
LINE
  5
2DE
  8
0
 62
     0
 10
184.281592
 20
104.96043685
 30
0.0
 11
183.63211394
 21
105.60991491
 31
0.0
  0
LINE
  5
2DF
  8
0
 62
     0
 10
184.50471175
 20
105.05551515
 30
0.0
 11
183.86715496
 21
105.69307194
 31
0.0
  0
LINE
  5
2E0
  8
0
 62
     0
 10
184.72783149
 20
105.15059345
 30
0.0
 11
184.18535301
 21
105.69307194
 31
0.0
  0
LINE
  5
2E1
  8
0
 62
     0
 10
184.95095124
 20
105.24567176
 30
0.0
 11
184.50355106
 21
105.69307194
 31
0.0
  0
LINE
  5
2E2
  8
0
 62
     0
 10
185.17407099
 20
105.34075006
 30
0.0
 11
184.82174911
 21
105.69307194
 31
0.0
  0
LINE
  5
2E3
  8
0
 62
     0
 10
185.39719074
 20
105.43582837
 30
0.0
 11
185.13994716
 21
105.69307194
 31
0.0
  0
LINE
  5
2E4
  8
0
 62
     0
 10
185.62031048
 20
105.53090667
 30
0.0
 11
185.45814521
 21
105.69307194
 31
0.0
  0
LINE
  5
2E5
  8
0
 62
     0
 10
185.84343023
 20
105.62598497
 30
0.0
 11
185.77634326
 21
105.69307194
 31
0.0
  0
LINE
  5
2E6
  8
0
 62
     0
 10
188.57866103
 20
103.20895222
 30
0.0
 11
188.51322661
 21
103.27438665
 31
0.0
  0
LINE
  5
2E7
  8
0
 62
     0
 10
188.89685908
 20
103.20895222
 30
0.0
 11
188.6495972
 21
103.45621411
 31
0.0
  0
LINE
  5
2E8
  8
0
 62
     0
 10
189.21505713
 20
103.20895222
 30
0.0
 11
188.78596779
 21
103.63804157
 31
0.0
  0
LINE
  5
2E9
  8
0
 62
     0
 10
189.53325519
 20
103.20895222
 30
0.0
 11
188.92233839
 21
103.81986902
 31
0.0
  0
LINE
  5
2EA
  8
0
 62
     0
 10
189.85145324
 20
103.20895222
 30
0.0
 11
189.05870898
 21
104.00169648
 31
0.0
  0
LINE
  5
2EB
  8
0
 62
     0
 10
190.15287178
 20
103.22573173
 30
0.0
 11
189.19507958
 21
104.18352394
 31
0.0
  0
LINE
  5
2EC
  8
0
 62
     0
 10
190.28924238
 20
103.40755919
 30
0.0
 11
189.33145017
 21
104.3653514
 31
0.0
  0
LINE
  5
2ED
  8
0
 62
     0
 10
190.42561297
 20
103.58938665
 30
0.0
 11
189.46782076
 21
104.54717886
 31
0.0
  0
LINE
  5
2EE
  8
0
 62
     0
 10
190.64421387
 20
103.6889838
 30
0.0
 11
189.60419136
 21
104.72900631
 31
0.0
  0
LINE
  5
2EF
  8
0
 62
     0
 10
190.96241192
 20
103.6889838
 30
0.0
 11
189.74056195
 21
104.91083377
 31
0.0
  0
LINE
  5
2F0
  8
0
 62
     0
 10
191.28060997
 20
103.6889838
 30
0.0
 11
190.90742233
 21
104.06217144
 31
0.0
  0
LINE
  5
2F1
  8
0
 62
     0
 10
190.83472475
 20
104.13486902
 30
0.0
 11
189.87693254
 21
105.09266123
 31
0.0
  0
LINE
  5
2F2
  8
0
 62
     0
 10
191.59880802
 20
103.6889838
 30
0.0
 11
191.22562038
 21
104.06217144
 31
0.0
  0
LINE
  5
2F3
  8
0
 62
     0
 10
190.97109534
 20
104.31669648
 30
0.0
 11
190.01330314
 21
105.27448869
 31
0.0
  0
LINE
  5
2F4
  8
0
 62
     0
 10
192.39703765
 20
103.20895222
 30
0.0
 11
192.32904075
 21
103.27694912
 31
0.0
  0
LINE
  5
2F5
  8
0
 62
     0
 10
191.10746594
 20
104.49852394
 30
0.0
 11
190.14967373
 21
105.45631615
 31
0.0
  0
LINE
  5
2F6
  8
0
 62
     0
 10
191.91700608
 20
103.6889838
 30
0.0
 11
191.54381844
 21
104.06217144
 31
0.0
  0
LINE
  5
2F7
  8
0
 62
     0
 10
192.7152357
 20
103.20895222
 30
0.0
 11
191.86201649
 21
104.06217144
 31
0.0
  0
LINE
  5
2F8
  8
0
 62
     0
 10
191.24383653
 20
104.6803514
 30
0.0
 11
190.28604432
 21
105.6381436
 31
0.0
  0
LINE
  5
2F9
  8
0
 62
     0
 10
193.03343375
 20
103.20895222
 30
0.0
 11
192.11690872
 21
104.12547726
 31
0.0
  0
LINE
  5
2FA
  8
0
 62
     0
 10
191.38020712
 20
104.86217885
 30
0.0
 11
190.54858527
 21
105.69380071
 31
0.0
  0
LINE
  5
2FB
  8
0
 62
     0
 10
193.3516318
 20
103.20895222
 30
0.0
 11
192.0108427
 21
104.54974133
 31
0.0
  0
LINE
  5
2FC
  8
0
 62
     0
 10
191.51657772
 20
105.04400631
 30
0.0
 11
190.86678332
 21
105.69380071
 31
0.0
  0
LINE
  5
2FD
  8
0
 62
     0
 10
193.66982986
 20
103.20895222
 30
0.0
 11
191.90477668
 21
104.9740054
 31
0.0
  0
LINE
  5
2FE
  8
0
 62
     0
 10
191.65294831
 20
105.22583377
 30
0.0
 11
191.18498137
 21
105.69380071
 31
0.0
  0
LINE
  5
2FF
  8
0
 62
     0
 10
193.87559521
 20
103.32138492
 30
0.0
 11
191.79871067
 21
105.39826947
 31
0.0
  0
LINE
  5
300
  8
0
 62
     0
 10
191.78931891
 20
105.40766123
 30
0.0
 11
191.50317942
 21
105.69380071
 31
0.0
  0
LINE
  5
301
  8
0
 62
     0
 10
193.7695292
 20
103.74564899
 30
0.0
 11
191.82137747
 21
105.69380071
 31
0.0
  0
LINE
  5
302
  8
0
 62
     0
 10
193.66346318
 20
104.16991306
 30
0.0
 11
192.13957553
 21
105.69380071
 31
0.0
  0
LINE
  5
303
  8
0
 62
     0
 10
194.73249213
 20
103.41908216
 30
0.0
 11
194.67397189
 21
103.4776024
 31
0.0
  0
LINE
  5
304
  8
0
 62
     0
 10
193.55739716
 20
104.59417713
 30
0.0
 11
192.45777358
 21
105.69380071
 31
0.0
  0
LINE
  5
305
  8
0
 62
     0
 10
195.14929802
 20
103.32047432
 30
0.0
 11
194.63522483
 21
103.8345475
 31
0.0
  0
LINE
  5
306
  8
0
 62
     0
 10
193.45133114
 20
105.0184412
 30
0.0
 11
192.77597163
 21
105.69380071
 31
0.0
  0
LINE
  5
307
  8
0
 62
     0
 10
195.50928173
 20
103.27868866
 30
0.0
 11
194.68292152
 21
104.10504887
 31
0.0
  0
LINE
  5
308
  8
0
 62
     0
 10
193.34526513
 20
105.44270526
 30
0.0
 11
193.09416968
 21
105.69380071
 31
0.0
  0
LINE
  5
309
  8
0
 62
     0
 10
195.85885669
 20
103.24731176
 30
0.0
 11
194.73061821
 21
104.37555023
 31
0.0
  0
LINE
  5
30A
  8
0
 62
     0
 10
196.19894018
 20
103.22542632
 30
0.0
 11
194.7783149
 21
104.64605159
 31
0.0
  0
LINE
  5
30B
  8
0
 62
     0
 10
196.53030639
 20
103.21225815
 30
0.0
 11
194.82601159
 21
104.91655296
 31
0.0
  0
LINE
  5
30C
  8
0
 62
     0
 10
196.85361584
 20
103.20714676
 30
0.0
 11
194.87370828
 21
105.18705432
 31
0.0
  0
LINE
  5
30D
  8
0
 62
     0
 10
197.16943734
 20
103.20952331
 30
0.0
 11
196.71754314
 21
103.66141751
 31
0.0
  0
LINE
  5
30E
  8
0
 62
     0
 10
196.24164188
 20
104.13731877
 30
0.0
 11
194.97049885
 21
105.4084618
 31
0.0
  0
LINE
  5
30F
  8
0
 62
     0
 10
197.47826485
 20
103.21889385
 30
0.0
 11
197.04764908
 21
103.64950962
 31
0.0
  0
LINE
  5
310
  8
0
 62
     0
 10
196.28933857
 20
104.40782013
 30
0.0
 11
195.19339133
 21
105.50376737
 31
0.0
  0
LINE
  5
311
  8
0
 62
     0
 10
197.78053048
 20
103.23482627
 30
0.0
 11
197.3498672
 21
103.66548955
 31
0.0
  0
LINE
  5
312
  8
0
 62
     0
 10
196.33703526
 20
104.67832149
 30
0.0
 11
195.46817154
 21
105.54718521
 31
0.0
  0
LINE
  5
313
  8
0
 62
     0
 10
198.12460258
 20
103.20895222
 30
0.0
 11
197.63000877
 21
103.70354603
 31
0.0
  0
LINE
  5
314
  8
0
 62
     0
 10
196.38473195
 20
104.94882286
 30
0.0
 11
195.7480052
 21
105.5855496
 31
0.0
  0
LINE
  5
315
  8
0
 62
     0
 10
198.44280063
 20
103.20895222
 30
0.0
 11
197.85552553
 21
103.79622732
 31
0.0
  0
LINE
  5
316
  8
0
 62
     0
 10
196.50299944
 20
105.14875342
 30
0.0
 11
196.03313543
 21
105.61861743
 31
0.0
  0
LINE
  5
317
  8
0
 62
     0
 10
197.57310366
 20
104.07864919
 30
0.0
 11
197.38019613
 21
104.27155673
 31
0.0
  0
LINE
  5
318
  8
0
 62
     0
 10
198.76099868
 20
103.20895222
 30
0.0
 11
197.95598758
 21
104.01396333
 31
0.0
  0
LINE
  5
319
  8
0
 62
     0
 10
196.74504123
 20
105.22490967
 30
0.0
 11
196.32383296
 21
105.64611795
 31
0.0
  0
LINE
  5
31A
  8
0
 62
     0
 10
197.89130171
 20
104.07864919
 30
0.0
 11
197.66857444
 21
104.30137647
 31
0.0
  0
LINE
  5
31B
  8
0
 62
     0
 10
199.07919673
 20
103.20895222
 30
0.0
 11
197.98677249
 21
104.30137647
 31
0.0
  0
LINE
  5
31C
  8
0
 62
     0
 10
197.03427463
 20
105.25387433
 30
0.0
 11
196.62040055
 21
105.66774841
 31
0.0
  0
LINE
  5
31D
  8
0
 62
     0
 10
199.37161787
 20
103.23472914
 30
0.0
 11
198.30497054
 21
104.30137647
 31
0.0
  0
LINE
  5
31E
  8
0
 62
     0
 10
197.34778077
 20
105.25856624
 30
0.0
 11
196.9231784
 21
105.68316861
 31
0.0
  0
LINE
  5
31F
  8
0
 62
     0
 10
199.41931456
 20
103.5052305
 30
0.0
 11
198.62316859
 21
104.30137647
 31
0.0
  0
LINE
  5
320
  8
0
 62
     0
 10
197.69283203
 20
105.23171303
 30
0.0
 11
197.23255081
 21
105.69199425
 31
0.0
  0
LINE
  5
321
  8
0
 62
     0
 10
199.46701125
 20
103.77573186
 30
0.0
 11
198.94136664
 21
104.30137647
 31
0.0
  0
LINE
  5
322
  8
0
 62
     0
 10
198.27874993
 20
104.96399318
 30
0.0
 11
197.54895443
 21
105.69378868
 31
0.0
  0
LINE
  5
323
  8
0
 62
     0
 10
199.51470794
 20
104.04623323
 30
0.0
 11
199.2595647
 21
104.30137647
 31
0.0
  0
LINE
  5
324
  8
0
 62
     0
 10
198.59694798
 20
104.96399318
 30
0.0
 11
197.87288871
 21
105.68805245
 31
0.0
  0
LINE
  5
325
  8
0
 62
     0
 10
198.91514604
 20
104.96399318
 30
0.0
 11
198.20492916
 21
105.67421005
 31
0.0
  0
LINE
  5
326
  8
0
 62
     0
 10
199.23334409
 20
104.96399318
 30
0.0
 11
198.54574452
 21
105.65159275
 31
0.0
  0
LINE
  5
327
  8
0
 62
     0
 10
199.55154214
 20
104.96399318
 30
0.0
 11
198.89611925
 21
105.61941606
 31
0.0
  0
LINE
  5
328
  8
0
 62
     0
 10
199.70549469
 20
105.12823868
 30
0.0
 11
199.25698372
 21
105.57674965
 31
0.0
  0
ENDBLK
  5
32A
  8
0
  0
ENDSEC
  0
SECTION
  2
ENTITIES
  0
INSERT
  5
1E
  8
05
 66
     1
  2
ZKOPF
 10
410.0
 20
10.0
 30
0.0
  0
ATTRIB
  5
1F
  8
0
 62
     4
 10
396.14285714
 20
47.0
 30
0.0
 40
2.5
  1
Alinjak
  7
SCRIPTS
 72
     1
 11
401.5
 21
47.0
 31
0.0
  2
NAME
 70
     0
  0
ATTRIB
  5
21
  8
0
 62
     4
 10
380.97916667
 20
47.0
 30
0.0
 40
2.5
  1
19.11.02
 41
0.7
 51
15.0
 72
     1
 11
385.5
 21
47.0
 31
0.0
  2
DATE
 70
     0
  0
ATTRIB
  5
22
  8
0
 62
     4
 10
329.5
 20
46.0
 30
0.0
 40
2.5
  1

 41
0.7
 51
15.0
 72
     1
 11
329.5
 21
46.0
 31
0.0
  2
WERKSTOFF
 70
     0
  0
ATTRIB
  5
23
  8
0
 62
     2
 10
313.33333333
 20
22.5
 30
0.0
 40
5.0
  1
MRF
 41
0.7
 51
15.0
 72
     1
 11
318.0
 21
22.5
 31
0.0
  2
BENENNUNG
 70
     0
  0
ATTRIB
  5
24
  8
0
 62
     3
 10
314.42621006
 20
31.08219145
 30
0.0
 40
3.5
  1
MiniCon
 41
0.7
 51
15.0
 72
     1
 11
320.9595434
 21
31.08219145
 31
0.0
  2
TEIL
 70
     0
  0
ATTRIB
  5
25
  8
0
 62
     3
 10
375.36228092
 20
11.97654102
 30
0.0
 40
3.5
  1
3102 St 21 17
 41
0.7
 51
15.0
 72
     1
 11
389.44978092
 21
11.97654102
 31
0.0
  2
NUMMER
 70
     0
  0
ATTRIB
  5
26
  8
0
 62
     2
 10
346.51732836
 20
44.65605623
 30
0.0
 40
5.0
  1
5:1
 41
0.7
 51
15.0
 72
     1
 11
349.43399503
 21
44.65605623
 31
0.0
  2
MASS
 70
     0
  0
ATTRIB
  5
27
  8
0
 62
     3
 10
347.47763239
 20
38.21045054
 30
0.0
 40
3.5
  1
2:1
 41
0.7
 51
15.0
 72
     1
 11
349.51929905
 21
38.21045054
 31
0.0
  2
MASS2
 70
     0
  0
ATTRIB
  5
28
  8
0
 62
     4
 10
329.0
 20
39.0
 30
0.0
 40
2.5
  1

 41
0.7
 51
15.0
 72
     1
 11
329.0
 21
39.0
 31
0.0
  2
TEIL
 70
     0
  0
ATTRIB
  5
29
  8
0
 62
     3
 10
302.28854806
 20
69.00431875
 30
0.0
 40
3.5
  1

 41
0.7
 51
15.0
  2
TOL
 70
     0
  0
ATTRIB
  5
2A
  8
0
 62
     3
 10
302.28854806
 20
64.00431875
 30
0.0
 40
3.5
  1

 41
0.7
 51
15.0
  2
RADIEN
 70
     0
  0
ATTRIB
  5
2B
  8
0
 62
     3
 10
302.28854806
 20
59.00431875
 30
0.0
 40
3.5
  1

 41
0.7
 51
15.0
  2
FACETTE
 70
     0
  0
ATTRIB
  5
2C
  8
0
 62
     4
 10
212.81373274
 20
17.0
 30
0.0
 40
2.5
  1

 41
0.7
 51
15.0
  2
INDEX1
 70
     0
  0
ATTRIB
  5
2D
  8
0
 62
     4
 10
219.6512574
 20
17.0
 30
0.0
 40
2.5
  1

 41
0.7
 51
15.0
  2
A1
 70
     0
  0
ATTRIB
  5
2E
  8
0
 62
     4
 10
252.6512574
 20
17.0
 30
0.0
 40
2.5
  1

 41
0.7
 51
15.0
  2
DATUM1
 70
     0
  0
ATTRIB
  5
2F
  8
0
 62
     4
 10
265.53500986
 20
17.0
 30
0.0
 40
2.5
  1

 41
0.7
 51
15.0
  2
NAME1
 70
     0
  0
ATTRIB
  5
30
  8
0
 62
     4
 10
212.81373274
 20
22.0
 30
0.0
 40
2.5
  1

 41
0.7
 51
15.0
  2
INDEX2
 70
     0
  0
ATTRIB
  5
31
  8
0
 62
     4
 10
219.6512574
 20
22.0
 30
0.0
 40
2.5
  1

 41
0.7
 51
15.0
  2
A2
 70
     0
  0
ATTRIB
  5
32
  8
0
 62
     4
 10
252.6512574
 20
22.0
 30
0.0
 40
2.5
  1

 41
0.7
 51
15.0
  2
DATUM2
 70
     0
  0
ATTRIB
  5
33
  8
0
 62
     4
 10
265.53500986
 20
22.0
 30
0.0
 40
2.5
  1

 41
0.7
 51
15.0
  2
NAME2
 70
     0
  0
ATTRIB
  5
34
  8
0
 62
     4
 10
212.81373274
 20
27.0
 30
0.0
 40
2.5
  1

 41
0.7
 51
15.0
  2
INDEX3
 70
     0
  0
ATTRIB
  5
35
  8
0
 62
     4
 10
219.6512574
 20
27.0
 30
0.0
 40
2.5
  1

 41
0.7
 51
15.0
  2
A3
 70
     0
  0
ATTRIB
  5
36
  8
0
 62
     4
 10
252.6512574
 20
27.0
 30
0.0
 40
2.5
  1

 41
0.7
 51
15.0
  2
DATUM3
 70
     0
  0
ATTRIB
  5
37
  8
0
 62
     4
 10
265.53500986
 20
27.0
 30
0.0
 40
2.5
  1

 41
0.7
 51
15.0
  2
NAME3
 70
     0
  0
ATTRIB
  5
38
  8
0
 62
     4
 10
212.81373274
 20
32.0
 30
0.0
 40
2.5
  1

 41
0.7
 51
15.0
  2
INDEX4
 70
     0
  0
ATTRIB
  5
39
  8
0
 62
     4
 10
219.6512574
 20
32.0
 30
0.0
 40
2.5
  1

 41
0.7
 51
15.0
  2
A4
 70
     0
  0
ATTRIB
  5
3A
  8
0
 62
     4
 10
252.6512574
 20
32.0
 30
0.0
 40
2.5
  1

 41
0.7
 51
15.0
  2
DATUM4
 70
     0
  0
ATTRIB
  5
3B
  8
0
 62
     4
 10
265.53500986
 20
32.0
 30
0.0
 40
2.5
  1

 41
0.7
 51
15.0
  2
NAME4
 70
     0
  0
ATTRIB
  5
3C
  8
0
 62
     4
 10
212.81373274
 20
37.0
 30
0.0
 40
2.5
  1

 41
0.7
 51
15.0
  2
INDEX5
 70
     0
  0
ATTRIB
  5
3D
  8
0
 62
     4
 10
219.6512574
 20
37.0
 30
0.0
 40
2.5
  1

 41
0.7
 51
15.0
  2
A5
 70
     0
  0
ATTRIB
  5
3E
  8
0
 62
     4
 10
252.6512574
 20
37.0
 30
0.0
 40
2.5
  1

 41
0.7
 51
15.0
  2
DATUM5
 70
     0
  0
ATTRIB
  5
3F
  8
0
 62
     4
 10
265.53500986
 20
37.0
 30
0.0
 40
2.5
  1

 41
0.7
 51
15.0
  2
NAME5
 70
     0
  0
ATTRIB
  5
40
  8
0
 62
     4
 10
212.81373274
 20
42.0
 30
0.0
 40
2.5
  1

 41
0.7
 51
15.0
  2
INDEX6
 70
     0
  0
ATTRIB
  5
41
  8
0
 62
     4
 10
219.6512574
 20
42.0
 30
0.0
 40
2.5
  1

 41
0.7
 51
15.0
  2
A6
 70
     0
  0
ATTRIB
  5
42
  8
0
 62
     4
 10
252.6512574
 20
42.0
 30
0.0
 40
2.5
  1

 41
0.7
 51
15.0
  2
DATUM6
 70
     0
  0
ATTRIB
  5
43
  8
0
 62
     4
 10
265.53500986
 20
42.0
 30
0.0
 40
2.5
  1

 41
0.7
 51
15.0
  2
NAME6
 70
     0
  0
ATTRIB
  5
44
  8
0
 62
     4
 10
212.81373274
 20
47.0
 30
0.0
 40
2.5
  1

 41
0.7
 51
15.0
  2
INDEX7
 70
     0
  0
ATTRIB
  5
45
  8
0
 62
     4
 10
219.6512574
 20
47.0
 30
0.0
 40
2.5
  1

 41
0.7
 51
15.0
  2
A7
 70
     0
  0
ATTRIB
  5
46
  8
0
 62
     4
 10
252.6512574
 20
47.0
 30
0.0
 40
2.5
  1

 41
0.7
 51
15.0
  2
DATUM7
 70
     0
  0
ATTRIB
  5
47
  8
0
 62
     4
 10
265.53500986
 20
47.0
 30
0.0
 40
2.5
  1

 41
0.7
 51
15.0
  2
NAME7
 70
     0
  0
ATTRIB
  5
48
  8
0
 62
     4
 10
212.81373274
 20
52.0
 30
0.0
 40
2.5
  1

 41
0.7
 51
15.0
  2
INDEX8
 70
     0
  0
ATTRIB
  5
49
  8
0
 62
     4
 10
219.6512574
 20
52.0
 30
0.0
 40
2.5
  1

 41
0.7
 51
15.0
  2
A8
 70
     0
  0
ATTRIB
  5
4A
  8
0
 62
     4
 10
252.6512574
 20
52.0
 30
0.0
 40
2.5
  1

 41
0.7
 51
15.0
  2
DATUM8
 70
     0
  0
ATTRIB
  5
4B
  8
0
 62
     4
 10
265.53500986
 20
52.0
 30
0.0
 40
2.5
  1

 41
0.7
 51
15.0
  2
NAME8
 70
     0
  0
SEQEND
  5
32D
  8
05
  0
POLYLINE
  5
32E
  8
RAHMEN
 66
     1
 10
0.0
 20
0.0
 30
0.0
 70
     1
  0
VERTEX
  5
51D
  8
RAHMEN
 10
10.0
 20
10.0
 30
0.0
  0
VERTEX
  5
51E
  8
RAHMEN
 10
410.0
 20
10.0
 30
0.0
  0
VERTEX
  5
51F
  8
RAHMEN
 10
410.0
 20
287.0
 30
0.0
  0
VERTEX
  5
520
  8
RAHMEN
 10
10.0
 20
287.0
 30
0.0
  0
SEQEND
  5
521
  8
RAHMEN
  0
LINE
  5
330
  8
BEM1
 10
103.86152167
 20
98.61229513
 30
0.0
 11
55.05985071
 21
98.61229513
 31
0.0
  0
LINE
  5
332
  8
BEM1
 10
98.61340773
 20
90.20977329
 30
0.0
 11
59.88052903
 21
90.20977329
 31
0.0
  0
LINE
  5
333
  8
BEM1
 10
98.61340773
 20
29.78346685
 30
0.0
 11
59.58226553
 21
29.78346685
 31
0.0
  0
TEXT
  5
334
  8
035
 10
63.14657455
 20
121.07462345
 30
0.0
 40
3.5
  1
Print-Bohrplan (Bestückungsseite)
  7
ARIAL
  0
TEXT
  5
336
  8
035
 10
63.14657455
 20
115.56899327
 30
0.0
 40
3.0
  1
PCB-Layout (component side)
  7
ARIAL
  0
TEXT
  5
337
  8
BEM1
 62
     3
 10
49.24787292
 20
49.5238867
 30
0.0
 40
3.5
  1
12x%%c0.70 [0.028"]
 41
0.7
 51
15.0
  0
LINE
  5
338
  8
BEM1
 10
82.38514219
 20
48.55298078
 30
0.0
 11
49.47858853
 21
48.55298078
 31
0.0
  0
TEXT
  5
339
  8
BEM1
 62
     3
 10
59.96969942
 20
31.53346685
 30
0.0
 40
3.5
  1
2.10 [0.083"]
 41
0.7
 51
15.0
 72
     1
 11
71.60719942
 21
33.28346685
 31
0.0
 73
     2
  0
LINE
  5
33A
  8
BEM1
 10
84.23280108
 20
76.7627388
 30
0.0
 11
45.58959429
 21
76.7627388
 31
0.0
  0
LINE
  5
33B
  8
BEM1
 10
78.98468713
 20
67.52790587
 30
0.0
 11
45.58959429
 21
67.52790587
 31
0.0
  0
TEXT
  5
33C
  8
BEM1
 62
     3
 10
55.28118389
 20
100.36229513
 30
0.0
 40
3.5
  1
2.10 [0.083"]
 41
0.7
 51
15.0
 72
     1
 11
66.91868389
 21
102.11229513
 31
0.0
 73
     2
  0
TEXT
  5
33D
  8
BEM1
 62
     3
 10
60.70909567
 20
91.95977329
 30
0.0
 40
3.5
  1
2.10 [0.083"]
 41
0.7
 51
15.0
 72
     1
 11
72.34659567
 21
93.70977329
 31
0.0
 73
     2
  0
TEXT
  5
33E
  8
BEM1
 62
     3
 10
44.83959429
 20
35.92720086
 30
0.0
 40
3.5
  1
0.56 [0.022"]
 50
90.0
 41
0.7
 51
15.0
 72
     1
 11
43.08959429
 21
47.97303419
 31
0.0
 73
     2
  0
LINE
  5
33F
  8
BEM1
 10
46.58959429
 20
67.52790587
 30
0.0
 11
46.58959429
 21
36.342034
 31
0.0
  0
TEXT
  5
340
  8
BEM1
 62
     3
 10
44.83959429
 20
80.79884685
 30
0.0
 40
3.5
  1
1.84 [0.072"]
 50
90.0
 41
0.7
 51
15.0
 72
     1
 11
43.08959429
 21
92.64051351
 31
0.0
 73
     2
  0
LINE
  5
341
  8
BEM1
 10
46.58959429
 20
67.52790587
 30
0.0
 11
46.58959429
 21
104.28779252
 31
0.0
  0
LINE
  5
342
  8
BEM1
 10
78.21846761
 20
64.72790587
 30
0.0
 11
45.58959429
 21
64.72790587
 31
0.0
  0
SOLID
  5
343
  8
BEM1
 10
46.00626096
 20
80.2627388
 30
0.0
 11
47.17292762
 21
80.2627388
 31
0.0
 12
46.58959429
 22
76.7627388
 32
0.0
 13
46.58959429
 23
76.7627388
 33
0.0
  0
POLYLINE
  5
344
  8
BEM1
 66
     1
 10
0.0
 20
0.0
 30
0.0
 70
     1
 40
0.5
 41
0.5
  0
VERTEX
  5
522
  8
BEM1
 10
46.33959429
 20
67.52790587
 30
0.0
 42
1.0
  0
VERTEX
  5
523
  8
BEM1
 10
46.83959429
 20
67.52790587
 30
0.0
 42
1.0
  0
SEQEND
  5
524
  8
BEM1
  0
SOLID
  5
345
  8
BEM1
 10
46.00626096
 20
61.22790587
 30
0.0
 11
47.17292762
 21
61.22790587
 31
0.0
 12
46.58959429
 22
64.72790587
 32
0.0
 13
46.58959429
 23
64.72790587
 33
0.0
  0
LINE
  5
346
  8
MITTE
 10
109.1134075
 20
55.55294361
 30
0.0
 11
109.1134075
 21
61.31415735
 31
0.0
  0
LINE
  5
349
  8
MITTE
 10
98.61340773
 20
55.55294361
 30
0.0
 11
98.61340773
 21
61.31415735
 31
0.0
  0
SOLID
  5
34A
  8
BEM1
 10
84.97557964
 20
54.18421979
 30
0.0
 11
85.98489195
 21
53.59907042
 31
0.0
 12
87.2356839
 22
56.91958202
 32
0.0
 13
87.2356839
 23
56.91958202
 33
0.0
  0
LINE
  5
34B
  8
MITTE
 10
88.11340795
 20
55.55294361
 30
0.0
 11
88.11340795
 21
61.31415735
 31
0.0
  0
LINE
  5
34C
  8
BEM1
 10
87.2356839
 20
56.91958202
 30
0.0
 11
82.38514219
 21
48.55298078
 31
0.0
  0
LINE
  5
34D
  8
BEM1
 10
151.39284515
 20
58.43355048
 30
0.0
 11
151.39284515
 21
19.59964032
 31
0.0
  0
LINE
  5
34E
  8
MITTE
 10
98.61340773
 20
83.89066829
 30
0.0
 11
98.61340773
 21
42.15118201
 31
0.0
  0
LINE
  5
34F
  8
BEM1
 10
107.74212854
 20
49.34137278
 30
0.0
 11
152.39284515
 21
49.34137278
 31
0.0
  0
SOLID
  5
350
  8
BEM1
 10
112.6134075
 20
30.36680019
 30
0.0
 11
112.6134075
 21
29.20013352
 31
0.0
 12
109.1134075
 22
29.78346685
 32
0.0
 13
109.1134075
 23
29.78346685
 33
0.0
  0
LINE
  5
351
  8
BEM1
 10
110.86152167
 20
36.82972404
 30
0.0
 11
138.4623797
 21
36.82972404
 31
0.0
  0
LINE
  5
352
  8
BEM1
 10
98.61340773
 20
29.78346685
 30
0.0
 11
138.46575274
 21
29.78346685
 31
0.0
  0
LINE
  5
353
  8
BEM1
 10
109.1134075
 20
35.39845327
 30
0.0
 11
109.1134075
 21
28.78346685
 31
0.0
  0
LINE
  5
354
  8
BEM1
 10
98.61340773
 20
35.98911037
 30
0.0
 11
98.61340773
 21
28.78346685
 31
0.0
  0
LINE
  5
355
  8
BEM1
 10
88.11340795
 20
35.28835526
 30
0.0
 11
88.11340795
 21
28.78346685
 31
0.0
  0
SOLID
  5
356
  8
BEM1
 10
84.61340795
 20
30.36680019
 30
0.0
 11
84.61340795
 21
29.20013352
 31
0.0
 12
88.11340795
 22
29.78346685
 32
0.0
 13
88.11340795
 23
29.78346685
 33
0.0
  0
POLYLINE
  5
357
  8
BEM1
 66
     1
 10
0.0
 20
0.0
 30
0.0
 70
     1
 40
0.5
 41
0.5
  0
VERTEX
  5
525
  8
BEM1
 10
98.36340773
 20
29.78346685
 30
0.0
 42
1.0
  0
VERTEX
  5
526
  8
BEM1
 10
98.86340773
 20
29.78346685
 30
0.0
 42
1.0
  0
SEQEND
  5
527
  8
BEM1
  0
LINE
  5
358
  8
MITTE
 10
90.48468691
 20
49.34137278
 30
0.0
 11
96.24590065
 21
49.34137278
 31
0.0
  0
LINE
  5
359
  8
BEM1
 10
98.61340773
 20
36.82972404
 30
0.0
 11
86.36529378
 21
36.82972404
 31
0.0
  0
LINE
  5
35A
  8
BEM1
 10
88.11340795
 20
54.55294361
 30
0.0
 11
88.11340795
 21
38.37109282
 31
0.0
  0
LINE
  5
35B
  8
BEM1
 10
93.36529378
 20
42.51115986
 30
0.0
 11
93.36529378
 21
35.82972404
 31
0.0
  0
SOLID
  5
35C
  8
BEM1
 10
89.86529378
 20
37.41305737
 30
0.0
 11
89.86529378
 21
36.24639071
 31
0.0
 12
93.36529378
 22
36.82972404
 32
0.0
 13
93.36529378
 23
36.82972404
 33
0.0
  0
CIRCLE
  5
35D
  8
05
 10
93.36529378
 20
49.34137278
 30
0.0
 40
1.75
  0
LINE
  5
35E
  8
MITTE
 10
93.36529378
 20
46.46076591
 30
0.0
 11
93.36529378
 21
52.22197965
 31
0.0
  0
LINE
  5
35F
  8
BEM1
 10
109.1134075
 20
54.55294361
 30
0.0
 11
109.1134075
 21
38.04079946
 31
0.0
  0
LINE
  5
360
  8
BEM1
 10
98.61340773
 20
36.82972404
 30
0.0
 11
110.86152167
 21
36.82972404
 31
0.0
  0
LINE
  5
361
  8
BEM1
 10
98.61340773
 20
41.15118201
 30
0.0
 11
98.61340773
 21
37.77084012
 31
0.0
  0
LINE
  5
362
  8
BEM1
 10
103.86152167
 20
42.51115986
 30
0.0
 11
103.86152167
 21
35.82972404
 31
0.0
  0
SOLID
  5
363
  8
BEM1
 10
107.36152167
 20
37.41305737
 30
0.0
 11
107.36152167
 21
36.24639071
 31
0.0
 12
103.86152167
 22
36.82972404
 32
0.0
 13
103.86152167
 23
36.82972404
 33
0.0
  0
CIRCLE
  5
364
  8
05
 10
103.86152167
 20
49.34137278
 30
0.0
 40
1.75
  0
LINE
  5
365
  8
MITTE
 10
100.9809148
 20
49.34137278
 30
0.0
 11
106.74212854
 21
49.34137278
 31
0.0
  0
TEXT
  5
366
  8
BEM1
 10
95.15929803
 20
51.21281186
 30
0.0
 40
3.0
  1
6
 41
0.8
 51
15.0
  7
HELV
  0
LINE
  5
367
  8
MITTE
 10
103.86152167
 20
46.46076591
 30
0.0
 11
103.86152167
 21
52.22197965
 31
0.0
  0
TEXT
  5
368
  8
BEM1
 10
105.65552593
 20
51.21281186
 30
0.0
 40
3.0
  1
5
 41
0.8
 51
15.0
  7
HELV
  0
TEXT
  5
369
  8
BEM1
 62
     3
 10
113.59177376
 20
31.53346685
 30
0.0
 40
3.5
  1
2.10 [0.083"]
 41
0.7
 51
15.0
 72
     1
 11
125.22927376
 21
33.28346685
 31
0.0
 73
     2
  0
TEXT
  5
36A
  8
BEM1
 62
     3
 10
114.71846861
 20
38.57972404
 30
0.0
 40
3.5
  1
2.10 [0.083"]
 41
0.7
 51
15.0
 72
     1
 11
126.35596861
 21
40.32972404
 31
0.0
 73
     2
  0
TEXT
  5
36B
  8
BEM1
 62
     3
 10
149.64284515
 20
19.6332331
 30
0.0
 40
3.5
  1
1.82 [0.072"]
 50
90.0
 41
0.7
 51
15.0
 72
     1
 11
147.89284515
 21
31.47489977
 31
0.0
 73
     2
  0
SOLID
  5
36C
  8
BEM1
 10
150.80951181
 20
45.84137278
 30
0.0
 11
151.97617848
 21
45.84137278
 31
0.0
 12
151.39284515
 22
49.34137278
 32
0.0
 13
151.39284515
 23
49.34137278
 33
0.0
  0
LINE
  5
36D
  8
BEM1
 10
112.99401437
 20
58.43355048
 30
0.0
 11
152.39284515
 21
58.43355048
 31
0.0
  0
LINE
  5
36E
  8
BEM1
 10
119.00834784
 20
64.72790587
 30
0.0
 11
152.39284515
 21
64.72790587
 31
0.0
  0
TEXT
  5
36F
  8
BEM1
 62
     3
 10
86.66704931
 20
101.44521928
 30
0.0
 40
3.5
  1
2.10 [0.083"]
 41
0.7
 51
15.0
 72
     1
 11
98.30454931
 21
103.19521928
 31
0.0
 73
     2
  0
TEXT
  5
370
  8
BEM1
 62
     3
 10
118.91940173
 20
100.36229513
 30
0.0
 40
3.5
  1
2.10 [0.083"]
 41
0.7
 51
15.0
 72
     1
 11
130.55690173
 21
102.11229513
 31
0.0
 73
     2
  0
SOLID
  5
371
  8
BEM1
 10
112.6134075
 20
90.79310662
 30
0.0
 11
112.6134075
 21
89.62643996
 31
0.0
 12
109.1134075
 22
90.20977329
 32
0.0
 13
109.1134075
 23
90.20977329
 33
0.0
  0
TEXT
  5
372
  8
BEM1
 10
110.90741175
 20
78.63417787
 30
0.0
 40
3.0
  1
2
 41
0.8
 51
15.0
  7
HELV
  0
LINE
  5
373
  8
MITTE
 10
111.48091458
 20
67.52790587
 30
0.0
 11
117.24212832
 21
67.52790587
 31
0.0
  0
TEXT
  5
374
  8
BEM1
 10
110.90741175
 20
60.30498956
 30
0.0
 40
3.0
  1
4
 41
0.8
 51
15.0
  7
HELV
  0
LINE
  5
375
  8
MITTE
 10
79.21846761
 20
64.72790587
 30
0.0
 11
118.00834784
 21
64.72790587
 31
0.0
  0
LINE
  5
376
  8
BEM1
 10
103.86152167
 20
98.61229513
 30
0.0
 11
142.273702
 21
98.61229513
 31
0.0
  0
LINE
  5
377
  8
BEM1
 10
98.61340773
 20
90.20977329
 30
0.0
 11
138.32698515
 21
90.20977329
 31
0.0
  0
LINE
  5
378
  8
MITTE
 10
106.23280063
 20
76.7627388
 30
0.0
 11
111.99401437
 21
76.7627388
 31
0.0
  0
LINE
  5
379
  8
MITTE
 10
106.23280063
 20
58.43355048
 30
0.0
 11
111.99401437
 21
58.43355048
 31
0.0
  0
LINE
  5
37A
  8
MITTE
 10
109.1134075
 20
73.88213192
 30
0.0
 11
109.1134075
 21
79.64334567
 31
0.0
  0
TEXT
  5
37B
  8
BEM1
 10
100.94817073
 20
78.63417787
 30
0.0
 40
3.0
  1
1
 41
0.8
 51
15.0
  7
HELV
  0
TEXT
  5
37C
  8
BEM1
 10
89.9074122
 20
78.63417787
 30
0.0
 40
3.0
  1
9
 41
0.8
 51
15.0
  7
HELV
  0
LINE
  5
37D
  8
BEM1
 10
82.86529401
 20
71.40851274
 30
0.0
 11
82.86529401
 21
88.76528318
 31
0.0
  0
LINE
  5
37E
  8
MITTE
 10
88.11340795
 20
73.88213192
 30
0.0
 11
88.11340795
 21
79.64334567
 31
0.0
  0
LINE
  5
37F
  8
BEM1
 10
103.86152167
 20
71.40633504
 30
0.0
 11
103.86152167
 21
88.76528318
 31
0.0
  0
LINE
  5
380
  8
BEM1
 10
93.36529378
 20
71.40633504
 30
0.0
 11
93.36529378
 21
88.9336083
 31
0.0
  0
LINE
  5
381
  8
MITTE
 10
98.61340773
 20
73.87995423
 30
0.0
 11
98.61340773
 21
79.64116797
 31
0.0
  0
LINE
  5
382
  8
MITTE
 10
90.48468691
 20
67.52790587
 30
0.0
 11
96.24590065
 21
67.52790587
 31
0.0
  0
CIRCLE
  5
383
  8
05
 10
93.36529378
 20
67.52790587
 30
0.0
 40
1.75
  0
LINE
  5
384
  8
MITTE
 10
93.36529378
 20
64.6451213
 30
0.0
 11
93.36529378
 21
70.40633504
 31
0.0
  0
LINE
  5
385
  8
MITTE
 10
82.86529401
 20
64.647299
 30
0.0
 11
82.86529401
 21
70.40851274
 31
0.0
  0
CIRCLE
  5
386
  8
05
 10
82.86529401
 20
67.52790587
 30
0.0
 40
1.75
  0
CIRCLE
  5
387
  8
05
 10
88.11340795
 20
58.43355048
 30
0.0
 40
1.75
  0
LINE
  5
388
  8
MITTE
 10
85.23280108
 20
58.43355048
 30
0.0
 11
90.99401482
 21
58.43355048
 31
0.0
  0
TEXT
  5
389
  8
BEM1
 10
89.9074122
 20
60.30498956
 30
0.0
 40
3.0
  1
7
 41
0.8
 51
15.0
  7
HELV
  0
LINE
  5
38A
  8
MITTE
 10
85.23280108
 20
76.7627388
 30
0.0
 11
90.99401482
 21
76.7627388
 31
0.0
  0
CIRCLE
  5
38B
  8
05
 10
88.11340795
 20
76.7627388
 30
0.0
 40
1.75
  0
LINE
  5
38C
  8
MITTE
 10
79.98468713
 20
67.52790587
 30
0.0
 11
85.74590088
 21
67.52790587
 31
0.0
  0
TEXT
  5
38D
  8
BEM1
 10
84.65929826
 20
69.39934495
 30
0.0
 40
3.0
  1
8
 41
0.8
 51
15.0
  7
HELV
  0
CIRCLE
  5
38E
  8
05
 10
103.86152167
 20
67.52790587
 30
0.0
 40
1.75
  0
LINE
  5
38F
  8
MITTE
 10
103.86152167
 20
64.6451213
 30
0.0
 11
103.86152167
 21
70.40633504
 31
0.0
  0
TEXT
  5
390
  8
BEM1
 10
100.40741198
 20
60.30716725
 30
0.0
 40
3.0
  1
11
 41
0.8
 51
15.0
  7
HELV
  0
CIRCLE
  5
391
  8
05
 10
98.61340773
 20
58.43572817
 30
0.0
 40
1.75
  0
LINE
  5
392
  8
MITTE
 10
95.73280086
 20
58.43572817
 30
0.0
 11
101.4940146
 21
58.43572817
 31
0.0
  0
CIRCLE
  5
393
  8
05
 10
109.1134075
 20
58.43355048
 30
0.0
 40
1.75
  0
LINE
  5
394
  8
MITTE
 10
100.9809148
 20
67.52790587
 30
0.0
 11
106.74212854
 21
67.52790587
 31
0.0
  0
TEXT
  5
395
  8
BEM1
 10
95.15929803
 20
69.39934495
 30
0.0
 40
3.0
  1
10
 41
0.8
 51
15.0
  7
HELV
  0
LINE
  5
396
  8
MITTE
 10
95.73280086
 20
76.7627388
 30
0.0
 11
101.4940146
 21
76.7627388
 31
0.0
  0
CIRCLE
  5
397
  8
05
 10
98.61340773
 20
76.7627388
 30
0.0
 40
1.75
  0
TEXT
  5
398
  8
BEM1
 10
105.65552593
 20
69.39934495
 30
0.0
 40
3.0
  1
12
 41
0.8
 51
15.0
  7
HELV
  0
CIRCLE
  5
399
  8
05
 10
109.1134075
 20
76.7627388
 30
0.0
 40
1.75
  0
SOLID
  5
39A
  8
BEM1
 10
84.61340795
 20
90.79310662
 30
0.0
 11
84.61340795
 21
89.62643996
 31
0.0
 12
88.11340795
 22
90.20977329
 32
0.0
 13
88.11340795
 23
90.20977329
 33
0.0
  0
LINE
  5
39B
  8
BEM1
 10
88.11340795
 20
80.64334567
 30
0.0
 11
88.11340795
 21
91.20977329
 31
0.0
  0
SOLID
  5
39C
  8
BEM1
 10
79.36529401
 20
99.19562846
 30
0.0
 11
79.36529401
 21
98.02896179
 31
0.0
 12
82.86529401
 22
98.61229513
 32
0.0
 13
82.86529401
 23
98.61229513
 33
0.0
  0
LINE
  5
39D
  8
BEM1
 10
82.86529401
 20
96.59239514
 30
0.0
 11
82.86529401
 21
99.61229513
 31
0.0
  0
LINE
  5
39E
  8
BEM1
 10
93.36529378
 20
91.29015783
 30
0.0
 11
93.36529378
 21
99.61229513
 31
0.0
  0
POLYLINE
  5
39F
  8
BEM1
 66
     1
 10
0.0
 20
0.0
 30
0.0
 70
     1
 40
0.5
 41
0.5
  0
VERTEX
  5
528
  8
BEM1
 10
93.11529378
 20
98.61229513
 30
0.0
 42
1.0
  0
VERTEX
  5
529
  8
BEM1
 10
93.61529378
 20
98.61229513
 30
0.0
 42
1.0
  0
SEQEND
  5
52A
  8
BEM1
  0
LINE
  5
3A0
  8
BEM1
 10
109.1134075
 20
80.64334567
 30
0.0
 11
109.1134075
 21
91.20977329
 31
0.0
  0
POLYLINE
  5
3A1
  8
BEM1
 66
     1
 10
0.0
 20
0.0
 30
0.0
 70
     1
 40
0.5
 41
0.5
  0
VERTEX
  5
52B
  8
BEM1
 10
98.36340773
 20
90.20977329
 30
0.0
 42
1.0
  0
VERTEX
  5
52C
  8
BEM1
 10
98.86340773
 20
90.20977329
 30
0.0
 42
1.0
  0
SEQEND
  5
52D
  8
BEM1
  0
LINE
  5
3A2
  8
BEM1
 10
98.61340773
 20
88.70780578
 30
0.0
 11
98.61340773
 21
91.20977329
 31
0.0
  0
LINE
  5
3A3
  8
BEM1
 10
103.86152167
 20
91.45848294
 30
0.0
 11
103.86152167
 21
99.61229513
 31
0.0
  0
POLYLINE
  5
3A4
  8
BEM1
 66
     1
 10
0.0
 20
0.0
 30
0.0
 70
     1
 40
0.5
 41
0.5
  0
VERTEX
  5
52E
  8
BEM1
 10
103.61152167
 20
98.61229513
 30
0.0
 42
1.0
  0
VERTEX
  5
52F
  8
BEM1
 10
104.11152167
 20
98.61229513
 30
0.0
 42
1.0
  0
SEQEND
  5
530
  8
BEM1
  0
LINE
  5
3A5
  8
BEM1
 10
114.36152145
 20
71.40851274
 30
0.0
 11
114.36152145
 21
89.10193273
 31
0.0
  0
LINE
  5
3A6
  8
MITTE
 10
114.36152145
 20
64.647299
 30
0.0
 11
114.36152145
 21
70.40851274
 31
0.0
  0
CIRCLE
  5
3A7
  8
05
 10
114.36152145
 20
67.52790587
 30
0.0
 40
1.75
  0
TEXT
  5
3A8
  8
BEM1
 10
116.1555257
 20
69.39934495
 30
0.0
 40
3.0
  1
3
 41
0.8
 51
15.0
  7
HELV
  0
TEXT
  5
3A9
  8
BEM1
 62
     3
 10
114.07402532
 20
91.95977329
 30
0.0
 40
3.5
  1
2.10 [0.083"]
 41
0.7
 51
15.0
 72
     1
 11
125.71152532
 21
93.70977329
 31
0.0
 73
     2
  0
SOLID
  5
3AA
  8
BEM1
 10
117.86152145
 20
99.19562846
 30
0.0
 11
117.86152145
 21
98.02896179
 31
0.0
 12
114.36152145
 22
98.61229513
 32
0.0
 13
114.36152145
 23
98.61229513
 33
0.0
  0
LINE
  5
3AB
  8
BEM1
 10
114.36152145
 20
97.09736979
 30
0.0
 11
114.36152145
 21
99.61229513
 31
0.0
  0
TEXT
  5
3AC
  8
BEM1
 62
     3
 10
149.64284515
 20
68.83254355
 30
0.0
 40
3.5
  1
1.26 [0.050"]
 50
90.0
 41
0.7
 51
15.0
 72
     1
 11
147.89284515
 21
80.47004355
 31
0.0
 73
     2
  0
LINE
  5
3AD
  8
BEM1
 10
151.39284515
 20
58.43355048
 30
0.0
 11
151.39284515
 21
92.69908504
 31
0.0
  0
SOLID
  5
3AE
  8
BEM1
 10
150.80951181
 20
68.22790587
 30
0.0
 11
151.97617848
 21
68.22790587
 31
0.0
 12
151.39284515
 22
64.72790587
 32
0.0
 13
151.39284515
 23
64.72790587
 33
0.0
  0
POLYLINE
  5
3AF
  8
BEM1
 66
     1
 10
0.0
 20
0.0
 30
0.0
 70
     1
 40
0.5
 41
0.5
  0
VERTEX
  5
531
  8
BEM1
 10
151.14284515
 20
58.43355048
 30
0.0
 42
1.0
  0
VERTEX
  5
532
  8
BEM1
 10
151.64284515
 20
58.43355048
 30
0.0
 42
1.0
  0
SEQEND
  5
533
  8
BEM1
  0
ARC
  5
3B0
  8
025
 10
113.07556797
 20
212.0136028
 30
0.0
 40
34.7129408
 50
161.34604184
 51
190.72215242
  0
ARC
  5
3B2
  8
05
 10
113.07556797
 20
212.0136028
 30
0.0
 40
45.0
 50
139.18813645
 51
160.81186355
  0
ARC
  5
3B3
  8
05
 10
113.07556797
 20
212.0136028
 30
0.0
 40
45.0
 50
199.18813645
 51
220.81186355
  0
ARC
  5
3B4
  8
025
 10
113.07556797
 20
212.0136028
 30
0.0
 40
34.7129408
 50
237.83387884
 51
152.65739304
  0
CIRCLE
  5
3B5
  8
05
 10
113.07556797
 20
212.0136028
 30
0.0
 40
43.3727445
  0
LINE
  5
3B6
  8
BEM1
 10
74.07556797
 20
267.88744393
 30
0.0
 11
152.07556797
 21
267.88744393
 31
0.0
  0
LINE
  5
3B7
  8
MITTE
 10
66.11828761
 20
212.0136028
 30
0.0
 11
160.03284834
 21
212.0136028
 31
0.0
  0
LINE
  5
3B8
  8
BEM1
 10
70.57556797
 20
227.02475907
 30
0.0
 11
70.57556797
 21
268.88744393
 31
0.0
  0
POLYLINE
  5
3B9
  8
05
 66
     1
 10
0.0
 20
0.0
 30
0.0
  0
VERTEX
  5
534
  8
05
 10
70.57556797
 20
203.35652677
 30
0.0
  0
VERTEX
  5
535
  8
05
 10
70.57556797
 20
197.22340335
 30
0.0
  0
SEQEND
  5
536
  8
05
  0
POLYLINE
  5
3BA
  8
05
 66
     1
 10
0.0
 20
0.0
 30
0.0
  0
VERTEX
  5
537
  8
05
 10
70.57556797
 20
226.80380226
 30
0.0
  0
VERTEX
  5
538
  8
05
 10
70.57556797
 20
220.67067884
 30
0.0
  0
SEQEND
  5
539
  8
05
  0
POINT
  5
3BB
  8
05
  6
BYBLOCK
 10
70.57556797
 20
226.80380226
 30
0.0
  0
SOLID
  5
3BC
  8
BEM1
 10
74.07556797
 20
268.47077727
 30
0.0
 11
74.07556797
 21
267.3041106
 31
0.0
 12
70.57556797
 22
267.88744393
 32
0.0
 13
70.57556797
 23
267.88744393
 33
0.0
  0
ARC
  5
3BD
  8
05
 10
113.07556797
 20
212.0136028
 30
0.0
 40
45.0
 50
19.18813645
 51
40.81186355
  0
LINE
  5
3BE
  8
BEM1
 10
155.57556797
 20
229.27943424
 30
0.0
 11
155.57556797
 21
268.88744393
 31
0.0
  0
LINE
  5
3BF
  8
MITTE
 10
113.07556797
 20
258.97088317
 30
0.0
 11
113.07556797
 21
165.05632244
 31
0.0
  0
POLYLINE
  5
3C0
  8
05
 66
     1
 10
0.0
 20
0.0
 30
0.0
  0
VERTEX
  5
53A
  8
05
 10
141.82281574
 20
179.53606116
 30
0.0
  0
VERTEX
  5
53B
  8
05
 10
147.13425643
 20
182.60262287
 30
0.0
  0
SEQEND
  5
53C
  8
05
  0
ARC
  5
3C1
  8
025
 10
113.07556797
 20
212.0136028
 30
0.0
 40
34.7129408
 50
206.93087407
 51
232.4224627
  0
CIRCLE
  5
3C2
  8
05
 10
118.32368192
 20
196.85924741
 30
0.0
 40
3.25
  0
LINE
  5
3C3
  8
MITTE
 10
118.32368192
 20
193.97864054
 30
0.0
 11
118.32368192
 21
199.73985428
 31
0.0
  0
CIRCLE
  5
3C4
  8
05
 10
118.32368192
 20
196.85924741
 30
0.0
 40
2.25
  0
LINE
  5
3C5
  8
MITTE
 10
107.82745403
 20
193.97864054
 30
0.0
 11
107.82745403
 21
199.73985428
 31
0.0
  0
CIRCLE
  5
3C6
  8
05
 10
107.82745403
 20
196.85924741
 30
0.0
 40
3.25
  0
CIRCLE
  5
3C7
  8
05
 10
107.82745403
 20
196.85924741
 30
0.0
 40
2.25
  0
ARC
  5
3C8
  8
035
 10
113.07556797
 20
212.0136028
 30
0.0
 40
21.75
 50
270.0
 51
90.0
  0
ARC
  5
3C9
  8
035
 10
113.07556797
 20
212.0136028
 30
0.0
 40
21.75
 50
90.0
 51
270.0
  0
CIRCLE
  5
3CA
  8
05
 10
113.07556797
 20
212.0136028
 30
0.0
 40
20.75
  0
ARC
  5
3CB
  8
05
 10
113.07556797
 20
212.0136028
 30
0.0
 40
28.248531
 50
192.26241291
 51
167.73758709
  0
ARC
  5
3CC
  8
05
 10
113.07556797
 20
212.0136028
 30
0.0
 40
45.0
 50
259.18813645
 51
280.81186355
  0
POLYLINE
  5
3CD
  8
05
 66
     1
 10
0.0
 20
0.0
 30
0.0
  0
VERTEX
  5
53D
  8
05
 10
99.32281574
 20
170.87898513
 30
0.0
  0
VERTEX
  5
53E
  8
05
 10
104.63425643
 20
167.81242341
 30
0.0
  0
SEQEND
  5
53F
  8
05
  0
POLYLINE
  5
3CE
  8
05
 66
     1
 10
0.0
 20
0.0
 30
0.0
  0
VERTEX
  5
540
  8
05
 10
79.01687951
 20
182.60262287
 30
0.0
  0
VERTEX
  5
541
  8
05
 10
84.3283202
 20
179.53606116
 30
0.0
  0
SEQEND
  5
542
  8
05
  0
POLYLINE
  5
3CF
  8
05
 66
     1
 10
0.0
 20
0.0
 30
0.0
  0
VERTEX
  5
543
  8
05
 10
121.51687951
 20
167.81242341
 30
0.0
  0
VERTEX
  5
544
  8
05
 10
126.8283202
 20
170.87898513
 30
0.0
  0
SEQEND
  5
545
  8
05
  0
CIRCLE
  5
3D0
  8
05
 10
113.07556797
 20
205.9536028
 30
0.0
 40
3.25
  0
LINE
  5
3D1
  8
MITTE
 10
110.1949611
 20
205.9536028
 30
0.0
 11
115.95617484
 21
205.9536028
 31
0.0
  0
CIRCLE
  5
3D2
  8
05
 10
113.07556797
 20
205.9536028
 30
0.0
 40
2.25
  0
CIRCLE
  5
3D3
  8
05
 10
113.07556797
 20
224.28061342
 30
0.0
 40
3.25
  0
LINE
  5
3D4
  8
MITTE
 10
110.1949611
 20
224.28061342
 30
0.0
 11
115.95617484
 21
224.28061342
 31
0.0
  0
CIRCLE
  5
3D5
  8
05
 10
113.07556797
 20
224.28061342
 30
0.0
 40
2.25
  0
CIRCLE
  5
3D6
  8
05
 10
97.32745425
 20
215.0457805
 30
0.0
 40
3.25
  0
CIRCLE
  5
3D7
  8
05
 10
107.82745403
 20
215.0457805
 30
0.0
 40
3.25
  0
LINE
  5
3D8
  8
035
 10
95.07745425
 20
215.0457805
 30
0.0
 11
95.2621153
 21
215.0457805
 31
0.0
  0
CIRCLE
  5
3D9
  8
05
 10
97.32745425
 20
215.0457805
 30
0.0
 40
2.25
  0
LINE
  5
3DA
  8
MITTE
 10
94.44684738
 20
215.0457805
 30
0.0
 11
100.20806112
 21
215.0457805
 31
0.0
  0
ARC
  5
3DB
  8
05
 10
113.07556797
 20
212.0136028
 30
0.0
 40
32.248323
 50
169.27784758
 51
190.72215242
  0
LINE
  5
3DC
  8
05
 10
85.47152393
 20
206.0139148
 30
0.0
 11
81.39027043
 21
206.0139148
 31
0.0
  0
LINE
  5
3DD
  8
05
 10
85.47152393
 20
218.0132908
 30
0.0
 11
81.39027043
 21
218.0132908
 31
0.0
  0
CIRCLE
  5
3DE
  8
05
 10
102.5755682
 20
205.95142511
 30
0.0
 40
3.25
  0
CIRCLE
  5
3DF
  8
05
 10
102.5755682
 20
205.95142511
 30
0.0
 40
2.25
  0
LINE
  5
3E0
  8
MITTE
 10
102.5755682
 20
203.07081824
 30
0.0
 11
102.5755682
 21
208.83203198
 31
0.0
  0
LINE
  5
3E1
  8
MITTE
 10
99.69496133
 20
205.95142511
 30
0.0
 11
105.45617507
 21
205.95142511
 31
0.0
  0
LINE
  5
3E2
  8
035
 10
100.3255682
 20
205.95142511
 30
0.0
 11
100.51022924
 21
205.95142511
 31
0.0
  0
LINE
  5
3E3
  8
MITTE
 10
104.94684715
 20
196.85924741
 30
0.0
 11
110.7080609
 21
196.85924741
 31
0.0
  0
LINE
  5
3E4
  8
035
 10
105.57745403
 20
196.85924741
 30
0.0
 11
105.76211507
 21
196.85924741
 31
0.0
  0
LINE
  5
3E5
  8
035
 10
109.89279298
 20
196.85924741
 30
0.0
 11
110.07745403
 21
196.85924741
 31
0.0
  0
LINE
  5
3E6
  8
035
 10
104.64090715
 20
205.95142511
 30
0.0
 11
104.8255682
 21
205.95142511
 31
0.0
  0
LINE
  5
3E7
  8
MITTE
 10
97.32745425
 20
212.16517363
 30
0.0
 11
97.32745425
 21
217.92638737
 31
0.0
  0
LINE
  5
3E8
  8
035
 10
99.39279321
 20
215.0457805
 30
0.0
 11
99.57745425
 21
215.0457805
 31
0.0
  0
LINE
  5
3E9
  8
MITTE
 10
107.82745403
 20
212.16299593
 30
0.0
 11
107.82745403
 21
217.92420967
 31
0.0
  0
CIRCLE
  5
3EA
  8
05
 10
107.82745403
 20
215.0457805
 30
0.0
 40
2.25
  0
LINE
  5
3EB
  8
MITTE
 10
104.94684715
 20
215.0457805
 30
0.0
 11
110.7080609
 21
215.0457805
 31
0.0
  0
LINE
  5
3EC
  8
035
 10
105.57745403
 20
215.0457805
 30
0.0
 11
105.76211507
 21
215.0457805
 31
0.0
  0
LINE
  5
3ED
  8
035
 10
109.89279298
 20
215.0457805
 30
0.0
 11
110.07745403
 21
215.0457805
 31
0.0
  0
LINE
  5
3EE
  8
MITTE
 10
99.69496133
 20
224.28061342
 30
0.0
 11
105.45617507
 21
224.28061342
 31
0.0
  0
CIRCLE
  5
3EF
  8
05
 10
102.5755682
 20
224.28061342
 30
0.0
 40
2.25
  0
CIRCLE
  5
3F0
  8
05
 10
102.5755682
 20
224.28061342
 30
0.0
 40
3.25
  0
LINE
  5
3F1
  8
MITTE
 10
102.5755682
 20
221.40000655
 30
0.0
 11
102.5755682
 21
227.1612203
 31
0.0
  0
LINE
  5
3F2
  8
035
 10
100.3255682
 20
224.28061342
 30
0.0
 11
100.51022924
 21
224.28061342
 31
0.0
  0
LINE
  5
3F3
  8
035
 10
104.64090715
 20
224.28061342
 30
0.0
 11
104.8255682
 21
224.28061342
 31
0.0
  0
LINE
  5
3F4
  8
035
 10
110.82556797
 20
224.28061342
 30
0.0
 11
111.01022902
 21
224.28061342
 31
0.0
  0
CIRCLE
  5
3F5
  8
05
 10
128.82368169
 20
215.0457805
 30
0.0
 40
3.25
  0
CIRCLE
  5
3F6
  8
05
 10
118.32368192
 20
215.0457805
 30
0.0
 40
3.25
  0
CIRCLE
  5
3F7
  8
05
 10
128.82368169
 20
215.0457805
 30
0.0
 40
2.25
  0
LINE
  5
3F8
  8
MITTE
 10
125.94307482
 20
215.0457805
 30
0.0
 11
131.70428856
 21
215.0457805
 31
0.0
  0
CIRCLE
  5
3F9
  8
05
 10
123.57556775
 20
205.95142511
 30
0.0
 40
3.25
  0
LINE
  5
3FA
  8
MITTE
 10
123.57556775
 20
203.07081824
 30
0.0
 11
123.57556775
 21
208.83203198
 31
0.0
  0
CIRCLE
  5
3FB
  8
05
 10
123.57556775
 20
205.95142511
 30
0.0
 40
2.25
  0
LINE
  5
3FC
  8
MITTE
 10
115.44307505
 20
196.85924741
 30
0.0
 11
121.20428879
 21
196.85924741
 31
0.0
  0
LINE
  5
3FD
  8
035
 10
116.07368192
 20
196.85924741
 30
0.0
 11
116.25834296
 21
196.85924741
 31
0.0
  0
LINE
  5
3FE
  8
035
 10
115.14090693
 20
205.9536028
 30
0.0
 11
115.32556797
 21
205.9536028
 31
0.0
  0
LINE
  5
3FF
  8
035
 10
120.38902087
 20
196.85924741
 30
0.0
 11
120.57368192
 21
196.85924741
 31
0.0
  0
LINE
  5
400
  8
MITTE
 10
120.69496088
 20
205.95142511
 30
0.0
 11
126.45617462
 21
205.95142511
 31
0.0
  0
LINE
  5
401
  8
035
 10
121.32556775
 20
205.95142511
 30
0.0
 11
121.51022879
 21
205.95142511
 31
0.0
  0
LINE
  5
402
  8
035
 10
125.6409067
 20
205.95142511
 30
0.0
 11
125.82556775
 21
205.95142511
 31
0.0
  0
CIRCLE
  5
403
  8
05
 10
118.32368192
 20
215.0457805
 30
0.0
 40
2.25
  0
LINE
  5
404
  8
MITTE
 10
115.44307505
 20
215.0457805
 30
0.0
 11
121.20428879
 21
215.0457805
 31
0.0
  0
LINE
  5
405
  8
MITTE
 10
118.32368192
 20
212.16299593
 30
0.0
 11
118.32368192
 21
217.92420967
 31
0.0
  0
LINE
  5
406
  8
035
 10
116.07368192
 20
215.0457805
 30
0.0
 11
116.25834296
 21
215.0457805
 31
0.0
  0
LINE
  5
407
  8
035
 10
120.38902087
 20
215.0457805
 30
0.0
 11
120.57368192
 21
215.0457805
 31
0.0
  0
LINE
  5
408
  8
035
 10
126.57368169
 20
215.0457805
 30
0.0
 11
126.75834274
 21
215.0457805
 31
0.0
  0
LINE
  5
409
  8
MITTE
 10
128.82368169
 20
212.16517363
 30
0.0
 11
128.82368169
 21
217.92638737
 31
0.0
  0
LINE
  5
40A
  8
035
 10
130.88902065
 20
215.0457805
 30
0.0
 11
131.07368169
 21
215.0457805
 31
0.0
  0
LINE
  5
40B
  8
MITTE
 10
123.57556775
 20
221.40000655
 30
0.0
 11
123.57556775
 21
227.1612203
 31
0.0
  0
CIRCLE
  5
40C
  8
05
 10
123.57556775
 20
224.28061342
 30
0.0
 40
2.25
  0
CIRCLE
  5
40D
  8
05
 10
123.57556775
 20
224.28061342
 30
0.0
 40
3.25
  0
LINE
  5
40E
  8
MITTE
 10
120.69496088
 20
224.28061342
 30
0.0
 11
126.45617462
 21
224.28061342
 31
0.0
  0
LINE
  5
40F
  8
035
 10
121.32556775
 20
224.28061342
 30
0.0
 11
121.51022879
 21
224.28061342
 31
0.0
  0
LINE
  5
410
  8
035
 10
125.6409067
 20
224.28061342
 30
0.0
 11
125.82556775
 21
224.28061342
 31
0.0
  0
ARC
  5
411
  8
05
 10
113.07556797
 20
212.0136028
 30
0.0
 40
45.0
 50
319.18813645
 51
340.81186355
  0
POLYLINE
  5
412
  8
05
 66
     1
 10
0.0
 20
0.0
 30
0.0
  0
VERTEX
  5
546
  8
05
 10
155.57556797
 20
197.22340335
 30
0.0
  0
VERTEX
  5
547
  8
05
 10
155.57556797
 20
203.35652677
 30
0.0
  0
SEQEND
  5
548
  8
05
  0
POLYLINE
  5
413
  8
05
 66
     1
 10
0.0
 20
0.0
 30
0.0
  0
VERTEX
  5
549
  8
05
 10
155.57556797
 20
220.67067884
 30
0.0
  0
VERTEX
  5
54A
  8
05
 10
155.57556797
 20
226.80380226
 30
0.0
  0
SEQEND
  5
54B
  8
05
  0
POINT
  5
414
  8
05
  6
BYBLOCK
 10
155.57556797
 20
226.80380226
 30
0.0
  0
POLYLINE
  5
415
  8
05
 66
     1
 10
0.0
 20
0.0
 30
0.0
  0
VERTEX
  5
54C
  8
05
 10
147.13425643
 20
241.42458274
 30
0.0
  0
VERTEX
  5
54D
  8
05
 10
141.82281574
 20
244.49114445
 30
0.0
  0
SEQEND
  5
54E
  8
05
  0
ARC
  5
416
  8
05
 10
113.07556797
 20
212.0136028
 30
0.0
 40
45.0
 50
79.18813645
 51
100.81186355
  0
TEXT
  5
417
  8
BEM1
 62
     3
 10
96.12973464
 20
269.63744393
 30
0.0
 40
3.5
  1
SW 17.00 [0.669"]
 41
0.7
 51
15.0
 72
     1
 11
113.07556797
 21
271.38744393
 31
0.0
 73
     2
  0
POLYLINE
  5
418
  8
05
 66
     1
 10
0.0
 20
0.0
 30
0.0
  0
VERTEX
  5
54F
  8
05
 10
84.3283202
 20
244.49114445
 30
0.0
  0
VERTEX
  5
550
  8
05
 10
79.01687951
 20
241.42458274
 30
0.0
  0
SEQEND
  5
551
  8
05
  0
POLYLINE
  5
419
  8
05
 66
     1
 10
0.0
 20
0.0
 30
0.0
  0
VERTEX
  5
552
  8
05
 10
104.63425643
 20
256.21478219
 30
0.0
  0
VERTEX
  5
553
  8
05
 10
99.32281574
 20
253.14822048
 30
0.0
  0
SEQEND
  5
554
  8
05
  0
POLYLINE
  5
41A
  8
05
 66
     1
 10
0.0
 20
0.0
 30
0.0
  0
VERTEX
  5
555
  8
05
 10
126.8283202
 20
253.14822048
 30
0.0
  0
VERTEX
  5
556
  8
05
 10
121.51687951
 20
256.21478219
 30
0.0
  0
SEQEND
  5
557
  8
05
  0
SOLID
  5
41B
  8
BEM1
 10
152.07556797
 20
268.47077727
 30
0.0
 11
152.07556797
 21
267.3041106
 31
0.0
 12
155.57556797
 22
267.88744393
 32
0.0
 13
155.57556797
 23
267.88744393
 33
0.0
  0
LINE
  5
41C
  8
0
  6
BYBLOCK
 62
     4
 10
328.77096827
 20
167.70322695
 30
0.0
 11
328.77096827
 21
142.99469759
 31
0.0
  0
LINE
  5
41D
  8
0
  6
BYBLOCK
 62
     4
 10
232.27598627
 20
174.67691069
 30
0.0
 11
232.27598627
 21
142.99469759
 31
0.0
  0
TEXT
  8
0
  40
3.5
  5
579
  62
3
  72
0
  71
0
 10
273.523
 20
140.350
 30
0.000000
  1
(19.30 [0.760"])
  0
LINE
  5
41F
  8
0
  6
BYBLOCK
 62
     4
 10
325.27096827
 20
143.79469759
 30
0.0
 11
235.77598627
 21
143.79469759
 31
0.0
  0
TEXT
  5
420
  8
035
 10
259.05599827
 20
115.56899327
 30
0.0
 40
3.0
  1
Panel cut out (rear side)
  7
ARIAL
  0
TEXT
  5
421
  8
BEM1
 62
     3
 10
278.24151202
 20
81.84149682
 30
0.0
 40
3.5
  1
13.10 [0.516"]
 50
90.0
 41
0.7
 51
15.0
 72
     1
 11
276.49151202
 21
94.09149682
 31
0.0
 73
     2
  0
TEXT
  5
422
  8
035
 10
259.05599827
 20
121.07462345
 30
0.0
 40
3.5
  1
Frontplattenausschnitt (Rückseite)
  7
ARIAL
  0
SOLID
  5
423
  8
0
  6
BYBLOCK
 62
     4
 10
235.77598627
 20
144.37803093
 30
0.0
 11
235.77598627
 21
143.21136426
 31
0.0
 12
232.27598627
 22
143.79469759
 32
0.0
 13
232.27598627
 23
143.79469759
 33
0.0
  0
POINT
  5
424
  8
DEFPOINTS
  6
BYBLOCK
 62
     0
 10
232.27598627
 20
143.79469759
 30
0.0
  0
LINE
  5
426
  8
BEM1
 10
280.10346501
 20
104.42772739
 30
0.0
 11
280.10346501
 21
81.72772739
 31
0.0
  0
ARC
  5
427
  8
05
 10
303.81660356
 20
94.82772739
 30
0.0
 40
14.1
 50
291.70845261
 51
68.29154739
  0
ARC
  5
428
  8
05
 10
303.81660356
 20
94.82772739
 30
0.0
 40
14.1
 50
111.70845261
 51
248.29154739
  0
LINE
  5
429
  8
MITTE
 10
303.81660356
 20
79.15571814
 30
0.0
 11
303.81660356
 21
110.49973664
 31
0.0
  0
LINE
  5
42A
  8
05
 10
298.60124163
 20
81.72772739
 30
0.0
 11
309.03196548
 21
81.72772739
 31
0.0
  0
LINE
  5
42B
  8
MITTE
 10
288.14459431
 20
94.82772739
 30
0.0
 11
319.4886128
 21
94.82772739
 31
0.0
  0
LINE
  5
42C
  8
BEM1
 10
314.41660356
 20
72.07799042
 30
0.0
 11
289.71660356
 21
72.07799042
 31
0.0
  0
TEXT
  5
42D
  8
BEM1
 62
     3
 10
290.74278995
 20
73.82799042
 30
0.0
 40
3.5
  1
14.10 [0.555"]
 41
0.7
 51
15.0
 72
     1
 11
303.40112329
 21
75.57799042
 31
0.0
 73
     2
  0
LINE
  5
42E
  8
BEM1
 10
289.71660356
 20
79.93958817
 30
0.0
 11
289.71660356
 21
71.07799042
 31
0.0
  0
SOLID
  5
42F
  8
BEM1
 10
293.21660356
 20
72.66132375
 30
0.0
 11
293.21660356
 21
71.49465709
 31
0.0
 12
289.71660356
 22
72.07799042
 32
0.0
 13
289.71660356
 23
72.07799042
 33
0.0
  0
LINE
  5
430
  8
BEM1
 10
297.60124163
 20
81.72772739
 30
0.0
 11
279.10346501
 21
81.72772739
 31
0.0
  0
LINE
  5
431
  8
BEM1
 10
289.71660356
 20
90.99391576
 30
0.0
 11
289.71660356
 21
83.87820678
 31
0.0
  0
SOLID
  5
432
  8
BEM1
 10
279.52013168
 20
85.22772739
 30
0.0
 11
280.68679834
 21
85.22772739
 31
0.0
 12
280.10346501
 22
81.72772739
 32
0.0
 13
280.10346501
 23
81.72772739
 33
0.0
  0
LINE
  5
433
  8
BEM1
 10
317.91660356
 20
90.05503733
 30
0.0
 11
317.91660356
 21
71.07799042
 31
0.0
  0
SOLID
  5
434
  8
BEM1
 10
314.41660356
 20
72.66132375
 30
0.0
 11
314.41660356
 21
71.49465709
 31
0.0
 12
317.91660356
 22
72.07799042
 32
0.0
 13
317.91660356
 23
72.07799042
 33
0.0
  0
LINE
  5
435
  8
05
 10
298.60124163
 20
107.92772739
 30
0.0
 11
309.03196548
 21
107.92772739
 31
0.0
  0
LINE
  5
436
  8
BEM1
 10
295.84360239
 20
107.92772739
 30
0.0
 11
279.10346501
 21
107.92772739
 31
0.0
  0
SOLID
  5
437
  8
BEM1
 10
279.52013168
 20
104.42772739
 30
0.0
 11
280.68679834
 21
104.42772739
 31
0.0
 12
280.10346501
 22
107.92772739
 32
0.0
 13
280.10346501
 23
107.92772739
 33
0.0
  0
TEXT
  5
438
  8
035
 10
319.24287537
 20
115.56899327
 30
0.0
 40
3.5
  1
(M 2:1)
 41
0.7
 51
15.0
  0
SOLID
  5
439
  8
0
  6
BYBLOCK
 62
     4
 10
325.27096827
 20
144.37803093
 30
0.0
 11
325.27096827
 21
143.21136426
 31
0.0
 12
328.77096827
 22
143.79469759
 32
0.0
 13
328.77096827
 23
143.79469759
 33
0.0
  0
LINE
  5
43A
  8
0
  6
BYBLOCK
 62
     4
 10
324.57122827
 20
254.5113928
 30
0.0
 11
347.96841006
 21
254.5113928
 31
0.0
  0
LINE
  5
43B
  8
0
  6
BYBLOCK
 62
     4
 10
324.57122827
 20
169.5158128
 30
0.0
 11
347.96841006
 21
169.5158128
 31
0.0
  0
LINE
  5
43C
  8
0
  6
BYBLOCK
 62
     4
 10
218.67855097
 20
243.5117828
 30
0.0
 11
218.67855097
 21
180.5154228
 31
0.0
  0
LINE
  5
43D
  8
05
 10
318.77148827
 20
212.0136028
 30
0.0
 11
318.77148827
 21
253.5114448
 31
0.0
  0
LINE
  5
43E
  8
05
 10
295.33311411
 20
241.42458274
 30
0.0
 11
295.33311411
 21
226.80380226
 31
0.0
  0
LINE
  5
43F
  8
05
 10
306.06397235
 20
241.42458274
 30
0.0
 11
306.06397235
 21
226.80380226
 31
0.0
  0
LINE
  5
440
  8
05
 10
328.77096827
 20
179.51536247
 30
0.0
 11
328.77096827
 21
244.51184314
 31
0.0
  0
LINE
  5
441
  8
05
 10
294.44854323
 20
175.20752314
 30
0.0
 11
294.44854323
 21
248.81968246
 31
0.0
  0
LINE
  5
442
  8
05
 10
306.94854323
 20
175.20752314
 30
0.0
 11
306.94854323
 21
248.81968246
 31
0.0
  0
LINE
  5
443
  8
05
 10
278.57357867
 20
247.0117828
 30
0.0
 11
278.57357867
 21
177.0154228
 31
0.0
  0
LINE
  5
444
  8
05
 10
323.77122827
 20
169.5158128
 30
0.0
 11
323.77122827
 21
245.05119978
 31
0.0
  0
LINE
  5
445
  8
05
 62
     4
 10
319.77143627
 20
247.0117828
 30
0.0
 11
319.77143627
 21
169.5158128
 31
0.0
  0
LINE
  5
446
  8
05
 10
256.60421529
 20
241.0136028
 30
0.0
 11
261.80036771
 21
244.0136028
 31
0.0
  0
LINE
  5
447
  8
05
 10
261.80036771
 20
244.0136028
 30
0.0
 11
261.80036771
 21
219.5136028
 31
0.0
  0
LINE
  5
448
  8
05
 10
276.27408827
 20
244.0136028
 30
0.0
 11
276.27408827
 21
180.0136028
 31
0.0
  0
LINE
  5
449
  8
MITTE
 10
244.14802714
 20
212.0136028
 30
0.0
 11
333.8921343
 21
212.0136028
 31
0.0
  0
LINE
  5
44A
  8
05
 10
261.80036771
 20
180.0136028
 30
0.0
 11
276.27408827
 21
180.0136028
 31
0.0
  0
POLYLINE
  5
44B
  8
VERDECKT
  6
HIDDEN
 66
     1
 10
0.0
 20
0.0
 30
0.0
  0
VERTEX
  5
558
  8
VERDECKT
  6
HIDDEN
 10
247.27520627
 20
193.11023044
 30
0.0
  0
VERTEX
  5
559
  8
VERDECKT
  6
HIDDEN
 10
232.27598627
 20
193.11023044
 30
0.0
  0
VERTEX
  5
55A
  8
VERDECKT
  6
HIDDEN
 10
232.27598627
 20
196.86003544
 30
0.0
  0
VERTEX
  5
55B
  8
VERDECKT
  6
HIDDEN
 10
234.77585627
 20
196.86003544
 30
0.0
 42
0.185693
  0
VERTEX
  5
55C
  8
VERDECKT
  6
HIDDEN
 10
239.80169846
 20
198.79322284
 30
0.0
 42
0.07835742
  0
VERTEX
  5
55D
  8
VERDECKT
  6
HIDDEN
 10
241.27070905
 20
200.60984044
 30
0.0
  0
VERTEX
  5
55E
  8
VERDECKT
  6
HIDDEN
 10
247.27520627
 20
200.60984044
 30
0.0
  0
SEQEND
  5
55F
  8
VERDECKT
  6
HIDDEN
  0
LINE
  5
44E
  8
05
 10
252.27408827
 20
204.5136028
 30
0.0
 11
252.27408827
 21
185.74547489
 31
0.0
  0
LINE
  5
44F
  8
05
 10
261.80036771
 20
204.5136028
 30
0.0
 11
261.80036771
 21
180.0136028
 31
0.0
  0
LINE
  5
450
  8
05
 10
247.27408827
 20
241.0136028
 30
0.0
 11
247.27408827
 21
185.5136028
 31
0.0
  0
LINE
  5
451
  8
0
  6
BYBLOCK
 62
     4
 10
275.39614392
 20
177.0154228
 30
0.0
 11
217.87855097
 21
177.0154228
 31
0.0
  0
SOLID
  5
452
  8
0
  6
BYBLOCK
 62
     4
 10
218.09521763
 20
180.5154228
 30
0.0
 11
219.2618843
 21
180.5154228
 31
0.0
 12
218.67855097
 22
177.0154228
 32
0.0
 13
218.67855097
 23
177.0154228
 33
0.0
  0
POINT
  5
453
  8
DEFPOINTS
  6
BYBLOCK
 62
     0
 10
218.67855097
 20
177.0154228
 30
0.0
  0
LINE
  5
454
  8
0
  6
BYBLOCK
 62
     4
 10
232.27598627
 20
190.84205811
 30
0.0
 11
232.27598627
 21
179.71511558
 31
0.0
  0
LINE
  5
455
  8
05
 10
252.27408827
 20
185.5136028
 30
0.0
 11
261.80036771
 21
180.0136028
 31
0.0
  0
LINE
  5
456
  8
05
 10
247.27408827
 20
185.5136028
 30
0.0
 11
252.27408827
 21
185.5136028
 31
0.0
  0
POLYLINE
  5
457
  8
VERDECKT
  6
HIDDEN
 66
     1
 10
0.0
 20
0.0
 30
0.0
  0
VERTEX
  5
560
  8
VERDECKT
  6
HIDDEN
 10
247.27520627
 20
202.20193534
 30
0.0
  0
VERTEX
  5
561
  8
VERDECKT
  6
HIDDEN
 10
232.27598627
 20
202.20193534
 30
0.0
  0
VERTEX
  5
562
  8
VERDECKT
  6
HIDDEN
 10
232.27598627
 20
205.95174034
 30
0.0
  0
VERTEX
  5
563
  8
VERDECKT
  6
HIDDEN
 10
234.77585627
 20
205.95174034
 30
0.0
 42
0.185693
  0
VERTEX
  5
564
  8
VERDECKT
  6
HIDDEN
 10
239.80169846
 20
207.88492775
 30
0.0
 42
0.07835742
  0
VERTEX
  5
565
  8
VERDECKT
  6
HIDDEN
 10
241.27070905
 20
209.70154534
 30
0.0
  0
VERTEX
  5
566
  8
VERDECKT
  6
HIDDEN
 10
247.27520627
 20
209.70154534
 30
0.0
  0
SEQEND
  5
567
  8
VERDECKT
  6
HIDDEN
  0
POLYLINE
  5
458
  8
VERDECKT
  6
HIDDEN
 66
     1
 10
0.0
 20
0.0
 30
0.0
  0
VERTEX
  5
568
  8
VERDECKT
  6
HIDDEN
 10
247.27520627
 20
211.29581783
 30
0.0
  0
VERTEX
  5
569
  8
VERDECKT
  6
HIDDEN
 10
232.27598627
 20
211.29581783
 30
0.0
  0
VERTEX
  5
56A
  8
VERDECKT
  6
HIDDEN
 10
232.27598627
 20
215.04562283
 30
0.0
  0
VERTEX
  5
56B
  8
VERDECKT
  6
HIDDEN
 10
234.77585627
 20
215.04562283
 30
0.0
 42
0.185693
  0
VERTEX
  5
56C
  8
VERDECKT
  6
HIDDEN
 10
239.80169846
 20
216.97881023
 30
0.0
 42
0.07835742
  0
VERTEX
  5
56D
  8
VERDECKT
  6
HIDDEN
 10
241.27070905
 20
218.79542783
 30
0.0
  0
VERTEX
  5
56E
  8
VERDECKT
  6
HIDDEN
 10
247.27520627
 20
218.79542783
 30
0.0
  0
SEQEND
  5
56F
  8
VERDECKT
  6
HIDDEN
  0
POLYLINE
  5
459
  8
VERDECKT
  6
HIDDEN
 66
     1
 10
0.0
 20
0.0
 30
0.0
  0
VERTEX
  5
570
  8
VERDECKT
  6
HIDDEN
 10
247.27520627
 20
220.53017054
 30
0.0
  0
VERTEX
  5
571
  8
VERDECKT
  6
HIDDEN
 10
232.27598627
 20
220.53017054
 30
0.0
  0
VERTEX
  5
572
  8
VERDECKT
  6
HIDDEN
 10
232.27598627
 20
224.27997554
 30
0.0
  0
VERTEX
  5
573
  8
VERDECKT
  6
HIDDEN
 10
234.77585627
 20
224.27997554
 30
0.0
 42
0.185693
  0
VERTEX
  5
574
  8
VERDECKT
  6
HIDDEN
 10
239.80169846
 20
226.21316295
 30
0.0
 42
0.07835742
  0
VERTEX
  5
575
  8
VERDECKT
  6
HIDDEN
 10
241.27070905
 20
228.02978054
 30
0.0
  0
VERTEX
  5
576
  8
VERDECKT
  6
HIDDEN
 10
247.27520627
 20
228.02978054
 30
0.0
  0
SEQEND
  5
577
  8
VERDECKT
  6
HIDDEN
  0
TEXT
  8
0
  40
3.5
  5
57A
  62
3
  72
0
  71
0
 10
208.929
 20
205.819
 30
0.000000
  1
M14x0.75 [0.551"]
  0
LINE
  5
45B
  8
035
 10
262.30036771
 20
219.5136028
 30
0.0
 11
262.30036771
 21
204.5136028
 31
0.0
  0
LINE
  5
45C
  8
05
 10
268.77408827
 20
219.5136028
 30
0.0
 11
268.77408827
 21
204.5136028
 31
0.0
  0
LINE
  5
45D
  8
05
 10
252.27408827
 20
204.5136028
 30
0.0
 11
268.77408827
 21
204.5136028
 31
0.0
  0
LINE
  5
45E
  8
05
 10
252.27408827
 20
219.5136028
 30
0.0
 11
268.77408827
 21
219.5136028
 31
0.0
  0
LINE
  5
45F
  8
05
 10
252.27408827
 20
237.93117311
 30
0.0
 11
252.27408827
 21
219.5136028
 31
0.0
  0
LINE
  5
460
  8
05
 10
247.27408827
 20
241.0136028
 30
0.0
 11
256.60421529
 21
241.0136028
 31
0.0
  0
LINE
  5
461
  8
05
 10
247.27408827
 20
237.93117311
 30
0.0
 11
252.27408827
 21
237.93117311
 31
0.0
  0
LINE
  5
462
  8
05
 10
252.27408827
 20
237.93117311
 30
0.0
 11
256.60421529
 21
240.43117311
 31
0.0
  0
LINE
  5
463
  8
05
 10
256.60421529
 20
241.0136028
 30
0.0
 11
256.60421529
 21
240.43117311
 31
0.0
  0
LINE
  5
464
  8
05
 10
295.33311411
 20
182.60262287
 30
0.0
 11
295.33311411
 21
197.22340335
 31
0.0
  0
LINE
  5
465
  8
05
 10
306.06397235
 20
182.60262287
 30
0.0
 11
306.06397235
 21
197.22340335
 31
0.0
  0
LINE
  5
466
  8
05
 10
318.77148827
 20
212.0136028
 30
0.0
 11
318.77148827
 21
170.5157608
 31
0.0
  0
LINE
  5
467
  8
05
 10
318.77148827
 20
177.0154228
 30
0.0
 11
306.94854323
 21
177.0154228
 31
0.0
  0
LINE
  5
468
  8
010
 10
318.77148827
 20
179.3153032
 30
0.0
 11
306.94854323
 21
179.3153032
 31
0.0
  0
TEXT
  8
0
  40
3.5
  5
57B
  62
3
  72
0
  71
0
 10
295.016
 20
149.337
 30
0.000000
  1
2.00 [0.079"]
  0
LINE
  5
46B
  8
0
  6
BYBLOCK
 62
     4
 10
335.14524632
 20
152.570608
 30
0.0
 11
289.64113783
 21
152.570608
 31
0.0
  0
ARC
  5
46C
  8
05
 10
325.80270989
 20
175.20752314
 30
0.0
 40
31.35416667
 50
166.35785456
 51
195.14925168
  0
ARC
  5
46D
  8
05
 10
275.59437656
 20
175.20752314
 30
0.0
 40
31.35416667
 50
344.85074832
 51
13.64214544
  0
LINE
  5
46E
  8
05
 10
295.53815246
 20
167.0136028
 30
0.0
 11
305.858934
 21
167.0136028
 31
0.0
  0
LINE
  5
46F
  8
010
 10
294.4671073
 20
179.3153032
 30
0.0
 11
276.27369827
 21
179.3153032
 31
0.0
  0
LINE
  5
470
  8
05
 10
294.4671073
 20
177.0154228
 30
0.0
 11
278.57357867
 21
177.0154228
 31
0.0
  0
LINE
  5
471
  8
05
 10
276.27369827
 20
179.3153032
 30
0.0
 11
278.57357867
 21
177.0154228
 31
0.0
  0
POINT
  5
472
  8
DEFPOINTS
  6
BYBLOCK
 62
     0
 10
278.57357867
 20
177.0154228
 30
0.0
  0
LINE
  5
473
  8
05
 10
295.33311411
 20
182.60262287
 30
0.0
 11
306.06397235
 21
182.60262287
 31
0.0
  0
LINE
  5
474
  8
0
  6
BYBLOCK
 62
     4
 10
328.77096827
 20
175.92611725
 30
0.0
 11
328.77096827
 21
171.33659732
 31
0.0
  0
LINE
  5
475
  8
05
 10
328.10109529
 20
177.01536247
 30
0.0
 11
323.77122827
 21
169.5158128
 31
0.0
  0
LINE
  5
476
  8
0
  6
BYBLOCK
 62
     4
 10
318.77148827
 20
169.7157608
 30
0.0
 11
318.77148827
 21
151.770608
 31
0.0
  0
SOLID
  5
477
  8
0
  6
BYBLOCK
 62
     4
 10
315.27148827
 20
153.15394134
 30
0.0
 11
315.27148827
 21
151.98727467
 31
0.0
 12
318.77148827
 22
152.570608
 32
0.0
 13
318.77148827
 23
152.570608
 33
0.0
  0
POINT
  5
478
  8
DEFPOINTS
  6
BYBLOCK
 62
     0
 10
318.77148827
 20
152.570608
 30
0.0
  0
LINE
  5
479
  8
05
 10
323.77122827
 20
169.5158128
 30
0.0
 11
319.77143627
 21
169.5158128
 31
0.0
  0
POINT
  5
47A
  8
05
  6
BYBLOCK
 10
318.77148827
 20
170.5157608
 30
0.0
  0
LINE
  5
47B
  8
05
 10
318.77148827
 20
170.5157608
 30
0.0
 11
319.77143627
 21
169.5158128
 31
0.0
  0
POINT
  5
47C
  8
05
  6
BYBLOCK
 10
323.77122827
 20
169.5158128
 30
0.0
  0
SOLID
  5
47D
  8
0
  6
BYBLOCK
 62
     4
 10
332.27096827
 20
153.15394134
 30
0.0
 11
332.27096827
 21
151.98727467
 31
0.0
 12
328.77096827
 22
152.570608
 32
0.0
 13
328.77096827
 23
152.570608
 33
0.0
  0
ARC
  5
47E
  8
05
 10
323.77096827
 20
179.51536247
 30
0.0
 40
5.0
 50
330.0
 51
0.0
  0
POINT
  5
47F
  8
05
  6
BYBLOCK
 10
328.77096827
 20
179.51536247
 30
0.0
  0
POINT
  5
480
  8
05
  6
BYBLOCK
 10
328.77096827
 20
179.51536247
 30
0.0
  0
ARC
  5
481
  8
05
 10
182.85873288
 20
212.0136028
 30
0.0
 40
124.08981035
 50
353.15467275
 51
6.84532725
  0
ARC
  5
482
  8
05
 10
418.53835357
 20
212.0136028
 30
0.0
 40
124.08981035
 50
173.15467275
 51
186.84532725
  0
LINE
  5
483
  8
05
 10
295.33311411
 20
197.22340335
 30
0.0
 11
306.06397235
 21
197.22340335
 31
0.0
  0
LINE
  5
484
  8
05
 10
295.33311411
 20
226.80380226
 30
0.0
 11
306.06397235
 21
226.80380226
 31
0.0
  0
TEXT
  8
0
  40
3.5
  5
57C
  62
3
  72
0
  71
0
 10
281.023
 20
264.442
 30
0.000000
  1
16.30 [0.642"]
  0
LINE
  5
486
  8
0
  6
BYBLOCK
 62
     4
 10
250.77520627
 20
267.88744393
 30
0.0
 11
325.27096827
 21
267.88744393
 31
0.0
  0
LINE
  5
487
  8
05
 10
261.80036771
 20
244.0136028
 30
0.0
 11
276.27408827
 21
244.0136028
 31
0.0
  0
LINE
  5
488
  8
0
  6
BYBLOCK
 62
     4
 10
275.39614292
 20
247.0117828
 30
0.0
 11
217.87855097
 21
247.0117828
 31
0.0
  0
SOLID
  5
489
  8
0
  6
BYBLOCK
 62
     4
 10
218.09521763
 20
243.5117828
 30
0.0
 11
219.2618843
 21
243.5117828
 31
0.0
 12
218.67855097
 22
247.0117828
 32
0.0
 13
218.67855097
 23
247.0117828
 33
0.0
  0
LINE
  5
48A
  8
0
  6
BYBLOCK
 62
     4
 10
247.27520627
 20
249.13183416
 30
0.0
 11
247.27520627
 21
268.68744393
 31
0.0
  0
LINE
  5
48B
  8
0
  6
BYBLOCK
 62
     4
 10
247.27520627
 20
242.66539206
 30
0.0
 11
247.27520627
 21
244.86618756
 31
0.0
  0
SOLID
  5
48C
  8
0
  6
BYBLOCK
 62
     4
 10
250.77520627
 20
268.47077727
 30
0.0
 11
250.77520627
 21
267.3041106
 31
0.0
 12
247.27520627
 22
267.88744393
 32
0.0
 13
247.27520627
 23
267.88744393
 33
0.0
  0
LINE
  5
48D
  8
010
 10
318.77148827
 20
244.7119024
 30
0.0
 11
306.94854323
 21
244.7119024
 31
0.0
  0
LINE
  5
48E
  8
05
 10
318.77148827
 20
247.0117828
 30
0.0
 11
306.94854323
 21
247.0117828
 31
0.0
  0
LINE
  5
48F
  8
010
 10
294.4671073
 20
244.7119024
 30
0.0
 11
276.27369827
 21
244.7119024
 31
0.0
  0
LINE
  5
490
  8
05
 10
294.4671073
 20
247.0117828
 30
0.0
 11
278.57357867
 21
247.0117828
 31
0.0
  0
POINT
  5
491
  8
DEFPOINTS
  6
BYBLOCK
 62
     0
 10
278.57357867
 20
247.0117828
 30
0.0
  0
LINE
  5
492
  8
05
 10
276.27369827
 20
244.7119024
 30
0.0
 11
278.57357867
 21
247.0117828
 31
0.0
  0
ARC
  5
493
  8
05
 10
275.59437656
 20
248.81968246
 30
0.0
 40
31.35416667
 50
346.35785456
 51
15.14925168
  0
ARC
  5
494
  8
05
 10
325.80270989
 20
248.81968246
 30
0.0
 40
31.35416667
 50
164.85074832
 51
193.64214544
  0
LINE
  5
495
  8
05
 10
295.33311411
 20
241.42458274
 30
0.0
 11
306.06397235
 21
241.42458274
 31
0.0
  0
LINE
  5
496
  8
05
 10
295.53815246
 20
257.0136028
 30
0.0
 11
305.858934
 21
257.0136028
 31
0.0
  0
LINE
  5
497
  8
0
  6
BYBLOCK
 62
     4
 10
328.77096827
 20
257.27534124
 30
0.0
 11
328.77096827
 21
268.68744393
 31
0.0
  0
LINE
  5
498
  8
05
 10
328.10109529
 20
247.01184314
 30
0.0
 11
323.77122827
 21
254.5113928
 31
0.0
  0
LINE
  5
499
  8
05
 62
     4
 10
319.77143627
 20
254.5113928
 30
0.0
 11
319.77143627
 21
249.76062065
 31
0.0
  0
LINE
  5
49A
  8
035
 10
323.77122827
 20
248.02557163
 30
0.0
 11
323.77122827
 21
250.99994347
 31
0.0
  0
LINE
  5
49B
  8
05
 10
323.77122827
 20
254.5113928
 30
0.0
 11
319.77143627
 21
254.5113928
 31
0.0
  0
LINE
  5
49C
  8
05
 10
318.77148827
 20
253.5114448
 30
0.0
 11
319.77143627
 21
254.5113928
 31
0.0
  0
POINT
  5
49D
  8
05
  6
BYBLOCK
 10
323.77122827
 20
254.5113928
 30
0.0
  0
POINT
  5
49E
  8
05
  6
BYBLOCK
 10
328.77096827
 20
244.51184314
 30
0.0
  0
ARC
  5
49F
  8
05
 10
323.77096827
 20
244.51184314
 30
0.0
 40
5.0
 50
0.0
 51
30.0
  0
LINE
  5
4A0
  8
0
  6
BYBLOCK
 62
     4
 10
328.77096827
 20
248.40229234
 30
0.0
 11
328.77096827
 21
252.62190853
 31
0.0
  0
SOLID
  5
4A1
  8
0
  6
BYBLOCK
 62
     4
 10
325.27096827
 20
268.47077727
 30
0.0
 11
325.27096827
 21
267.3041106
 31
0.0
 12
328.77096827
 22
267.88744393
 32
0.0
 13
328.77096827
 23
267.88744393
 33
0.0
  0
LINE
  5
4A2
  8
0
  6
BYBLOCK
 62
     4
 10
347.16841006
 20
251.0113928
 30
0.0
 11
347.16841006
 21
173.0158128
 31
0.0
  0
SOLID
  5
4A3
  8
0
  6
BYBLOCK
 62
     4
 10
346.58507673
 20
173.0158128
 30
0.0
 11
347.7517434
 21
173.0158128
 31
0.0
 12
347.16841006
 22
169.5158128
 32
0.0
 13
347.16841006
 23
169.5158128
 33
0.0
  0
POINT
  5
4A4
  8
DEFPOINTS
  6
BYBLOCK
 62
     0
 10
347.16841006
 20
169.5158128
 30
0.0
  0
TEXT
  8
0
  40
3.5
  5
57D
  62
3
  72
0
  71
0
 10
337.418
 20
205.819
 30
0.000000
  1
%%%%%%c17.00 [0.669"]
  0
SOLID
  5
4A6
  8
0
  6
BYBLOCK
 62
     4
 10
346.58507673
 20
251.0113928
 30
0.0
 11
347.7517434
 21
251.0113928
 31
0.0
 12
347.16841006
 22
254.5113928
 32
0.0
 13
347.16841006
 23
254.5113928
 33
0.0
  0
ENDSEC
  0
EOF
