  0
SECTION
  2
HEADER
  9
$ACADVER
  1
AC1009
  9
$INSBASE
 10
0.0
 20
0.0
 30
0.0
  9
$EXTMIN
 10
0.0
 20
0.0
 30
0.0
  9
$EXTMAX
 10
420.0
 20
297.0
 30
0.0
  9
$LIMMIN
 10
0.0
 20
0.0
  9
$LIMMAX
 10
420.0
 20
297.0
  9
$ORTHOMODE
 70
     1
  9
$REGENMODE
 70
     1
  9
$FILLMODE
 70
     1
  9
$QTEXTMODE
 70
     0
  9
$MIRRTEXT
 70
     1
  9
$DRAGMODE
 70
     2
  9
$LTSCALE
 40
23.1
  9
$OSMODE
 70
    35
  9
$ATTMODE
 70
     1
  9
$TEXTSIZE
 40
2.5
  9
$TRACEWID
 40
1.0
  9
$TEXTSTYLE
  7
STANDARD
  9
$CLAYER
  8
0
  9
$CELTYPE
  6
BYLAYER
  9
$CECOLOR
 62
   256
  9
$DIMSCALE
 40
1.0
  9
$DIMASZ
 40
3.5
  9
$DIMEXO
 40
2.625
  9
$DIMDLI
 40
15.96
  9
$DIMRND
 40
0.0
  9
$DIMDLE
 40
0.0
  9
$DIMEXE
 40
7.56
  9
$DIMTP
 40
0.005
  9
$DIMTM
 40
0.005
  9
$DIMTXT
 40
3.5
  9
$DIMCEN
 40
3.78
  9
$DIMTSZ
 40
0.0
  9
$DIMTOL
 70
     1
  9
$DIMLIM
 70
     0
  9
$DIMTIH
 70
     0
  9
$DIMTOH
 70
     0
  9
$DIMSE1
 70
     0
  9
$DIMSE2
 70
     0
  9
$DIMTAD
 70
     1
  9
$DIMZIN
 70
     8
  9
$DIMBLK
  1
_FILLED
  9
$DIMASO
 70
     1
  9
$DIMSHO
 70
     1
  9
$DIMPOST
  1

  9
$DIMAPOST
  1

  9
$DIMALT
 70
     0
  9
$DIMALTD
 70
     4
  9
$DIMALTF
 40
0.0394
  9
$DIMLFAC
 40
1.0
  9
$DIMTOFL
 70
     1
  9
$DIMTVP
 40
0.0
  9
$DIMTIX
 70
     0
  9
$DIMSOXD
 70
     0
  9
$DIMSAH
 70
     0
  9
$DIMBLK1
  1

  9
$DIMBLK2
  1

  9
$DIMSTYLE
  2
STANDARD
  9
$DIMCLRD
 70
     0
  9
$DIMCLRE
 70
     0
  9
$DIMCLRT
 70
     0
  9
$DIMTFAC
 40
1.0
  9
$DIMGAP
 40
0.625
  9
$LUNITS
 70
     2
  9
$LUPREC
 70
     4
  9
$SKETCHINC
 40
1.0
  9
$FILLETRAD
 40
10.0
  9
$AUNITS
 70
     0
  9
$AUPREC
 70
     0
  9
$MENU
  1
.
  9
$ELEVATION
 40
0.0
  9
$PELEVATION
 40
0.0
  9
$THICKNESS
 40
0.0
  9
$LIMCHECK
 70
     0
  9
$BLIPMODE
 70
     0
  9
$CHAMFERA
 40
10.0
  9
$CHAMFERB
 40
10.0
  9
$SKPOLY
 70
     0
  9
$TDCREATE
 40
2453112.475984
  9
$TDUPDATE
 40
2453115.424572
  9
$TDINDWG
 40
0.005637
  9
$TDUSRTIMER
 40
0.005637
  9
$USRTIMER
 70
     1
  9
$ANGBASE
 50
0.0
  9
$ANGDIR
 70
     0
  9
$PDMODE
 70
     3
  9
$PDSIZE
 40
0.3125
  9
$PLINEWID
 40
0.0
  9
$COORDS
 70
     1
  9
$SPLFRAME
 70
     0
  9
$SPLINETYPE
 70
     6
  9
$SPLINESEGS
 70
     8
  9
$ATTDIA
 70
     0
  9
$ATTREQ
 70
     1
  9
$HANDLING
 70
     1
  9
$HANDSEED
  5
1092
  9
$SURFTAB1
 70
     6
  9
$SURFTAB2
 70
     6
  9
$SURFTYPE
 70
     6
  9
$SURFU
 70
     6
  9
$SURFV
 70
     6
  9
$UCSNAME
  2

  9
$UCSORG
 10
0.0
 20
0.0
 30
0.0
  9
$UCSXDIR
 10
1.0
 20
0.0
 30
0.0
  9
$UCSYDIR
 10
0.0
 20
1.0
 30
0.0
  9
$PUCSNAME
  2

  9
$PUCSORG
 10
0.0
 20
0.0
 30
0.0
  9
$PUCSXDIR
 10
1.0
 20
0.0
 30
0.0
  9
$PUCSYDIR
 10
0.0
 20
1.0
 30
0.0
  9
$USERI1
 70
     0
  9
$USERI2
 70
     0
  9
$USERI3
 70
     0
  9
$USERI4
 70
     0
  9
$USERI5
 70
     0
  9
$USERR1
 40
0.0
  9
$USERR2
 40
0.0
  9
$USERR3
 40
0.0
  9
$USERR4
 40
0.0
  9
$USERR5
 40
0.0
  9
$WORLDVIEW
 70
     1
  9
$SHADEDGE
 70
     3
  9
$SHADEDIF
 70
    70
  9
$TILEMODE
 70
     1
  9
$MAXACTVP
 70
    48
  9
$PLIMCHECK
 70
     0
  9
$PEXTMIN
 10
1.000000E+020
 20
1.000000E+020
 30
1.000000E+020
  9
$PEXTMAX
 10
-1.000000E+020
 20
-1.000000E+020
 30
-1.000000E+020
  9
$PLIMMIN
 10
0.0
 20
0.0
  9
$PLIMMAX
 10
420.0
 20
297.0
  9
$UNITMODE
 70
     0
  9
$VISRETAIN
 70
     1
  9
$PLINEGEN
 70
     0
  9
$PSLTSCALE
 70
     1
  0
ENDSEC
  0
SECTION
  2
TABLES
  0
TABLE
  2
VPORT
 70
     2
  0
VPORT
  2
*ACTIVE
 70
     0
 10
0.0
 20
0.0
 11
1.0
 21
1.0
 12
210.000001
 22
148.500001
 13
0.0
 23
0.0
 14
1.0
 24
1.0
 15
0.0
 25
0.0
 16
0.0
 26
0.0
 36
1.0
 17
0.0
 27
0.0
 37
0.0
 40
299.242982
 41
1.525
 42
50.0
 43
0.0
 44
0.0
 50
0.0
 51
0.0
 71
     0
 72
   100
 73
     1
 74
     1
 75
     0
 76
     0
 77
     0
 78
     0
  0
ENDTAB
  0
TABLE
  2
LTYPE
 70
     6
  0
LTYPE
  2
CONTINUOUS
 70
     0
  3
Solid line
 72
    65
 73
     0
 40
0.0
  0
LTYPE
  2
CENTER
 70
     0
  3
____ _ ____ _ ____ _ ____ _ ____ _ ____ _ ____
 72
    65
 73
     4
 40
0.6
 49
0.375
 49
-0.075
 49
0.075
 49
-0.075
  0
LTYPE
  2
HIDDEN
 70
     0
  3
- - - - - - - - - - - - - - - - - - - -
 72
    65
 73
     2
 40
0.2
 49
0.1
 49
-0.1
  0
LTYPE
  2
PHANTOM
 70
     0
  3
_____ _ _ _____ _ _ _____ _ _ _____
 72
    65
 73
     6
 40
0.8
 49
0.45
 49
-0.05
 49
0.1
 49
-0.05
 49
0.1
 49
-0.05
  0
LTYPE
  2
DOT
 70
     0
  3
. . . . . . . . . . . . . . . . . . . .
 72
    65
 73
     2
 40
0.2
 49
0.1
 49
-0.1
  0
LTYPE
  2
DASHED
 70
     0
  3
- - - - - - - - - - - - - - - - - - - -
 72
    65
 73
     2
 40
0.2
 49
0.1
 49
-0.1
  0
ENDTAB
  0
TABLE
  2
LAYER
 70
    30
  0
LAYER
  2
0
 70
     0
 62
     7
  6
CONTINUOUS
  0
LAYER
  2
DEFAULT_1
 70
     0
 62
     7
  6
CENTER
  0
LAYER
  2
DEFAULT_2
 70
     0
 62
     8
  6
HIDDEN
  0
LAYER
  2
DEFAULT_3
 70
     0
 62
     7
  6
PHANTOM
  0
LAYER
  2
_BLACK_HOLE
 70
     0
 62
     7
  6
CONTINUOUS
  0
LAYER
  2
4171
 70
     0
 62
     7
  6
CONTINUOUS
  0
LAYER
  2
BEMASSUNGEN
 70
     0
 62
     7
  6
CONTINUOUS
  0
LAYER
  2
BEZUG
 70
     0
 62
     7
  6
CONTINUOUS
  0
LAYER
  2
BEZUGSACHSEN
 70
     0
 62
     7
  6
CONTINUOUS
  0
LAYER
  2
BEZUGSEBENEN
 70
     0
 62
     7
  6
CONTINUOUS
  0
LAYER
  2
BG_STARTBEZUEGE
 70
     0
 62
     7
  6
CONTINUOUS
  0
LAYER
  2
BOHRUNGEN
 70
     0
 62
     7
  6
CONTINUOUS
  0
LAYER
  2
BZ-EBENEN
 70
     0
 62
     7
  6
CONTINUOUS
  0
LAYER
  2
BZ-KOORDSYS
 70
     0
 62
     7
  6
CONTINUOUS
  0
LAYER
  2
BZ-KURVEN
 70
     0
 62
     7
  6
CONTINUOUS
  0
LAYER
  2
CRI
 70
     0
 62
     7
  6
CONTINUOUS
  0
LAYER
  2
DETAILS
 70
     0
 62
     7
  6
CONTINUOUS
  0
LAYER
  2
FASEN
 70
     0
 62
     7
  6
CONTINUOUS
  0
LAYER
  2
FLAECHEN
 70
     0
 62
     7
  6
CONTINUOUS
  0
LAYER
  2
GEWINDE
 70
     0
 62
     7
  6
CONTINUOUS
  0
LAYER
  2
HILFEN
 70
     0
 62
     7
  6
CONTINUOUS
  0
LAYER
  2
KANTENFASEN
 70
     0
 62
     7
  6
CONTINUOUS
  0
LAYER
  2
KE-OHNE-GEOMETRIE
 70
     0
 62
     7
  6
CONTINUOUS
  0
LAYER
  2
KURVEN
 70
     0
 62
     7
  6
CONTINUOUS
  0
LAYER
  2
PLAZIERUNG
 70
     0
 62
     7
  6
CONTINUOUS
  0
LAYER
  2
RUNDUNGEN
 70
     0
 62
     7
  6
CONTINUOUS
  0
LAYER
  2
TEIL_STARTBEZUEGE
 70
     0
 62
     7
  6
CONTINUOUS
  0
LAYER
  2
XI
 70
     0
 62
     7
  6
CONTINUOUS
  0
LAYER
  2
XSEC_DATUMS
 70
     0
 62
     7
  6
CONTINUOUS
  0
LAYER
  2
ZEICHNUNGSBEMAßUNGEN
 70
     0
 62
     7
  6
CONTINUOUS
  0
ENDTAB
  0
TABLE
  2
STYLE
 70
     1
  0
STYLE
  2
STANDARD
 70
     0
 40
0.0
 41
0.7
 50
0.0
 71
     0
 42
0.2
  3
txt
  4

  0
ENDTAB
  0
TABLE
  2
VIEW
 70
     0
  0
ENDTAB
  0
TABLE
  2
UCS
 70
     0
  0
ENDTAB
  0
TABLE
  2
APPID
 70
     1
  0
APPID
  2
ACAD
 70
     0
  0
ENDTAB
  0
TABLE
  2
DIMSTYLE
 70
     3
  0
DIMSTYLE
  2
STANDARD
 70
     0
  3

  4

  5
_FILLED
  6
_FILLED
  7
_FILLED
 40
1.0
 41
3.5
 42
0.0625
 43
0.38
 44
0.18
 45
0.0
 46
0.0
 47
0.005
 48
0.005
140
3.5
141
0.09
142
0.0
143
25.4
144
1.0
145
0.0
146
1.0
147
0.09
 71
     1
 72
     0
 73
     0
 74
     0
 75
     0
 76
     0
 77
     1
 78
     8
170
     0
171
     2
172
     0
173
     0
174
     0
175
     0
176
     0
177
     0
178
     5
  0
DIMSTYLE
  2
DIMSTYLE_1
 70
     0
  3

  4

  5
_FILLED
  6
_FILLED
  7
_FILLED
 40
1.0
 41
3.5
 42
0.0625
 43
0.38
 44
0.18
 45
0.0
 46
0.0
 47
0.2
 48
0.2
140
3.5
141
0.09
142
0.0
143
25.4
144
0.5
145
0.0
146
1.0
147
0.09
 71
     0
 72
     0
 73
     0
 74
     0
 75
     0
 76
     0
 77
     1
 78
     8
170
     0
171
     2
172
     0
173
     0
174
     0
175
     0
176
     0
177
     0
178
     5
  0
DIMSTYLE
  2
DIMSTYLE_2
 70
     0
  3

  4

  5
_FILLED
  6
_FILLED
  7
_FILLED
 40
1.0
 41
3.5
 42
0.0625
 43
0.38
 44
0.18
 45
0.0
 46
0.0
 47
0.3
 48
0.3
140
3.5
141
0.09
142
0.0
143
25.4
144
0.5
145
0.0
146
1.0
147
0.09
 71
     0
 72
     0
 73
     0
 74
     0
 75
     0
 76
     0
 77
     1
 78
     8
170
     0
171
     2
172
     0
173
     0
174
     0
175
     0
176
     0
177
     0
178
     5
  0
ENDTAB
  0
ENDSEC
  0
SECTION
  2
BLOCKS
  0
BLOCK
  8
0
  2
$MODEL_SPACE
 70
     0
 10
0.0
 20
0.0
 30
0.0
  3
$MODEL_SPACE
  1

  0
ENDBLK
  5
1F
  8
0
  0
BLOCK
 67
     1
  8
0
  2
$PAPER_SPACE
 70
     0
 10
0.0
 20
0.0
 30
0.0
  3
$PAPER_SPACE
  1

  0
ENDBLK
  5
21
 67
     1
  8
0
  0
BLOCK
  8
0
  2
_FILLED
 70
     0
 10
0.0
 20
0.0
 30
0.0
  3
_FILLED
  1

  0
SOLID
  5
244
  8
0
  6
BYBLOCK
 62
     0
 10
0.0
 20
0.0
 30
0.0
 11
-1.0
 21
0.125
 31
0.0
 12
-1.0
 22
-0.125
 32
0.0
 13
-1.0
 23
-0.125
 33
0.0
  0
ENDBLK
  5
245
  8
0
  6
BYBLOCK
 62
     0
  0
ENDSEC
  0
SECTION
  2
ENTITIES
  0
LINE
  5
246
  8
0
  6
CONTINUOUS
 62
     2
 10
278.499642
 20
13.500114
 30
0.0
 11
280.092496
 21
13.500114
 31
0.0
  0
LINE
  5
247
  8
0
  6
CONTINUOUS
 62
     2
 10
280.092496
 20
13.500114
 30
0.0
 11
278.499642
 21
13.500114
 31
0.0
  0
LINE
  5
248
  8
0
  6
CONTINUOUS
 62
     2
 10
278.499642
 20
13.500114
 30
0.0
 11
278.913545
 21
15.847478
 31
0.0
  0
LINE
  5
249
  8
0
  6
CONTINUOUS
 62
     2
 10
278.913545
 20
15.847478
 30
0.0
 11
280.506399
 21
15.847478
 31
0.0
  0
LINE
  5
24A
  8
0
  6
CONTINUOUS
 62
     2
 10
280.506399
 20
15.847478
 30
0.0
 11
283.006855
 21
14.338458
 31
0.0
  0
LINE
  5
24B
  8
0
  6
CONTINUOUS
 62
     2
 10
283.006855
 20
14.338458
 30
0.0
 11
283.272935
 21
15.847478
 31
0.0
  0
LINE
  5
24C
  8
0
  6
CONTINUOUS
 62
     2
 10
283.272935
 20
15.847478
 30
0.0
 11
284.86579
 21
15.847478
 31
0.0
  0
LINE
  5
24D
  8
0
  6
CONTINUOUS
 62
     2
 10
284.86579
 20
15.847478
 30
0.0
 11
284.451886
 21
13.500114
 31
0.0
  0
LINE
  5
24E
  8
0
  6
CONTINUOUS
 62
     2
 10
284.451886
 20
13.500114
 30
0.0
 11
282.859032
 21
13.500114
 31
0.0
  0
LINE
  5
24F
  8
0
  6
CONTINUOUS
 62
     2
 10
282.859032
 20
13.500114
 30
0.0
 11
280.358577
 21
15.009133
 31
0.0
  0
LINE
  5
250
  8
0
  6
CONTINUOUS
 62
     2
 10
280.358577
 20
15.009133
 30
0.0
 11
280.092496
 21
13.500114
 31
0.0
  0
LINE
  5
251
  8
0
  6
CONTINUOUS
 62
     2
 10
285.709402
 20
13.500114
 30
0.0
 11
286.123306
 21
15.847478
 31
0.0
  0
LINE
  5
252
  8
0
  6
CONTINUOUS
 62
     2
 10
286.123306
 20
15.847478
 30
0.0
 11
290.315027
 21
15.847478
 31
0.0
  0
LINE
  5
253
  8
0
  6
CONTINUOUS
 62
     2
 10
290.315027
 20
15.847478
 30
0.0
 11
290.226334
 21
15.344471
 31
0.0
  0
LINE
  5
254
  8
0
  6
CONTINUOUS
 62
     2
 10
290.226334
 20
15.344471
 30
0.0
 11
287.543632
 21
15.344471
 31
0.0
  0
LINE
  5
255
  8
0
  6
CONTINUOUS
 62
     2
 10
287.543632
 20
15.344471
 30
0.0
 11
287.469721
 21
14.925299
 31
0.0
  0
LINE
  5
256
  8
0
  6
CONTINUOUS
 62
     2
 10
287.469721
 20
14.925299
 30
0.0
 11
289.649416
 21
14.925299
 31
0.0
  0
LINE
  5
257
  8
0
  6
CONTINUOUS
 62
     2
 10
289.649416
 20
14.925299
 30
0.0
 11
289.560722
 21
14.422292
 31
0.0
  0
LINE
  5
258
  8
0
  6
CONTINUOUS
 62
     2
 10
289.560722
 20
14.422292
 30
0.0
 11
287.381027
 21
14.422292
 31
0.0
  0
LINE
  5
259
  8
0
  6
CONTINUOUS
 62
     2
 10
287.381027
 20
14.422292
 30
0.0
 11
287.307116
 21
14.00312
 31
0.0
  0
LINE
  5
25A
  8
0
  6
CONTINUOUS
 62
     2
 10
287.307116
 20
14.00312
 30
0.0
 11
289.989818
 21
14.00312
 31
0.0
  0
LINE
  5
25B
  8
0
  6
CONTINUOUS
 62
     2
 10
289.989818
 20
14.00312
 30
0.0
 11
289.901124
 21
13.500114
 31
0.0
  0
LINE
  5
25C
  8
0
  6
CONTINUOUS
 62
     2
 10
289.901124
 20
13.500114
 30
0.0
 11
285.709402
 21
13.500114
 31
0.0
  0
LINE
  5
25D
  8
0
  6
CONTINUOUS
 62
     2
 10
290.883552
 20
14.317255
 30
0.0
 11
291.153372
 21
15.847478
 31
0.0
  0
LINE
  5
25E
  8
0
  6
CONTINUOUS
 62
     2
 10
291.153372
 20
15.847478
 30
0.0
 11
292.662391
 21
15.847478
 31
0.0
  0
LINE
  5
25F
  8
0
  6
CONTINUOUS
 62
     2
 10
292.662391
 20
15.847478
 30
0.0
 11
292.416566
 21
14.45333
 31
0.0
  0
ARC
  5
260
  8
0
  6
CONTINUOUS
 62
     2
 10
292.746809
 20
14.3951
 30
0.0
 40
0.335338
 50
170.0
 51
257.387751
  0
ARC
  5
261
  8
0
  6
CONTINUOUS
 62
     2
 10
293.25936
 20
16.685822
 30
0.0
 40
2.682702
 50
257.387751
 51
286.262649
  0
ARC
  5
262
  8
0
  6
CONTINUOUS
 62
     2
 10
293.916718
 20
14.432381
 30
0.0
 40
0.335338
 50
286.262649
 51
350.0
  0
LINE
  5
263
  8
0
  6
CONTINUOUS
 62
     2
 10
294.246961
 20
14.37415
 30
0.0
 11
294.506749
 21
15.847478
 31
0.0
  0
LINE
  5
264
  8
0
  6
CONTINUOUS
 62
     2
 10
294.506749
 20
15.847478
 30
0.0
 11
296.015769
 21
15.847478
 31
0.0
  0
LINE
  5
265
  8
0
  6
CONTINUOUS
 62
     2
 10
296.015769
 20
15.847478
 30
0.0
 11
295.719182
 21
14.165453
 31
0.0
  0
ARC
  5
266
  8
0
  6
CONTINUOUS
 62
     2
 10
295.223817
 20
14.252799
 30
0.0
 40
0.503007
 50
284.461269
 51
350.0
  0
ARC
  5
267
  8
0
  6
CONTINUOUS
 62
     2
 10
293.255872
 20
21.883557
 30
0.0
 40
8.383443
 50
256.220911
 51
284.461269
  0
ARC
  5
268
  8
0
  6
CONTINUOUS
 62
     2
 10
291.378917
 20
14.229909
 30
0.0
 40
0.503007
 50
170.0
 51
256.220911
  0
LINE
  5
269
  8
0
  6
CONTINUOUS
 62
     2
 10
300.626662
 20
15.847478
 30
0.0
 11
300.523186
 21
15.260637
 31
0.0
  0
LINE
  5
26A
  8
0
  6
CONTINUOUS
 62
     2
 10
300.523186
 20
15.260637
 30
0.0
 11
299.349504
 21
15.260637
 31
0.0
  0
LINE
  5
26B
  8
0
  6
CONTINUOUS
 62
     2
 10
299.349504
 20
15.260637
 30
0.0
 11
299.039077
 21
13.500114
 31
0.0
  0
LINE
  5
26C
  8
0
  6
CONTINUOUS
 62
     2
 10
299.039077
 20
13.500114
 30
0.0
 11
297.362388
 21
13.500114
 31
0.0
  0
LINE
  5
26D
  8
0
  6
CONTINUOUS
 62
     2
 10
297.362388
 20
13.500114
 30
0.0
 11
297.672816
 21
15.260637
 31
0.0
  0
LINE
  5
26E
  8
0
  6
CONTINUOUS
 62
     2
 10
297.672816
 20
15.260637
 30
0.0
 11
296.499134
 21
15.260637
 31
0.0
  0
LINE
  5
26F
  8
0
  6
CONTINUOUS
 62
     2
 10
296.499134
 20
15.260637
 30
0.0
 11
296.60261
 21
15.847478
 31
0.0
  0
LINE
  5
270
  8
0
  6
CONTINUOUS
 62
     2
 10
296.60261
 20
15.847478
 30
0.0
 11
300.626662
 21
15.847478
 31
0.0
  0
ARC
  5
271
  8
0
  6
CONTINUOUS
 62
     2
 10
304.850706
 20
15.659231
 30
0.0
 40
1.316705
 50
270.813981
 51
287.332032
  0
ARC
  5
272
  8
0
  6
CONTINUOUS
 62
     2
 10
304.937533
 20
15.381009
 30
0.0
 40
1.02525
 50
287.332032
 51
306.995271
  0
ARC
  5
273
  8
0
  6
CONTINUOUS
 62
     2
 10
305.070512
 20
15.20451
 30
0.0
 40
0.804262
 50
306.995271
 51
331.199133
  0
ARC
  5
274
  8
0
  6
CONTINUOUS
 62
     2
 10
305.27444
 20
15.092395
 30
0.0
 40
0.571547
 50
331.199133
 51
0.0
  0
ARC
  5
275
  8
0
  6
CONTINUOUS
 62
     2
 10
305.27444
 20
15.092395
 30
0.0
 40
0.571547
 50
0.0
 51
28.800867
  0
ARC
  5
276
  8
0
  6
CONTINUOUS
 62
     2
 10
305.070512
 20
14.980281
 30
0.0
 40
0.804262
 50
28.800867
 51
53.004729
  0
ARC
  5
277
  8
0
  6
CONTINUOUS
 62
     2
 10
304.937533
 20
14.803781
 30
0.0
 40
1.02525
 50
53.004729
 51
72.667968
  0
ARC
  5
278
  8
0
  6
CONTINUOUS
 62
     2
 10
304.850706
 20
14.52556
 30
0.0
 40
1.316705
 50
72.667968
 51
88.263723
  0
ARC
  5
279
  8
0
  6
CONTINUOUS
 62
     2
 10
304.479822
 20
3.665931
 30
0.0
 40
12.182657
 50
88.067714
 51
90.773418
  0
LINE
  5
27A
  8
0
  6
CONTINUOUS
 62
     2
 10
304.315377
 20
15.847478
 30
0.0
 11
301.213503
 21
15.847478
 31
0.0
  0
LINE
  5
27B
  8
0
  6
CONTINUOUS
 62
     2
 10
301.213503
 20
15.847478
 30
0.0
 11
300.7996
 21
13.500114
 31
0.0
  0
LINE
  5
27C
  8
0
  6
CONTINUOUS
 62
     2
 10
300.7996
 20
13.500114
 30
0.0
 11
302.476288
 21
13.500114
 31
0.0
  0
LINE
  5
27D
  8
0
  6
CONTINUOUS
 62
     2
 10
302.476288
 20
13.500114
 30
0.0
 11
302.624111
 21
14.338458
 31
0.0
  0
LINE
  5
27E
  8
0
  6
CONTINUOUS
 62
     2
 10
302.624111
 20
14.338458
 30
0.0
 11
303.901473
 21
13.500114
 31
0.0
  0
LINE
  5
27F
  8
0
  6
CONTINUOUS
 62
     2
 10
303.901473
 20
13.500114
 30
0.0
 11
305.829665
 21
13.500114
 31
0.0
  0
LINE
  5
280
  8
0
  6
CONTINUOUS
 62
     2
 10
305.829665
 20
13.500114
 30
0.0
 11
304.552303
 21
14.338458
 31
0.0
  0
ARC
  5
281
  8
0
  6
CONTINUOUS
 62
     2
 10
303.149694
 20
132.194956
 30
0.0
 40
117.864844
 50
270.681844
 51
270.836009
  0
LINE
  5
282
  8
0
  6
CONTINUOUS
 62
     2
 10
303.773966
 20
14.841465
 30
0.0
 11
302.712804
 21
14.841465
 31
0.0
  0
LINE
  5
283
  8
0
  6
CONTINUOUS
 62
     2
 10
302.712804
 20
14.841465
 30
0.0
 11
302.81628
 21
15.428306
 31
0.0
  0
LINE
  5
284
  8
0
  6
CONTINUOUS
 62
     2
 10
302.81628
 20
15.428306
 30
0.0
 11
304.070394
 21
15.428306
 31
0.0
  0
ARC
  5
285
  8
0
  6
CONTINUOUS
 62
     2
 10
304.027965
 20
14.907159
 30
0.0
 40
0.522871
 50
74.211766
 51
85.345474
  0
ARC
  5
286
  8
0
  6
CONTINUOUS
 62
     2
 10
304.077311
 20
15.081683
 30
0.0
 40
0.341504
 50
49.806032
 51
74.211766
  0
ARC
  5
287
  8
0
  6
CONTINUOUS
 62
     2
 10
304.187631
 20
15.212257
 30
0.0
 40
0.170566
 50
15.0
 51
49.806032
  0
ARC
  5
288
  8
0
  6
CONTINUOUS
 62
     2
 10
304.187631
 20
15.212257
 30
0.0
 40
0.170566
 50
340.193968
 51
15.0
  0
ARC
  5
289
  8
0
  6
CONTINUOUS
 62
     2
 10
304.026804
 20
15.270178
 30
0.0
 40
0.341504
 50
315.788234
 51
340.193968
  0
ARC
  5
28A
  8
0
  6
CONTINUOUS
 62
     2
 10
303.896807
 20
15.396647
 30
0.0
 40
0.522871
 50
298.863853
 51
315.788234
  0
ARC
  5
28B
  8
0
  6
CONTINUOUS
 62
     2
 10
303.773966
 20
15.619505
 30
0.0
 40
0.777342
 50
285.0
 51
298.863853
  0
ARC
  5
28C
  8
0
  6
CONTINUOUS
 62
     2
 10
303.771267
 20
15.619506
 30
0.0
 40
0.778046
 50
270.198723
 51
285.191924
  0
LINE
  5
28D
  8
0
  6
CONTINUOUS
 62
     2
 10
306.500341
 20
13.500114
 30
0.0
 11
306.914244
 21
15.847478
 31
0.0
  0
LINE
  5
28E
  8
0
  6
CONTINUOUS
 62
     2
 10
306.914244
 20
15.847478
 30
0.0
 11
308.590933
 21
15.847478
 31
0.0
  0
LINE
  5
28F
  8
0
  6
CONTINUOUS
 62
     2
 10
308.590933
 20
15.847478
 30
0.0
 11
308.177029
 21
13.500114
 31
0.0
  0
LINE
  5
290
  8
0
  6
CONTINUOUS
 62
     2
 10
308.177029
 20
13.500114
 30
0.0
 11
306.500341
 21
13.500114
 31
0.0
  0
LINE
  5
291
  8
0
  6
CONTINUOUS
 62
     2
 10
309.51838
 20
13.500114
 30
0.0
 11
309.932284
 21
15.847478
 31
0.0
  0
LINE
  5
292
  8
0
  6
CONTINUOUS
 62
     2
 10
309.932284
 20
15.847478
 30
0.0
 11
311.608972
 21
15.847478
 31
0.0
  0
LINE
  5
293
  8
0
  6
CONTINUOUS
 62
     2
 10
311.608972
 20
15.847478
 30
0.0
 11
311.416803
 21
14.75763
 31
0.0
  0
LINE
  5
294
  8
0
  6
CONTINUOUS
 62
     2
 10
311.416803
 20
14.75763
 30
0.0
 11
313.352312
 21
15.847478
 31
0.0
  0
LINE
  5
295
  8
0
  6
CONTINUOUS
 62
     2
 10
313.352312
 20
15.847478
 30
0.0
 11
315.465356
 21
15.847478
 31
0.0
  0
LINE
  5
296
  8
0
  6
CONTINUOUS
 62
     2
 10
315.465356
 20
15.847478
 30
0.0
 11
313.160142
 21
14.75763
 31
0.0
  0
LINE
  5
297
  8
0
  6
CONTINUOUS
 62
     2
 10
313.160142
 20
14.75763
 30
0.0
 11
315.051452
 21
13.500114
 31
0.0
  0
LINE
  5
298
  8
0
  6
CONTINUOUS
 62
     2
 10
315.051452
 20
13.500114
 30
0.0
 11
312.955592
 21
13.500114
 31
0.0
  0
LINE
  5
299
  8
0
  6
CONTINUOUS
 62
     2
 10
312.955592
 20
13.500114
 30
0.0
 11
311.357674
 21
14.422292
 31
0.0
  0
LINE
  5
29A
  8
0
  6
CONTINUOUS
 62
     2
 10
311.357674
 20
14.422292
 30
0.0
 11
311.195069
 21
13.500114
 31
0.0
  0
LINE
  5
29B
  8
0
  6
CONTINUOUS
 62
     2
 10
311.195069
 20
13.500114
 30
0.0
 11
309.51838
 21
13.500114
 31
0.0
  0
LINE
  5
29C
  8
0
  6
CONTINUOUS
 62
     2
 10
317.197674
 20
13.500114
 30
0.0
 11
318.832511
 21
13.500114
 31
0.0
  0
LINE
  5
29D
  8
0
  6
CONTINUOUS
 62
     2
 10
318.958197
 20
15.847478
 30
0.0
 11
321.916355
 21
15.847478
 31
0.0
  0
LINE
  5
29E
  8
0
  6
CONTINUOUS
 62
     2
 10
317.197674
 20
13.500114
 30
0.0
 11
318.958197
 21
15.847478
 31
0.0
  0
LINE
  5
29F
  8
0
  6
CONTINUOUS
 62
     2
 10
321.916355
 20
15.847478
 30
0.0
 11
322.503196
 21
13.500114
 31
0.0
  0
LINE
  5
2A0
  8
0
  6
CONTINUOUS
 62
     2
 10
319.183663
 20
13.968317
 30
0.0
 11
320.866863
 21
13.968317
 31
0.0
  0
LINE
  5
2A1
  8
0
  6
CONTINUOUS
 62
     2
 10
319.456657
 20
14.33231
 30
0.0
 11
320.775865
 21
14.33231
 31
0.0
  0
LINE
  5
2A2
  8
0
  6
CONTINUOUS
 62
     2
 10
323.196985
 20
13.998523
 30
0.0
 11
323.445249
 21
15.406499
 31
0.0
  0
LINE
  5
2A3
  8
0
  6
CONTINUOUS
 62
     2
 10
327.831948
 20
13.500114
 30
0.0
 11
328.019826
 21
14.565621
 31
0.0
  0
LINE
  5
2A4
  8
0
  6
CONTINUOUS
 62
     2
 10
324.768393
 20
14.319773
 30
0.0
 11
324.92435
 21
15.204245
 31
0.0
  0
LINE
  5
2A5
  8
0
  6
CONTINUOUS
 62
     2
 10
326.317184
 20
13.500114
 30
0.0
 11
326.322066
 21
13.5278
 31
0.0
  0
LINE
  5
2A6
  8
0
  6
CONTINUOUS
 62
     2
 10
325.860851
 20
14.348381
 30
0.0
 11
325.899157
 21
14.565621
 31
0.0
  0
LINE
  5
2A7
  8
0
  6
CONTINUOUS
 62
     2
 10
325.860851
 20
14.348381
 30
0.0
 11
326.466757
 21
14.348381
 31
0.0
  0
ARC
  5
2A8
  8
0
  6
CONTINUOUS
 62
     2
 10
325.9666
 20
2.487822
 30
0.0
 40
13.359655
 50
81.659895
 51
99.80279
  0
ARC
  5
2A9
  8
0
  6
CONTINUOUS
 62
     2
 10
325.433921
 20
26.857901
 30
0.0
 40
13.359655
 50
261.461473
 51
273.811815
  0
ARC
  5
2AA
  8
0
  6
CONTINUOUS
 62
     2
 10
323.743599
 20
15.353892
 30
0.0
 40
0.302953
 50
99.80279
 51
170.0
  0
ARC
  5
2AB
  8
0
  6
CONTINUOUS
 62
     2
 10
323.495335
 20
13.945916
 30
0.0
 40
0.302953
 50
170.0
 51
261.461473
  0
ARC
  5
2AC
  8
0
  6
CONTINUOUS
 62
     2
 10
327.860459
 20
15.406444
 30
0.0
 40
0.302953
 50
350.0
 51
81.659895
  0
LINE
  5
2AD
  8
0
  6
CONTINUOUS
 62
     2
 10
326.597628
 20
15.21191
 30
0.0
 11
328.133784
 21
15.21191
 31
0.0
  0
LINE
  5
2AE
  8
0
  6
CONTINUOUS
 62
     2
 10
328.133784
 20
15.21191
 30
0.0
 11
328.158809
 21
15.353837
 31
0.0
  0
LINE
  5
2AF
  8
0
  6
CONTINUOUS
 62
     2
 10
326.447698
 20
14.240294
 30
0.0
 11
326.466757
 21
14.348381
 31
0.0
  0
ARC
  5
2B0
  8
0
  6
CONTINUOUS
 62
     2
 10
325.761457
 20
12.026658
 30
0.0
 40
3.474034
 50
80.208339
 51
99.781825
  0
ARC
  5
2B1
  8
0
  6
CONTINUOUS
 62
     2
 10
325.533791
 20
17.403665
 30
0.0
 40
3.474034
 50
261.530468
 51
281.193068
  0
ARC
  5
2B2
  8
0
  6
CONTINUOUS
 62
     2
 10
325.2227
 20
15.151638
 30
0.0
 40
0.302953
 50
99.781825
 51
170.0
  0
ARC
  5
2B3
  8
0
  6
CONTINUOUS
 62
     2
 10
326.30075
 20
15.151545
 30
0.0
 40
0.302953
 50
11.493425
 51
80.208339
  0
ARC
  5
2B4
  8
0
  6
CONTINUOUS
 62
     2
 10
325.066744
 20
14.267166
 30
0.0
 40
0.302953
 50
170.0
 51
261.530468
  0
ARC
  5
2B5
  8
0
  6
CONTINUOUS
 62
     2
 10
326.149348
 20
14.292901
 30
0.0
 40
0.302953
 50
281.193068
 51
350.0
  0
LINE
  5
2B6
  8
0
  6
CONTINUOUS
 62
     2
 10
326.317184
 20
13.500114
 30
0.0
 11
327.831948
 21
13.500114
 31
0.0
  0
LINE
  5
2B7
  8
0
  6
CONTINUOUS
 62
     2
 10
320.983914
 20
13.500114
 30
0.0
 11
322.503196
 21
13.500114
 31
0.0
  0
LINE
  5
2B8
  8
0
  6
CONTINUOUS
 62
     2
 10
320.446063
 20
15.651517
 30
0.0
 11
320.775865
 21
14.33231
 31
0.0
  0
LINE
  5
2B9
  8
0
  6
CONTINUOUS
 62
     2
 10
319.456657
 20
14.33231
 30
0.0
 11
320.446063
 21
15.651517
 31
0.0
  0
LINE
  5
2BA
  8
0
  6
CONTINUOUS
 62
     2
 10
320.866863
 20
13.968317
 30
0.0
 11
320.983914
 21
13.500114
 31
0.0
  0
LINE
  5
2BB
  8
0
  6
CONTINUOUS
 62
     2
 10
318.832511
 20
13.500114
 30
0.0
 11
319.183663
 21
13.968317
 31
0.0
  0
LINE
  5
2BC
  8
0
  6
CONTINUOUS
 62
     2
 10
325.899157
 20
14.565621
 30
0.0
 11
328.019826
 21
14.565621
 31
0.0
  0
LINE
  5
2BD
  8
0
  6
CONTINUOUS
 62
     7
 10
0.0
 20
0.0
 30
0.0
 11
420.0
 21
0.0
 31
0.0
  0
LINE
  5
2BE
  8
0
  6
CONTINUOUS
 62
     7
 10
420.0
 20
0.0
 30
0.0
 11
420.0
 21
297.0
 31
0.0
  0
LINE
  5
2BF
  8
0
  6
CONTINUOUS
 62
     7
 10
0.0
 20
297.0
 30
0.0
 11
420.0
 21
297.0
 31
0.0
  0
LINE
  5
2C0
  8
0
  6
CONTINUOUS
 62
     7
 10
0.0
 20
0.0
 30
0.0
 11
0.0
 21
297.0
 31
0.0
  0
LINE
  5
2C1
  8
0
  6
CONTINUOUS
 62
     7
 10
230.0
 20
10.0
 30
0.0
 11
410.0
 21
10.0
 31
0.0
  0
LINE
  5
2C2
  8
0
  6
CONTINUOUS
 62
     7
 10
410.0
 20
62.0
 30
0.0
 11
410.0
 21
10.0
 31
0.0
  0
LINE
  5
2C3
  8
0
  6
CONTINUOUS
 62
     7
 10
0.0
 20
297.0
 30
0.0
 11
0.0
 21
0.0
 31
0.0
  0
LINE
  5
2C4
  8
0
  6
CONTINUOUS
 62
     7
 10
12.5
 20
287.0
 30
0.0
 11
12.5
 21
10.0
 31
0.0
  0
LINE
  5
2C5
  8
0
  6
CONTINUOUS
 62
     7
 10
0.0
 20
0.0
 30
0.0
 11
420.0
 21
0.0
 31
0.0
  0
LINE
  5
2C6
  8
0
  6
CONTINUOUS
 62
     7
 10
410.0
 20
287.0
 30
0.0
 11
12.5
 21
287.0
 31
0.0
  0
LINE
  5
2C7
  8
0
  6
CONTINUOUS
 62
     7
 10
420.0
 20
297.0
 30
0.0
 11
0.0
 21
297.0
 31
0.0
  0
LINE
  5
2C8
  8
0
  6
CONTINUOUS
 62
     7
 10
410.0
 20
10.0
 30
0.0
 11
410.0
 21
287.0
 31
0.0
  0
LINE
  5
2C9
  8
0
  6
CONTINUOUS
 62
     7
 10
420.0
 20
0.0
 30
0.0
 11
420.0
 21
297.0
 31
0.0
  0
LINE
  5
2CA
  8
0
  6
CONTINUOUS
 62
     7
 10
230.0
 20
10.0
 30
0.0
 11
410.0
 21
10.0
 31
0.0
  0
LINE
  5
2CB
  8
0
  6
CONTINUOUS
 62
     7
 10
410.0
 20
62.0
 30
0.0
 11
410.0
 21
10.0
 31
0.0
  0
LINE
  5
2CC
  8
0
  6
CONTINUOUS
 62
     7
 10
0.0
 20
297.0
 30
0.0
 11
0.0
 21
0.0
 31
0.0
  0
LINE
  5
2CD
  8
0
  6
CONTINUOUS
 62
     7
 10
0.0
 20
0.0
 30
0.0
 11
420.0
 21
0.0
 31
0.0
  0
LINE
  5
2CE
  8
0
  6
CONTINUOUS
 62
     7
 10
12.5
 20
10.0
 30
0.0
 11
410.0
 21
10.0
 31
0.0
  0
LINE
  5
2CF
  8
0
  6
CONTINUOUS
 62
     7
 10
410.0
 20
287.0
 30
0.0
 11
22.5
 21
287.0
 31
0.0
  0
LINE
  5
2D0
  8
0
  6
CONTINUOUS
 62
     7
 10
420.0
 20
297.0
 30
0.0
 11
0.0
 21
297.0
 31
0.0
  0
LINE
  5
2D1
  8
0
  6
CONTINUOUS
 62
     7
 10
410.0
 20
10.0
 30
0.0
 11
410.0
 21
287.0
 31
0.0
  0
LINE
  5
2D2
  8
0
  6
CONTINUOUS
 62
     7
 10
420.0
 20
0.0
 30
0.0
 11
420.0
 21
297.0
 31
0.0
  0
LINE
  5
2D3
  8
0
  6
CONTINUOUS
 62
     7
 10
230.041806
 20
0.034778
 30
0.0
 11
230.010677
 21
2.521901
 31
0.0
  0
TEXT
  5
2D4
  8
0
  6
CONTINUOUS
 62
     3
 10
23998.493778
 20
18705.501722
 30
0.0
 40
88.9
  1
  
 41
0.785714
 51
15.0
  0
TEXT
  5
2D5
  8
0
  6
CONTINUOUS
 62
     3
 10
23777.301193
 20
18416.618944
 30
0.0
 40
88.9
  1
  
 41
0.785714
 51
15.0
  0
TEXT
  5
2D6
  8
0
  6
CONTINUOUS
 62
     3
 10
18449.582794
 20
13315.236963
 30
0.0
 40
88.9
  1
  
 41
0.785714
 51
15.0
  0
TEXT
  5
2D7
  8
0
  6
CONTINUOUS
 62
     3
 10
18228.390209
 20
13026.354186
 30
0.0
 40
88.9
  1
  
 41
0.785714
 51
15.0
  0
TEXT
  5
2D8
  8
0
  6
CONTINUOUS
 62
     4
 10
330.914129
 20
13.554426
 30
0.0
 40
2.423622
  1
FL-9494 SCHAAN
 41
0.778912
 51
15.0
  0
LINE
  5
2D9
  8
0
  6
CONTINUOUS
 62
     7
 10
380.76035
 20
96.012489
 30
0.0
 11
380.76035
 21
86.079186
 31
0.0
  0
LINE
  5
2DA
  8
0
  6
CONTINUOUS
 62
     7
 10
378.996134
 20
86.079186
 30
0.0
 11
380.76035
 21
86.079186
 31
0.0
  0
LINE
  5
2DB
  8
0
  6
CONTINUOUS
 62
     7
 10
378.996134
 20
96.012489
 30
0.0
 11
378.996134
 21
86.079186
 31
0.0
  0
LINE
  5
2DC
  8
0
  6
CONTINUOUS
 62
     7
 10
378.996134
 20
96.012489
 30
0.0
 11
380.76035
 21
96.012489
 31
0.0
  0
LINE
  5
2DD
  8
0
  6
CONTINUOUS
 62
     7
 10
347.3771
 20
101.550805
 30
0.0
 11
347.3771
 21
66.555346
 31
0.0
  0
LINE
  5
2DE
  8
0
  6
CONTINUOUS
 62
     7
 10
347.3771
 20
66.555346
 30
0.0
 11
367.376997
 21
66.555346
 31
0.0
  0
LINE
  5
2DF
  8
0
  6
CONTINUOUS
 62
     7
 10
367.376997
 20
101.550805
 30
0.0
 11
367.376997
 21
66.555346
 31
0.0
  0
LINE
  5
2E0
  8
0
  6
CONTINUOUS
 62
     7
 10
347.3771
 20
101.550805
 30
0.0
 11
367.376997
 21
101.550805
 31
0.0
  0
CIRCLE
  5
2E1
  8
0
  6
CONTINUOUS
 62
     7
 10
361.373819
 20
80.552585
 30
0.0
 40
2.5
  0
CIRCLE
  5
2E2
  8
0
  6
CONTINUOUS
 62
     7
 10
361.373819
 20
87.552585
 30
0.0
 40
2.5
  0
CIRCLE
  5
2E3
  8
0
  6
CONTINUOUS
 62
     7
 10
361.373819
 20
94.552584
 30
0.0
 40
2.5
  0
LINE
  5
2E4
  8
0
  6
CONTINUOUS
 62
     7
 10
385.611691
 20
101.550805
 30
0.0
 11
385.611691
 21
80.550592
 31
0.0
  0
LINE
  5
2E5
  8
0
  6
CONTINUOUS
 62
     7
 10
385.611691
 20
80.550592
 30
0.0
 11
402.476289
 21
80.550592
 31
0.0
  0
LINE
  5
2E6
  8
0
  6
CONTINUOUS
 62
     7
 10
402.476289
 20
101.550805
 30
0.0
 11
402.476289
 21
80.550592
 31
0.0
  0
CIRCLE
  5
2E7
  8
0
  6
CONTINUOUS
 62
     7
 10
390.612125
 20
97.201244
 30
0.0
 40
2.499999
  0
CIRCLE
  5
2E8
  8
0
  6
CONTINUOUS
 62
     7
 10
390.614135
 20
84.898824
 30
0.0
 40
2.499999
  0
CIRCLE
  5
2E9
  8
0
  6
CONTINUOUS
 62
     7
 10
361.373819
 20
73.552585
 30
0.0
 40
2.5
  0
LINE
  5
2EA
  8
0
  6
CONTINUOUS
 62
     7
 10
363.863459
 20
73.552585
 30
0.0
 11
371.461821
 21
73.552585
 31
0.0
  0
LINE
  5
2EB
  8
0
  6
CONTINUOUS
 62
     7
 10
363.863459
 20
80.779948
 30
0.0
 11
371.461821
 21
80.779948
 31
0.0
  0
LINE
  5
2EC
  8
0
  6
CONTINUOUS
 62
     7
 10
371.461821
 20
97.205154
 30
0.0
 11
375.885584
 21
97.205154
 31
0.0
  0
LINE
  5
2ED
  8
0
  6
CONTINUOUS
 62
     7
 10
371.461821
 20
84.904103
 30
0.0
 11
375.885584
 21
84.904103
 31
0.0
  0
LINE
  5
2EE
  8
0
  6
CONTINUOUS
 62
     7
 10
363.873819
 20
94.552584
 30
0.0
 11
371.461821
 21
94.552584
 31
0.0
  0
LINE
  5
2EF
  8
0
  6
CONTINUOUS
 62
     7
 10
363.873819
 20
87.552585
 30
0.0
 11
371.461821
 21
87.552585
 31
0.0
  0
LINE
  5
2F0
  8
0
  6
CONTINUOUS
 62
     7
 10
371.461821
 20
87.552585
 30
0.0
 11
371.461821
 21
84.904103
 31
0.0
  0
LINE
  5
2F1
  8
0
  6
CONTINUOUS
 62
     7
 10
371.461821
 20
94.552584
 30
0.0
 11
371.461821
 21
97.205154
 31
0.0
  0
LINE
  5
2F2
  8
0
  6
CONTINUOUS
 62
     7
 10
375.885584
 20
97.205154
 30
0.0
 11
375.885584
 21
96.017768
 31
0.0
  0
LINE
  5
2F3
  8
0
  6
CONTINUOUS
 62
     7
 10
388.114136
 20
97.201244
 30
0.0
 11
379.889072
 21
97.201244
 31
0.0
  0
LINE
  5
2F4
  8
0
  6
CONTINUOUS
 62
     7
 10
388.114136
 20
84.898824
 30
0.0
 11
379.889072
 21
84.898824
 31
0.0
  0
LINE
  5
2F5
  8
0
  6
CONTINUOUS
 62
     7
 10
379.889072
 20
97.201244
 30
0.0
 11
379.889072
 21
96.012489
 31
0.0
  0
LINE
  5
2F6
  8
0
  6
CONTINUOUS
 62
     7
 10
378.996134
 20
96.012489
 30
0.0
 11
380.76035
 21
96.012489
 31
0.0
  0
LINE
  5
2F7
  8
0
  6
CONTINUOUS
 62
     7
 10
380.76035
 20
96.012489
 30
0.0
 11
380.76035
 21
86.079186
 31
0.0
  0
LINE
  5
2F8
  8
0
  6
CONTINUOUS
 62
     7
 10
378.996134
 20
86.079186
 30
0.0
 11
380.76035
 21
86.079186
 31
0.0
  0
LINE
  5
2F9
  8
0
  6
CONTINUOUS
 62
     7
 10
378.996134
 20
96.012489
 30
0.0
 11
378.996134
 21
86.079186
 31
0.0
  0
LINE
  5
2FA
  8
0
  6
CONTINUOUS
 62
     7
 10
375.885584
 20
86.084465
 30
0.0
 11
375.885584
 21
84.904103
 31
0.0
  0
LINE
  5
2FB
  8
0
  6
CONTINUOUS
 62
     7
 10
379.889072
 20
84.898824
 30
0.0
 11
379.889072
 21
86.079186
 31
0.0
  0
LINE
  5
2FC
  8
0
  6
CONTINUOUS
 62
     7
 10
374.992647
 20
96.017768
 30
0.0
 11
376.756862
 21
96.017768
 31
0.0
  0
LINE
  5
2FD
  8
0
  6
CONTINUOUS
 62
     7
 10
376.756862
 20
96.017768
 30
0.0
 11
376.756862
 21
86.084465
 31
0.0
  0
LINE
  5
2FE
  8
0
  6
CONTINUOUS
 62
     7
 10
374.992647
 20
86.084465
 30
0.0
 11
376.756862
 21
86.084465
 31
0.0
  0
LINE
  5
2FF
  8
0
  6
CONTINUOUS
 62
     7
 10
374.992647
 20
96.017768
 30
0.0
 11
374.992647
 21
86.084465
 31
0.0
  0
LINE
  5
300
  8
0
  6
CONTINUOUS
 62
     7
 10
377.890035
 20
96.62217
 30
0.0
 11
377.890035
 21
85.548795
 31
0.0
  0
LINE
  5
301
  8
0
  6
CONTINUOUS
 62
     7
 10
369.193389
 20
94.552584
 30
0.0
 11
369.193389
 21
93.045236
 31
0.0
  0
LINE
  5
302
  8
0
  6
CONTINUOUS
 62
     7
 10
368.535281
 20
93.045236
 30
0.0
 11
368.535281
 21
89.522422
 31
0.0
  0
LINE
  5
303
  8
0
  6
CONTINUOUS
 62
     7
 10
369.852181
 20
93.045236
 30
0.0
 11
369.852181
 21
89.522422
 31
0.0
  0
LINE
  5
304
  8
0
  6
CONTINUOUS
 62
     7
 10
368.535281
 20
93.045236
 30
0.0
 11
369.852181
 21
93.045236
 31
0.0
  0
LINE
  5
305
  8
0
  6
CONTINUOUS
 62
     7
 10
368.535281
 20
89.522422
 30
0.0
 11
369.852181
 21
89.522422
 31
0.0
  0
LINE
  5
306
  8
0
  6
CONTINUOUS
 62
     7
 10
369.193389
 20
87.552585
 30
0.0
 11
369.193389
 21
89.522422
 31
0.0
  0
CIRCLE
  5
307
  8
0
  6
CONTINUOUS
 62
     7
 10
369.193389
 20
87.552585
 30
0.0
 40
0.5
  0
CIRCLE
  5
308
  8
0
  6
CONTINUOUS
 62
     7
 10
369.193389
 20
94.552584
 30
0.0
 40
0.5
  0
CIRCLE
  5
309
  8
0
  6
CONTINUOUS
 62
     7
 10
382.519762
 20
96.190919
 30
0.0
 40
0.5
  0
LINE
  5
30A
  8
0
  6
CONTINUOUS
 62
     7
 10
385.611691
 20
101.550805
 30
0.0
 11
402.476289
 21
101.550805
 31
0.0
  0
LINE
  5
30B
  8
0
  6
CONTINUOUS
 62
     7
 10
371.461821
 20
80.779948
 30
0.0
 11
371.461821
 21
73.552585
 31
0.0
  0
CIRCLE
  5
30C
  8
0
  6
CONTINUOUS
 62
     7
 10
373.260308
 20
85.918337
 30
0.0
 40
0.5
  0
ARC
  5
30D
  8
0
  6
CONTINUOUS
 62
     7
 10
289.115083
 20
252.48151
 30
0.0
 40
0.2
 50
90.0
 51
180.0
  0
LINE
  5
30E
  8
0
  6
CONTINUOUS
 62
     7
 10
288.915083
 20
252.44994
 30
0.0
 11
288.915083
 21
252.438544
 31
0.0
  0
LINE
  5
30F
  8
0
  6
CONTINUOUS
 62
     7
 10
288.915083
 20
250.954225
 30
0.0
 11
288.915083
 21
252.438544
 31
0.0
  0
LINE
  5
310
  8
0
  6
CONTINUOUS
 62
     7
 10
288.915083
 20
252.438544
 30
0.0
 11
288.915083
 21
252.44994
 31
0.0
  0
LINE
  5
311
  8
0
  6
CONTINUOUS
 62
     7
 10
288.915083
 20
247.44734
 30
0.0
 11
288.915083
 21
250.954225
 31
0.0
  0
LINE
  5
312
  8
0
  6
CONTINUOUS
 62
     7
 10
288.915083
 20
245.88151
 30
0.0
 11
288.915083
 21
247.44734
 31
0.0
  0
LINE
  5
313
  8
0
  6
CONTINUOUS
 62
     7
 10
288.915083
 20
242.08151
 30
0.0
 11
288.915083
 21
245.88151
 31
0.0
  0
LINE
  5
318
  8
0
  6
CONTINUOUS
 62
     7
 10
288.915083
 20
242.08151
 30
0.0
 11
288.915083
 21
245.88151
 31
0.0
  0
ARC
  5
31C
  8
0
  6
CONTINUOUS
 62
     7
 10
289.915083
 20
252.08151
 30
0.0
 40
0.6
 50
0.0
 51
90.0
  0
LINE
  5
31D
  8
0
  6
CONTINUOUS
 62
     7
 10
290.515083
 20
252.08151
 30
0.0
 11
290.515083
 21
252.038863
 31
0.0
  0
LINE
  5
31E
  8
0
  6
CONTINUOUS
 62
     7
 10
290.515083
 20
252.038863
 30
0.0
 11
290.515083
 21
251.18151
 31
0.0
  0
LINE
  5
31F
  8
0
  6
CONTINUOUS
 62
     7
 10
290.515083
 20
251.18151
 30
0.0
 11
290.515083
 21
250.93151
 31
0.0
  0
LINE
  5
320
  8
0
  6
CONTINUOUS
 62
     7
 10
290.515083
 20
250.93151
 30
0.0
 11
290.515083
 21
250.681469
 31
0.0
  0
LINE
  5
321
  8
0
  6
CONTINUOUS
 62
     7
 10
290.515083
 20
250.681469
 30
0.0
 11
290.515083
 21
250.585079
 31
0.0
  0
LINE
  5
322
  8
0
  6
CONTINUOUS
 62
     7
 10
290.515083
 20
252.08151
 30
0.0
 11
290.515083
 21
252.08151
 31
0.0
  0
LINE
  5
323
  8
0
  6
CONTINUOUS
 62
     7
 10
290.515083
 20
252.050578
 30
0.0
 11
290.515083
 21
252.08151
 31
0.0
  0
LINE
  5
324
  8
0
  6
CONTINUOUS
 62
     7
 10
290.515083
 20
250.585079
 30
0.0
 11
290.515083
 21
250.93151
 31
0.0
  0
LINE
  5
325
  8
0
  6
CONTINUOUS
 62
     7
 10
290.515083
 20
250.93151
 30
0.0
 11
290.515083
 21
252.039412
 31
0.0
  0
LINE
  5
326
  8
0
  6
CONTINUOUS
 62
     7
 10
290.515083
 20
252.039412
 30
0.0
 11
290.515083
 21
252.050578
 31
0.0
  0
LINE
  5
327
  8
0
  6
CONTINUOUS
 62
     7
 10
290.515083
 20
247.44734
 30
0.0
 11
290.515083
 21
250.585079
 31
0.0
  0
LINE
  5
328
  8
0
  6
CONTINUOUS
 62
     7
 10
290.515083
 20
247.44734
 30
0.0
 11
290.515083
 21
245.88151
 31
0.0
  0
LINE
  5
32D
  8
0
  6
CONTINUOUS
 62
     7
 10
290.515083
 20
242.48151
 30
0.0
 11
290.515083
 21
243.054513
 31
0.0
  0
LINE
  5
32E
  8
0
  6
CONTINUOUS
 62
     7
 10
290.515083
 20
243.054513
 30
0.0
 11
290.515083
 21
243.08151
 31
0.0
  0
LINE
  5
32F
  8
0
  6
CONTINUOUS
 62
     7
 10
290.515083
 20
243.08151
 30
0.0
 11
290.515083
 21
244.868744
 31
0.0
  0
LINE
  5
330
  8
0
  6
CONTINUOUS
 62
     7
 10
290.515083
 20
244.868744
 30
0.0
 11
290.515083
 21
244.894542
 31
0.0
  0
LINE
  5
331
  8
0
  6
CONTINUOUS
 62
     7
 10
290.515083
 20
244.894542
 30
0.0
 11
290.515083
 21
245.379382
 31
0.0
  0
LINE
  5
332
  8
0
  6
CONTINUOUS
 62
     7
 10
290.515083
 20
245.379382
 30
0.0
 11
290.515083
 21
245.88151
 31
0.0
  0
LINE
  5
333
  8
0
  6
CONTINUOUS
 62
     7
 10
290.515083
 20
242.48151
 30
0.0
 11
290.515083
 21
241.88151
 31
0.0
  0
LINE
  5
334
  8
0
  6
CONTINUOUS
 62
     7
 10
289.915083
 20
252.68151
 30
0.0
 11
289.115083
 21
252.68151
 31
0.0
  0
LINE
  5
337
  8
0
  6
CONTINUOUS
 62
     7
 10
288.915083
 20
250.954225
 30
0.0
 11
288.915083
 21
252.437004
 31
0.0
  0
LINE
  5
338
  8
0
  6
CONTINUOUS
 62
     7
 10
288.915083
 20
252.437004
 30
0.0
 11
288.915083
 21
252.48151
 31
0.0
  0
LINE
  5
339
  8
0
  6
CONTINUOUS
 62
     7
 10
288.915083
 20
247.44734
 30
0.0
 11
288.915083
 21
250.954225
 31
0.0
  0
LINE
  5
33A
  8
0
  6
CONTINUOUS
 62
     7
 10
288.915083
 20
245.88151
 30
0.0
 11
288.915083
 21
247.44734
 31
0.0
  0
LINE
  5
33B
  8
0
  6
CONTINUOUS
 62
     7
 10
288.915083
 20
241.88151
 30
0.0
 11
288.915083
 21
242.08151
 31
0.0
  0
ARC
  5
33D
  8
0
  6
CONTINUOUS
 62
     7
 10
288.115083
 20
241.88151
 30
0.0
 40
0.8
 50
270.0
 51
0.0
  0
LINE
  5
33E
  8
0
  6
CONTINUOUS
 62
     7
 10
287.480769
 20
241.08151
 30
0.0
 11
288.115083
 21
241.08151
 31
0.0
  0
LINE
  5
33F
  8
0
  6
CONTINUOUS
 62
     7
 10
287.056505
 20
241.08151
 30
0.0
 11
287.480769
 21
241.08151
 31
0.0
  0
LINE
  5
340
  8
0
  6
CONTINUOUS
 62
     7
 10
285.83224
 20
241.08151
 30
0.0
 11
287.056505
 21
241.08151
 31
0.0
  0
ARC
  5
341
  8
0
  6
CONTINUOUS
 62
     7
 10
288.115083
 20
241.88151
 30
0.0
 40
2.4
 50
347.160412
 51
350.175789
  0
ARC
  5
342
  8
0
  6
CONTINUOUS
 62
     7
 10
288.115083
 20
241.88151
 30
0.0
 40
2.4
 50
350.175789
 51
350.971193
  0
ARC
  5
343
  8
0
  6
CONTINUOUS
 62
     7
 10
288.115083
 20
241.88151
 30
0.0
 40
2.4
 50
350.971193
 51
353.411614
  0
ARC
  5
344
  8
0
  6
CONTINUOUS
 62
     7
 10
288.115083
 20
241.88151
 30
0.0
 40
2.4
 50
353.411614
 51
353.886532
  0
ARC
  5
345
  8
0
  6
CONTINUOUS
 62
     7
 10
288.115083
 20
241.88151
 30
0.0
 40
2.4
 50
353.886532
 51
356.675199
  0
ARC
  5
346
  8
0
  6
CONTINUOUS
 62
     7
 10
288.115083
 20
241.88151
 30
0.0
 40
2.4
 50
356.675199
 51
357.28477
  0
ARC
  5
347
  8
0
  6
CONTINUOUS
 62
     7
 10
288.115083
 20
241.88151
 30
0.0
 40
2.4
 50
357.28477
 51
0.0
  0
LINE
  5
348
  8
0
  6
CONTINUOUS
 62
     7
 10
290.515083
 20
250.585079
 30
0.0
 11
290.515083
 21
247.44734
 31
0.0
  0
LINE
  5
349
  8
0
  6
CONTINUOUS
 62
     7
 10
290.515083
 20
247.44734
 30
0.0
 11
290.515083
 21
245.88151
 31
0.0
  0
LINE
  5
34A
  8
0
  6
CONTINUOUS
 62
     7
 10
290.515083
 20
245.88151
 30
0.0
 11
290.515083
 21
245.379382
 31
0.0
  0
LINE
  5
34B
  8
0
  6
CONTINUOUS
 62
     7
 10
290.515083
 20
245.379382
 30
0.0
 11
290.515083
 21
244.898363
 31
0.0
  0
LINE
  5
34C
  8
0
  6
CONTINUOUS
 62
     7
 10
290.515083
 20
244.898363
 30
0.0
 11
290.515083
 21
244.868744
 31
0.0
  0
LINE
  5
34D
  8
0
  6
CONTINUOUS
 62
     7
 10
290.515083
 20
244.868744
 30
0.0
 11
290.515083
 21
243.08151
 31
0.0
  0
LINE
  5
34E
  8
0
  6
CONTINUOUS
 62
     7
 10
290.515083
 20
243.08151
 30
0.0
 11
290.515083
 21
243.053691
 31
0.0
  0
LINE
  5
34F
  8
0
  6
CONTINUOUS
 62
     7
 10
290.515083
 20
243.053691
 30
0.0
 11
290.515083
 21
242.48151
 31
0.0
  0
ARC
  5
351
  8
0
  6
CONTINUOUS
 62
     7
 10
288.115083
 20
241.88151
 30
0.0
 40
2.4
 50
270.0
 51
347.160412
  0
LINE
  5
352
  8
0
  6
CONTINUOUS
 62
     7
 10
288.115083
 20
239.48151
 30
0.0
 11
287.480769
 21
239.48151
 31
0.0
  0
LINE
  5
353
  8
0
  6
CONTINUOUS
 62
     7
 10
287.480769
 20
239.48151
 30
0.0
 11
286.773662
 21
239.48151
 31
0.0
  0
LINE
  5
354
  8
0
  6
CONTINUOUS
 62
     7
 10
286.773662
 20
239.48151
 30
0.0
 11
285.266555
 21
239.48151
 31
0.0
  0
LINE
  5
355
  8
0
  6
CONTINUOUS
 62
     7
 10
277.701684
 20
241.08151
 30
0.0
 11
285.83224
 21
241.08151
 31
0.0
  0
LINE
  5
356
  8
0
  6
CONTINUOUS
 62
     7
 10
285.266555
 20
239.48151
 30
0.0
 11
283.101684
 21
239.48151
 31
0.0
  0
LINE
  5
35E
  8
0
  6
CONTINUOUS
 62
     7
 10
143.701684
 20
242.28151
 30
0.0
 11
143.701684
 21
242.628176
 31
0.0
  0
LINE
  5
35F
  8
0
  6
CONTINUOUS
 62
     7
 10
143.701684
 20
242.628176
 30
0.0
 11
143.701684
 21
243.397329
 31
0.0
  0
LINE
  5
360
  8
0
  6
CONTINUOUS
 62
     7
 10
143.701684
 20
243.397329
 30
0.0
 11
143.701684
 21
244.273225
 31
0.0
  0
LINE
  5
361
  8
0
  6
CONTINUOUS
 62
     7
 10
143.701684
 20
244.273225
 30
0.0
 11
143.701684
 21
244.31344
 31
0.0
  0
LINE
  5
362
  8
0
  6
CONTINUOUS
 62
     7
 10
143.701684
 20
244.31344
 30
0.0
 11
143.701684
 21
244.393284
 31
0.0
  0
LINE
  5
363
  8
0
  6
CONTINUOUS
 62
     7
 10
143.701684
 20
244.393284
 30
0.0
 11
143.701684
 21
244.88123
 31
0.0
  0
LINE
  5
364
  8
0
  6
CONTINUOUS
 62
     7
 10
143.701684
 20
244.88123
 30
0.0
 11
143.701684
 21
244.960305
 31
0.0
  0
LINE
  5
365
  8
0
  6
CONTINUOUS
 62
     7
 10
143.701684
 20
244.960305
 30
0.0
 11
143.701684
 21
249.28151
 31
0.0
  0
LINE
  5
366
  8
0
  6
CONTINUOUS
 62
     7
 10
143.701684
 20
194.28151
 30
0.0
 11
143.701684
 21
202.88151
 31
0.0
  0
LINE
  5
367
  8
0
  6
CONTINUOUS
 62
     7
 10
143.701684
 20
202.88151
 30
0.0
 11
143.701684
 21
203.28151
 31
0.0
  0
LINE
  5
368
  8
0
  6
CONTINUOUS
 62
     7
 10
143.701684
 20
203.28151
 30
0.0
 11
143.701684
 21
203.68151
 31
0.0
  0
LINE
  5
369
  8
0
  6
CONTINUOUS
 62
     7
 10
143.701684
 20
203.68151
 30
0.0
 11
143.701684
 21
232.78151
 31
0.0
  0
LINE
  5
36A
  8
0
  6
CONTINUOUS
 62
     7
 10
143.701684
 20
232.78151
 30
0.0
 11
143.701684
 21
232.871804
 31
0.0
  0
LINE
  5
36B
  8
0
  6
CONTINUOUS
 62
     7
 10
143.701684
 20
232.871804
 30
0.0
 11
143.701684
 21
233.691215
 31
0.0
  0
LINE
  5
36C
  8
0
  6
CONTINUOUS
 62
     7
 10
143.701684
 20
233.691215
 30
0.0
 11
143.701684
 21
233.78151
 31
0.0
  0
LINE
  5
36D
  8
0
  6
CONTINUOUS
 62
     7
 10
143.701684
 20
233.78151
 30
0.0
 11
143.701684
 21
242.28151
 31
0.0
  0
ARC
  5
36E
  8
0
  6
CONTINUOUS
 62
     7
 10
135.101684
 20
240.920387
 30
0.0
 40
0.8
 50
92.0
 51
180.0
  0
LINE
  5
36F
  8
0
  6
CONTINUOUS
 62
     7
 10
134.301684
 20
240.86761
 30
0.0
 11
134.301684
 21
240.920387
 31
0.0
  0
LINE
  5
370
  8
0
  6
CONTINUOUS
 62
     7
 10
134.301684
 20
218.28151
 30
0.0
 11
134.301684
 21
239.865826
 31
0.0
  0
LINE
  5
371
  8
0
  6
CONTINUOUS
 62
     7
 10
134.301684
 20
239.865826
 30
0.0
 11
134.301684
 21
240.86761
 31
0.0
  0
LINE
  5
372
  8
0
  6
CONTINUOUS
 62
     7
 10
134.301684
 20
195.642633
 30
0.0
 11
134.301684
 21
195.876387
 31
0.0
  0
LINE
  5
373
  8
0
  6
CONTINUOUS
 62
     7
 10
134.301684
 20
195.876387
 30
0.0
 11
134.301684
 21
196.697194
 31
0.0
  0
LINE
  5
374
  8
0
  6
CONTINUOUS
 62
     7
 10
134.301684
 20
196.697194
 30
0.0
 11
134.301684
 21
218.28151
 31
0.0
  0
ARC
  5
375
  8
0
  6
CONTINUOUS
 62
     7
 10
135.101684
 20
195.642633
 30
0.0
 40
0.8
 50
180.0
 51
268.0
  0
LINE
  5
376
  8
0
  6
CONTINUOUS
 62
     7
 10
134.301684
 20
195.695409
 30
0.0
 11
134.301684
 21
195.700314
 31
0.0
  0
LINE
  5
377
  8
0
  6
CONTINUOUS
 62
     7
 10
134.301684
 20
195.700314
 30
0.0
 11
134.301684
 21
196.697194
 31
0.0
  0
LINE
  5
378
  8
0
  6
CONTINUOUS
 62
     7
 10
134.301684
 20
196.697194
 30
0.0
 11
134.301684
 21
218.28151
 31
0.0
  0
ARC
  5
379
  8
0
  6
CONTINUOUS
 62
     7
 10
140.501684
 20
248.369276
 30
0.0
 40
0.8
 50
92.0
 51
102.060866
  0
ARC
  5
37A
  8
0
  6
CONTINUOUS
 62
     7
 10
140.501684
 20
248.369276
 30
0.0
 40
0.8
 50
102.060866
 51
169.939271
  0
ARC
  5
37B
  8
0
  6
CONTINUOUS
 62
     7
 10
140.501684
 20
248.369276
 30
0.0
 40
0.8
 50
169.939271
 51
180.0
  0
ARC
  5
37C
  8
0
  6
CONTINUOUS
 62
     7
 10
140.501684
 20
248.369276
 30
0.0
 40
0.8
 50
169.946703
 51
180.0
  0
ARC
  5
37D
  8
0
  6
CONTINUOUS
 62
     7
 10
140.501684
 20
248.369276
 30
0.0
 40
0.8
 50
102.053435
 51
169.946703
  0
ARC
  5
37E
  8
0
  6
CONTINUOUS
 62
     7
 10
140.501684
 20
248.369276
 30
0.0
 40
0.8
 50
92.0
 51
102.053435
  0
LINE
  5
37F
  8
0
  6
CONTINUOUS
 62
     7
 10
143.701684
 20
249.28151
 30
0.0
 11
140.473764
 21
249.168788
 31
0.0
  0
LINE
  5
380
  8
0
  6
CONTINUOUS
 62
     7
 10
139.701684
 20
242.28151
 30
0.0
 11
139.701684
 21
247.281285
 31
0.0
  0
LINE
  5
381
  8
0
  6
CONTINUOUS
 62
     7
 10
139.701684
 20
247.281285
 30
0.0
 11
139.701684
 21
247.343302
 31
0.0
  0
LINE
  5
382
  8
0
  6
CONTINUOUS
 62
     7
 10
139.701684
 20
247.343302
 30
0.0
 11
139.701684
 21
248.369276
 31
0.0
  0
LINE
  5
383
  8
0
  6
CONTINUOUS
 62
     7
 10
143.701684
 20
187.28151
 30
0.0
 11
140.473764
 21
187.394231
 31
0.0
  0
LINE
  5
384
  8
0
  6
CONTINUOUS
 62
     7
 10
139.701684
 20
194.28151
 30
0.0
 11
139.701684
 21
242.28151
 31
0.0
  0
LINE
  5
385
  8
0
  6
CONTINUOUS
 62
     7
 10
139.701684
 20
188.193744
 30
0.0
 11
139.701684
 21
188.389225
 31
0.0
  0
LINE
  5
386
  8
0
  6
CONTINUOUS
 62
     7
 10
139.701684
 20
188.389225
 30
0.0
 11
139.701684
 21
194.28151
 31
0.0
  0
ARC
  5
387
  8
0
  6
CONTINUOUS
 62
     7
 10
140.501684
 20
188.193744
 30
0.0
 40
0.8
 50
257.939111
 51
268.0
  0
ARC
  5
388
  8
0
  6
CONTINUOUS
 62
     7
 10
140.501684
 20
188.193744
 30
0.0
 40
0.8
 50
180.0
 51
257.939111
  0
ARC
  5
389
  8
0
  6
CONTINUOUS
 62
     7
 10
140.501684
 20
188.193744
 30
0.0
 40
0.8
 50
180.0
 51
257.946542
  0
ARC
  5
38A
  8
0
  6
CONTINUOUS
 62
     7
 10
140.501684
 20
188.193744
 30
0.0
 40
0.8
 50
257.946542
 51
268.0
  0
LINE
  5
38B
  8
0
  6
CONTINUOUS
 62
     7
 10
139.701684
 20
188.193744
 30
0.0
 11
139.701684
 21
188.455881
 31
0.0
  0
LINE
  5
38C
  8
0
  6
CONTINUOUS
 62
     7
 10
139.701684
 20
188.455881
 30
0.0
 11
139.701684
 21
194.28151
 31
0.0
  0
ARC
  5
38D
  8
0
  6
CONTINUOUS
 62
     7
 10
138.901684
 20
242.654061
 30
0.0
 40
0.8
 50
272.0
 51
334.721033
  0
ARC
  5
38E
  8
0
  6
CONTINUOUS
 62
     7
 10
138.901684
 20
242.654061
 30
0.0
 40
0.8
 50
334.721033
 51
342.400009
  0
ARC
  5
38F
  8
0
  6
CONTINUOUS
 62
     7
 10
138.901684
 20
242.654061
 30
0.0
 40
0.8
 50
342.400009
 51
359.999991
  0
ARC
  5
390
  8
0
  6
CONTINUOUS
 62
     7
 10
138.901684
 20
193.908959
 30
0.0
 40
0.8
 50
25.278967
 51
88.0
  0
ARC
  5
391
  8
0
  6
CONTINUOUS
 62
     7
 10
138.901684
 20
193.908959
 30
0.0
 40
0.8
 50
17.599991
 51
25.278967
  0
ARC
  5
392
  8
0
  6
CONTINUOUS
 62
     7
 10
138.901684
 20
193.908959
 30
0.0
 40
0.8
 50
0.000009
 51
17.599991
  0
LINE
  5
393
  8
0
  6
CONTINUOUS
 62
     7
 10
138.929603
 20
241.854548
 30
0.0
 11
135.073764
 21
241.719899
 31
0.0
  0
LINE
  5
394
  8
0
  6
CONTINUOUS
 62
     7
 10
138.929603
 20
194.708471
 30
0.0
 11
135.073764
 21
194.84312
 31
0.0
  0
LINE
  5
395
  8
0
  6
CONTINUOUS
 62
     7
 10
143.701684
 20
187.28151
 30
0.0
 11
143.701684
 21
187.378987
 31
0.0
  0
LINE
  5
396
  8
0
  6
CONTINUOUS
 62
     7
 10
143.701684
 20
187.378987
 30
0.0
 11
143.701684
 21
190.78151
 31
0.0
  0
LINE
  5
397
  8
0
  6
CONTINUOUS
 62
     7
 10
143.701684
 20
190.78151
 30
0.0
 11
143.701684
 21
190.98184
 31
0.0
  0
LINE
  5
398
  8
0
  6
CONTINUOUS
 62
     7
 10
143.701684
 20
190.98184
 30
0.0
 11
143.701684
 21
191.602715
 31
0.0
  0
LINE
  5
399
  8
0
  6
CONTINUOUS
 62
     7
 10
143.701684
 20
191.602715
 30
0.0
 11
143.701684
 21
191.68179
 31
0.0
  0
LINE
  5
39A
  8
0
  6
CONTINUOUS
 62
     7
 10
143.701684
 20
191.68179
 30
0.0
 11
143.701684
 21
192.169736
 31
0.0
  0
LINE
  5
39B
  8
0
  6
CONTINUOUS
 62
     7
 10
143.701684
 20
192.169736
 30
0.0
 11
143.701684
 21
192.24958
 31
0.0
  0
LINE
  5
39C
  8
0
  6
CONTINUOUS
 62
     7
 10
143.701684
 20
192.24958
 30
0.0
 11
143.701684
 21
192.289794
 31
0.0
  0
LINE
  5
39D
  8
0
  6
CONTINUOUS
 62
     7
 10
143.701684
 20
192.289794
 30
0.0
 11
143.701684
 21
193.934843
 31
0.0
  0
LINE
  5
39E
  8
0
  6
CONTINUOUS
 62
     7
 10
143.701684
 20
193.934843
 30
0.0
 11
143.701684
 21
194.28151
 31
0.0
  0
LINE
  5
39F
  8
0
  6
CONTINUOUS
 62
     7
 10
143.701684
 20
187.28151
 30
0.0
 11
140.473764
 21
187.394231
 31
0.0
  0
LINE
  5
3A0
  8
0
  6
CONTINUOUS
 62
     7
 10
139.701684
 20
194.28151
 30
0.0
 11
139.701684
 21
242.28151
 31
0.0
  0
LINE
  5
3A1
  8
0
  6
CONTINUOUS
 62
     7
 10
139.701684
 20
242.28151
 30
0.0
 11
139.701684
 21
247.277463
 31
0.0
  0
LINE
  5
3A2
  8
0
  6
CONTINUOUS
 62
     7
 10
139.701684
 20
247.277463
 30
0.0
 11
139.701684
 21
248.369276
 31
0.0
  0
LINE
  5
3A3
  8
0
  6
CONTINUOUS
 62
     7
 10
134.301684
 20
218.28151
 30
0.0
 11
134.301684
 21
239.865826
 31
0.0
  0
LINE
  5
3A4
  8
0
  6
CONTINUOUS
 62
     7
 10
134.301684
 20
239.865826
 30
0.0
 11
134.301684
 21
240.679669
 31
0.0
  0
LINE
  5
3A5
  8
0
  6
CONTINUOUS
 62
     7
 10
134.301684
 20
240.679669
 30
0.0
 11
134.301684
 21
240.920386
 31
0.0
  0
LINE
  5
3A6
  8
0
  6
CONTINUOUS
 62
     7
 10
273.701684
 20
242.28151
 30
0.0
 11
273.701684
 21
233.78151
 31
0.0
  0
LINE
  5
3A7
  8
0
  6
CONTINUOUS
 62
     7
 10
273.701684
 20
233.78151
 30
0.0
 11
273.701684
 21
233.691215
 31
0.0
  0
LINE
  5
3A8
  8
0
  6
CONTINUOUS
 62
     7
 10
273.701684
 20
233.691215
 30
0.0
 11
273.701684
 21
232.871804
 31
0.0
  0
LINE
  5
3A9
  8
0
  6
CONTINUOUS
 62
     7
 10
273.701684
 20
232.871804
 30
0.0
 11
273.701684
 21
232.78151
 31
0.0
  0
LINE
  5
3AA
  8
0
  6
CONTINUOUS
 62
     7
 10
273.701684
 20
232.78151
 30
0.0
 11
273.701684
 21
203.68151
 31
0.0
  0
LINE
  5
3AB
  8
0
  6
CONTINUOUS
 62
     7
 10
273.701684
 20
203.68151
 30
0.0
 11
273.701684
 21
203.28151
 31
0.0
  0
LINE
  5
3AC
  8
0
  6
CONTINUOUS
 62
     7
 10
273.701684
 20
203.28151
 30
0.0
 11
273.701684
 21
202.88151
 31
0.0
  0
LINE
  5
3AD
  8
0
  6
CONTINUOUS
 62
     7
 10
273.701684
 20
202.88151
 30
0.0
 11
273.701684
 21
194.28151
 31
0.0
  0
LINE
  5
3AE
  8
0
  6
CONTINUOUS
 62
     7
 10
273.701684
 20
194.28151
 30
0.0
 11
273.701684
 21
193.934843
 31
0.0
  0
LINE
  5
3AF
  8
0
  6
CONTINUOUS
 62
     7
 10
273.701684
 20
193.934843
 30
0.0
 11
273.701684
 21
193.536793
 31
0.0
  0
LINE
  5
3B0
  8
0
  6
CONTINUOUS
 62
     7
 10
273.701684
 20
193.536793
 30
0.0
 11
273.701684
 21
192.289794
 31
0.0
  0
LINE
  5
3B1
  8
0
  6
CONTINUOUS
 62
     7
 10
273.701684
 20
192.289794
 30
0.0
 11
273.701684
 21
192.169736
 31
0.0
  0
LINE
  5
3B2
  8
0
  6
CONTINUOUS
 62
     7
 10
273.701684
 20
192.169736
 30
0.0
 11
273.701684
 21
191.68179
 31
0.0
  0
LINE
  5
3B3
  8
0
  6
CONTINUOUS
 62
     7
 10
273.701684
 20
191.68179
 30
0.0
 11
273.701684
 21
187.323984
 31
0.0
  0
LINE
  5
3B4
  8
0
  6
CONTINUOUS
 62
     7
 10
273.701684
 20
187.323984
 30
0.0
 11
273.701684
 21
187.28151
 31
0.0
  0
ARC
  5
3B5
  8
0
  6
CONTINUOUS
 62
     7
 10
276.901684
 20
188.08151
 30
0.0
 40
0.8
 50
270.0
 51
279.000018
  0
ARC
  5
3B6
  8
0
  6
CONTINUOUS
 62
     7
 10
276.901684
 20
188.08151
 30
0.0
 40
0.8
 50
279.000018
 51
351.000165
  0
ARC
  5
3B7
  8
0
  6
CONTINUOUS
 62
     7
 10
276.901684
 20
188.08151
 30
0.0
 40
0.8
 50
351.000165
 51
0.0
  0
ARC
  5
3B8
  8
0
  6
CONTINUOUS
 62
     7
 10
276.901684
 20
188.08151
 30
0.0
 40
0.8
 50
351.000166
 51
360.0
  0
ARC
  5
3B9
  8
0
  6
CONTINUOUS
 62
     7
 10
276.901684
 20
188.08151
 30
0.0
 40
0.8
 50
279.000018
 51
351.000166
  0
ARC
  5
3BA
  8
0
  6
CONTINUOUS
 62
     7
 10
276.901684
 20
188.08151
 30
0.0
 40
0.8
 50
270.0
 51
279.000018
  0
LINE
  5
3BB
  8
0
  6
CONTINUOUS
 62
     7
 10
277.701684
 20
194.28151
 30
0.0
 11
277.701684
 21
189.488845
 31
0.0
  0
LINE
  5
3BC
  8
0
  6
CONTINUOUS
 62
     7
 10
277.701684
 20
189.488845
 30
0.0
 11
277.701684
 21
188.08151
 31
0.0
  0
LINE
  5
3BD
  8
0
  6
CONTINUOUS
 62
     7
 10
277.701684
 20
242.28151
 30
0.0
 11
277.701684
 21
194.28151
 31
0.0
  0
LINE
  5
3BE
  8
0
  6
CONTINUOUS
 62
     7
 10
277.701684
 20
248.48151
 30
0.0
 11
277.701684
 21
248.129081
 31
0.0
  0
LINE
  5
3BF
  8
0
  6
CONTINUOUS
 62
     7
 10
277.701684
 20
248.129081
 30
0.0
 11
277.701684
 21
242.28151
 31
0.0
  0
ARC
  5
3C0
  8
0
  6
CONTINUOUS
 62
     7
 10
276.901684
 20
248.48151
 30
0.0
 40
0.8
 50
80.999968
 51
90.0
  0
ARC
  5
3C1
  8
0
  6
CONTINUOUS
 62
     7
 10
276.901684
 20
248.48151
 30
0.0
 40
0.8
 50
0.0
 51
80.999968
  0
ARC
  5
3C2
  8
0
  6
CONTINUOUS
 62
     7
 10
276.901684
 20
248.48151
 30
0.0
 40
0.8
 50
0.0
 51
80.999968
  0
ARC
  5
3C3
  8
0
  6
CONTINUOUS
 62
     7
 10
276.901684
 20
248.48151
 30
0.0
 40
0.8
 50
80.999968
 51
90.0
  0
LINE
  5
3C4
  8
0
  6
CONTINUOUS
 62
     7
 10
277.701684
 20
248.48151
 30
0.0
 11
277.701684
 21
248.21454
 31
0.0
  0
LINE
  5
3C5
  8
0
  6
CONTINUOUS
 62
     7
 10
277.701684
 20
248.21454
 30
0.0
 11
277.701684
 21
242.28151
 31
0.0
  0
LINE
  5
3C6
  8
0
  6
CONTINUOUS
 62
     7
 10
277.701684
 20
194.68151
 30
0.0
 11
283.101684
 21
194.68151
 31
0.0
  0
LINE
  5
3C7
  8
0
  6
CONTINUOUS
 62
     7
 10
273.701684
 20
249.28151
 30
0.0
 11
273.701684
 21
249.239036
 31
0.0
  0
LINE
  5
3C8
  8
0
  6
CONTINUOUS
 62
     7
 10
273.701684
 20
249.239036
 30
0.0
 11
273.701684
 21
245.78151
 31
0.0
  0
LINE
  5
3C9
  8
0
  6
CONTINUOUS
 62
     7
 10
273.701684
 20
245.78151
 30
0.0
 11
273.701684
 21
244.88123
 31
0.0
  0
LINE
  5
3CA
  8
0
  6
CONTINUOUS
 62
     7
 10
273.701684
 20
244.88123
 30
0.0
 11
273.701684
 21
244.393284
 31
0.0
  0
LINE
  5
3CB
  8
0
  6
CONTINUOUS
 62
     7
 10
273.701684
 20
244.393284
 30
0.0
 11
273.701684
 21
244.273225
 31
0.0
  0
LINE
  5
3CC
  8
0
  6
CONTINUOUS
 62
     7
 10
273.701684
 20
244.273225
 30
0.0
 11
273.701684
 21
243.026226
 31
0.0
  0
LINE
  5
3CD
  8
0
  6
CONTINUOUS
 62
     7
 10
273.701684
 20
243.026226
 30
0.0
 11
273.701684
 21
242.628176
 31
0.0
  0
LINE
  5
3CE
  8
0
  6
CONTINUOUS
 62
     7
 10
273.701684
 20
242.628176
 30
0.0
 11
273.701684
 21
242.28151
 31
0.0
  0
LINE
  5
3CF
  8
0
  6
CONTINUOUS
 62
     7
 10
273.701684
 20
249.28151
 30
0.0
 11
276.901684
 21
249.28151
 31
0.0
  0
LINE
  5
3D0
  8
0
  6
CONTINUOUS
 62
     7
 10
273.701684
 20
249.28151
 30
0.0
 11
276.901684
 21
249.28151
 31
0.0
  0
LINE
  5
3D1
  8
0
  6
CONTINUOUS
 62
     7
 10
273.701684
 20
187.28151
 30
0.0
 11
276.901684
 21
187.28151
 31
0.0
  0
LINE
  5
3D2
  8
0
  6
CONTINUOUS
 62
     7
 10
277.701684
 20
194.28151
 30
0.0
 11
277.701684
 21
189.281734
 31
0.0
  0
LINE
  5
3D3
  8
0
  6
CONTINUOUS
 62
     7
 10
277.701684
 20
189.281734
 30
0.0
 11
277.701684
 21
188.08151
 31
0.0
  0
POLYLINE
  8
0
  5
7E0
  62
7
  66
     1
 10
0.000000
 20
0.000000
 30
0.000000
  70
     8
  0
VERTEX
  8
0
  5
7E1
 10
283.102
 20
240.331
 30
0.000000
  70
    32
  0
VERTEX
  8
0
  5
7E2
 10
283.102
 20
240.334
 30
0.000000
  70
    32
  0
VERTEX
  8
0
  5
7E3
 10
283.101
 20
240.338
 30
0.000000
  70
    32
  0
VERTEX
  8
0
  5
7E4
 10
283.101
 20
240.342
 30
0.000000
  70
    32
  0
VERTEX
  8
0
  5
7E5
 10
283.101
 20
240.346
 30
0.000000
  70
    32
  0
VERTEX
  8
0
  5
7E6
 10
283.100
 20
240.350
 30
0.000000
  70
    32
  0
VERTEX
  8
0
  5
7E7
 10
283.100
 20
240.354
 30
0.000000
  70
    32
  0
VERTEX
  8
0
  5
7E8
 10
283.099
 20
240.358
 30
0.000000
  70
    32
  0
VERTEX
  8
0
  5
7E9
 10
283.098
 20
240.361
 30
0.000000
  70
    32
  0
VERTEX
  8
0
  5
7EA
 10
283.097
 20
240.365
 30
0.000000
  70
    32
  0
VERTEX
  8
0
  5
7EB
 10
283.096
 20
240.369
 30
0.000000
  70
    32
  0
VERTEX
  8
0
  5
7EC
 10
283.095
 20
240.373
 30
0.000000
  70
    32
  0
VERTEX
  8
0
  5
7ED
 10
283.094
 20
240.376
 30
0.000000
  70
    32
  0
VERTEX
  8
0
  5
7EE
 10
283.092
 20
240.380
 30
0.000000
  70
    32
  0
VERTEX
  8
0
  5
7EF
 10
283.091
 20
240.384
 30
0.000000
  70
    32
  0
VERTEX
  8
0
  5
7F0
 10
283.089
 20
240.387
 30
0.000000
  70
    32
  0
VERTEX
  8
0
  5
7F1
 10
283.088
 20
240.391
 30
0.000000
  70
    32
  0
VERTEX
  8
0
  5
7F2
 10
283.086
 20
240.395
 30
0.000000
  70
    32
  0
VERTEX
  8
0
  5
7F3
 10
283.084
 20
240.398
 30
0.000000
  70
    32
  0
VERTEX
  8
0
  5
7F4
 10
283.083
 20
240.402
 30
0.000000
  70
    32
  0
VERTEX
  8
0
  5
7F5
 10
283.081
 20
240.405
 30
0.000000
  70
    32
  0
VERTEX
  8
0
  5
7F6
 10
283.079
 20
240.409
 30
0.000000
  70
    32
  0
VERTEX
  8
0
  5
7F7
 10
283.077
 20
240.412
 30
0.000000
  70
    32
  0
VERTEX
  8
0
  5
7F8
 10
283.075
 20
240.416
 30
0.000000
  70
    32
  0
VERTEX
  8
0
  5
7F9
 10
283.072
 20
240.419
 30
0.000000
  70
    32
  0
VERTEX
  8
0
  5
7FA
 10
283.070
 20
240.423
 30
0.000000
  70
    32
  0
VERTEX
  8
0
  5
7FB
 10
283.068
 20
240.426
 30
0.000000
  70
    32
  0
VERTEX
  8
0
  5
7FC
 10
283.066
 20
240.429
 30
0.000000
  70
    32
  0
VERTEX
  8
0
  5
7FD
 10
283.063
 20
240.432
 30
0.000000
  70
    32
  0
VERTEX
  8
0
  5
7FE
 10
283.061
 20
240.436
 30
0.000000
  70
    32
  0
VERTEX
  8
0
  5
7FF
 10
283.058
 20
240.439
 30
0.000000
  70
    32
  0
VERTEX
  8
0
  5
800
 10
283.056
 20
240.442
 30
0.000000
  70
    32
  0
VERTEX
  8
0
  5
801
 10
283.053
 20
240.445
 30
0.000000
  70
    32
  0
VERTEX
  8
0
  5
802
 10
283.051
 20
240.448
 30
0.000000
  70
    32
  0
VERTEX
  8
0
  5
803
 10
283.048
 20
240.451
 30
0.000000
  70
    32
  0
VERTEX
  8
0
  5
804
 10
283.045
 20
240.454
 30
0.000000
  70
    32
  0
VERTEX
  8
0
  5
805
 10
283.043
 20
240.457
 30
0.000000
  70
    32
  0
VERTEX
  8
0
  5
806
 10
283.040
 20
240.460
 30
0.000000
  70
    32
  0
VERTEX
  8
0
  5
807
 10
283.037
 20
240.463
 30
0.000000
  70
    32
  0
VERTEX
  8
0
  5
808
 10
283.034
 20
240.466
 30
0.000000
  70
    32
  0
VERTEX
  8
0
  5
809
 10
283.031
 20
240.468
 30
0.000000
  70
    32
  0
VERTEX
  8
0
  5
80A
 10
283.029
 20
240.471
 30
0.000000
  70
    32
  0
VERTEX
  8
0
  5
80B
 10
283.026
 20
240.474
 30
0.000000
  70
    32
  0
VERTEX
  8
0
  5
80C
 10
283.023
 20
240.476
 30
0.000000
  70
    32
  0
VERTEX
  8
0
  5
80D
 10
283.020
 20
240.479
 30
0.000000
  70
    32
  0
VERTEX
  8
0
  5
80E
 10
283.017
 20
240.482
 30
0.000000
  70
    32
  0
VERTEX
  8
0
  5
80F
 10
283.014
 20
240.484
 30
0.000000
  70
    32
  0
VERTEX
  8
0
  5
810
 10
283.011
 20
240.486
 30
0.000000
  70
    32
  0
VERTEX
  8
0
  5
811
 10
283.008
 20
240.489
 30
0.000000
  70
    32
  0
VERTEX
  8
0
  5
812
 10
283.005
 20
240.491
 30
0.000000
  70
    32
  0
VERTEX
  8
0
  5
813
 10
283.002
 20
240.494
 30
0.000000
  70
    32
  0
VERTEX
  8
0
  5
814
 10
282.998
 20
240.496
 30
0.000000
  70
    32
  0
VERTEX
  8
0
  5
815
 10
282.995
 20
240.498
 30
0.000000
  70
    32
  0
VERTEX
  8
0
  5
816
 10
282.992
 20
240.501
 30
0.000000
  70
    32
  0
VERTEX
  8
0
  5
817
 10
282.989
 20
240.503
 30
0.000000
  70
    32
  0
VERTEX
  8
0
  5
818
 10
282.986
 20
240.505
 30
0.000000
  70
    32
  0
VERTEX
  8
0
  5
819
 10
282.982
 20
240.507
 30
0.000000
  70
    32
  0
VERTEX
  8
0
  5
81A
 10
282.979
 20
240.509
 30
0.000000
  70
    32
  0
VERTEX
  8
0
  5
81B
 10
282.976
 20
240.511
 30
0.000000
  70
    32
  0
VERTEX
  8
0
  5
81C
 10
282.973
 20
240.513
 30
0.000000
  70
    32
  0
VERTEX
  8
0
  5
81D
 10
282.969
 20
240.515
 30
0.000000
  70
    32
  0
VERTEX
  8
0
  5
81E
 10
282.966
 20
240.517
 30
0.000000
  70
    32
  0
VERTEX
  8
0
  5
81F
 10
282.963
 20
240.519
 30
0.000000
  70
    32
  0
VERTEX
  8
0
  5
820
 10
282.959
 20
240.521
 30
0.000000
  70
    32
  0
VERTEX
  8
0
  5
821
 10
282.956
 20
240.523
 30
0.000000
  70
    32
  0
VERTEX
  8
0
  5
822
 10
282.952
 20
240.525
 30
0.000000
  70
    32
  0
VERTEX
  8
0
  5
823
 10
282.949
 20
240.527
 30
0.000000
  70
    32
  0
VERTEX
  8
0
  5
824
 10
282.946
 20
240.529
 30
0.000000
  70
    32
  0
VERTEX
  8
0
  5
825
 10
282.942
 20
240.531
 30
0.000000
  70
    32
  0
VERTEX
  8
0
  5
826
 10
282.939
 20
240.533
 30
0.000000
  70
    32
  0
VERTEX
  8
0
  5
827
 10
282.935
 20
240.534
 30
0.000000
  70
    32
  0
VERTEX
  8
0
  5
828
 10
282.932
 20
240.536
 30
0.000000
  70
    32
  0
VERTEX
  8
0
  5
829
 10
282.928
 20
240.538
 30
0.000000
  70
    32
  0
VERTEX
  8
0
  5
82A
 10
282.925
 20
240.540
 30
0.000000
  70
    32
  0
VERTEX
  8
0
  5
82B
 10
282.921
 20
240.541
 30
0.000000
  70
    32
  0
VERTEX
  8
0
  5
82C
 10
282.918
 20
240.543
 30
0.000000
  70
    32
  0
VERTEX
  8
0
  5
82D
 10
282.914
 20
240.545
 30
0.000000
  70
    32
  0
VERTEX
  8
0
  5
82E
 10
282.911
 20
240.546
 30
0.000000
  70
    32
  0
VERTEX
  8
0
  5
82F
 10
282.907
 20
240.548
 30
0.000000
  70
    32
  0
VERTEX
  8
0
  5
830
 10
282.903
 20
240.550
 30
0.000000
  70
    32
  0
VERTEX
  8
0
  5
831
 10
282.900
 20
240.551
 30
0.000000
  70
    32
  0
VERTEX
  8
0
  5
832
 10
282.896
 20
240.553
 30
0.000000
  70
    32
  0
VERTEX
  8
0
  5
833
 10
282.893
 20
240.554
 30
0.000000
  70
    32
  0
VERTEX
  8
0
  5
834
 10
282.889
 20
240.556
 30
0.000000
  70
    32
  0
VERTEX
  8
0
  5
835
 10
282.886
 20
240.557
 30
0.000000
  70
    32
  0
VERTEX
  8
0
  5
836
 10
282.882
 20
240.559
 30
0.000000
  70
    32
  0
VERTEX
  8
0
  5
837
 10
282.878
 20
240.561
 30
0.000000
  70
    32
  0
VERTEX
  8
0
  5
838
 10
282.875
 20
240.562
 30
0.000000
  70
    32
  0
VERTEX
  8
0
  5
839
 10
282.871
 20
240.564
 30
0.000000
  70
    32
  0
VERTEX
  8
0
  5
83A
 10
282.868
 20
240.565
 30
0.000000
  70
    32
  0
VERTEX
  8
0
  5
83B
 10
282.864
 20
240.566
 30
0.000000
  70
    32
  0
VERTEX
  8
0
  5
83C
 10
282.860
 20
240.568
 30
0.000000
  70
    32
  0
VERTEX
  8
0
  5
83D
 10
282.857
 20
240.569
 30
0.000000
  70
    32
  0
VERTEX
  8
0
  5
83E
 10
282.853
 20
240.571
 30
0.000000
  70
    32
  0
VERTEX
  8
0
  5
83F
 10
282.849
 20
240.572
 30
0.000000
  70
    32
  0
VERTEX
  8
0
  5
840
 10
282.846
 20
240.574
 30
0.000000
  70
    32
  0
VERTEX
  8
0
  5
841
 10
282.842
 20
240.575
 30
0.000000
  70
    32
  0
VERTEX
  8
0
  5
842
 10
282.839
 20
240.576
 30
0.000000
  70
    32
  0
VERTEX
  8
0
  5
843
 10
282.835
 20
240.578
 30
0.000000
  70
    32
  0
VERTEX
  8
0
  5
844
 10
282.831
 20
240.579
 30
0.000000
  70
    32
  0
VERTEX
  8
0
  5
845
 10
282.828
 20
240.580
 30
0.000000
  70
    32
  0
VERTEX
  8
0
  5
846
 10
282.824
 20
240.582
 30
0.000000
  70
    32
  0
VERTEX
  8
0
  5
847
 10
282.820
 20
240.583
 30
0.000000
  70
    32
  0
VERTEX
  8
0
  5
848
 10
282.817
 20
240.584
 30
0.000000
  70
    32
  0
VERTEX
  8
0
  5
849
 10
282.813
 20
240.586
 30
0.000000
  70
    32
  0
VERTEX
  8
0
  5
84A
 10
282.809
 20
240.587
 30
0.000000
  70
    32
  0
VERTEX
  8
0
  5
84B
 10
282.806
 20
240.588
 30
0.000000
  70
    32
  0
VERTEX
  8
0
  5
84C
 10
282.802
 20
240.590
 30
0.000000
  70
    32
  0
VERTEX
  8
0
  5
84D
 10
282.798
 20
240.591
 30
0.000000
  70
    32
  0
VERTEX
  8
0
  5
84E
 10
282.795
 20
240.592
 30
0.000000
  70
    32
  0
VERTEX
  8
0
  5
84F
 10
282.791
 20
240.593
 30
0.000000
  70
    32
  0
VERTEX
  8
0
  5
850
 10
282.787
 20
240.594
 30
0.000000
  70
    32
  0
VERTEX
  8
0
  5
851
 10
282.784
 20
240.596
 30
0.000000
  70
    32
  0
VERTEX
  8
0
  5
852
 10
282.780
 20
240.597
 30
0.000000
  70
    32
  0
VERTEX
  8
0
  5
853
 10
282.776
 20
240.598
 30
0.000000
  70
    32
  0
VERTEX
  8
0
  5
854
 10
282.772
 20
240.599
 30
0.000000
  70
    32
  0
VERTEX
  8
0
  5
855
 10
282.769
 20
240.600
 30
0.000000
  70
    32
  0
VERTEX
  8
0
  5
856
 10
282.765
 20
240.601
 30
0.000000
  70
    32
  0
VERTEX
  8
0
  5
857
 10
282.761
 20
240.603
 30
0.000000
  70
    32
  0
VERTEX
  8
0
  5
858
 10
282.758
 20
240.604
 30
0.000000
  70
    32
  0
VERTEX
  8
0
  5
859
 10
282.754
 20
240.605
 30
0.000000
  70
    32
  0
VERTEX
  8
0
  5
85A
 10
282.750
 20
240.606
 30
0.000000
  70
    32
  0
VERTEX
  8
0
  5
85B
 10
282.746
 20
240.607
 30
0.000000
  70
    32
  0
VERTEX
  8
0
  5
85C
 10
282.743
 20
240.608
 30
0.000000
  70
    32
  0
VERTEX
  8
0
  5
85D
 10
282.739
 20
240.609
 30
0.000000
  70
    32
  0
VERTEX
  8
0
  5
85E
 10
282.735
 20
240.610
 30
0.000000
  70
    32
  0
VERTEX
  8
0
  5
85F
 10
282.731
 20
240.611
 30
0.000000
  70
    32
  0
VERTEX
  8
0
  5
860
 10
282.728
 20
240.612
 30
0.000000
  70
    32
  0
VERTEX
  8
0
  5
861
 10
282.724
 20
240.613
 30
0.000000
  70
    32
  0
VERTEX
  8
0
  5
862
 10
282.720
 20
240.614
 30
0.000000
  70
    32
  0
VERTEX
  8
0
  5
863
 10
282.716
 20
240.615
 30
0.000000
  70
    32
  0
VERTEX
  8
0
  5
864
 10
282.713
 20
240.616
 30
0.000000
  70
    32
  0
VERTEX
  8
0
  5
865
 10
282.709
 20
240.617
 30
0.000000
  70
    32
  0
VERTEX
  8
0
  5
866
 10
282.705
 20
240.618
 30
0.000000
  70
    32
  0
VERTEX
  8
0
  5
867
 10
282.701
 20
240.619
 30
0.000000
  70
    32
  0
VERTEX
  8
0
  5
868
 10
282.698
 20
240.620
 30
0.000000
  70
    32
  0
VERTEX
  8
0
  5
869
 10
282.694
 20
240.621
 30
0.000000
  70
    32
  0
VERTEX
  8
0
  5
86A
 10
282.690
 20
240.622
 30
0.000000
  70
    32
  0
VERTEX
  8
0
  5
86B
 10
282.686
 20
240.623
 30
0.000000
  70
    32
  0
VERTEX
  8
0
  5
86C
 10
282.683
 20
240.624
 30
0.000000
  70
    32
  0
VERTEX
  8
0
  5
86D
 10
282.679
 20
240.625
 30
0.000000
  70
    32
  0
VERTEX
  8
0
  5
86E
 10
282.675
 20
240.626
 30
0.000000
  70
    32
  0
VERTEX
  8
0
  5
86F
 10
282.671
 20
240.627
 30
0.000000
  70
    32
  0
VERTEX
  8
0
  5
870
 10
282.667
 20
240.628
 30
0.000000
  70
    32
  0
VERTEX
  8
0
  5
871
 10
282.664
 20
240.629
 30
0.000000
  70
    32
  0
VERTEX
  8
0
  5
872
 10
282.660
 20
240.630
 30
0.000000
  70
    32
  0
VERTEX
  8
0
  5
873
 10
282.656
 20
240.630
 30
0.000000
  70
    32
  0
VERTEX
  8
0
  5
874
 10
282.652
 20
240.631
 30
0.000000
  70
    32
  0
VERTEX
  8
0
  5
875
 10
282.649
 20
240.632
 30
0.000000
  70
    32
  0
VERTEX
  8
0
  5
876
 10
282.645
 20
240.633
 30
0.000000
  70
    32
  0
VERTEX
  8
0
  5
877
 10
282.641
 20
240.634
 30
0.000000
  70
    32
  0
VERTEX
  8
0
  5
878
 10
282.637
 20
240.635
 30
0.000000
  70
    32
  0
VERTEX
  8
0
  5
879
 10
282.633
 20
240.635
 30
0.000000
  70
    32
  0
VERTEX
  8
0
  5
87A
 10
282.630
 20
240.636
 30
0.000000
  70
    32
  0
VERTEX
  8
0
  5
87B
 10
282.626
 20
240.637
 30
0.000000
  70
    32
  0
VERTEX
  8
0
  5
87C
 10
282.622
 20
240.638
 30
0.000000
  70
    32
  0
VERTEX
  8
0
  5
87D
 10
282.618
 20
240.639
 30
0.000000
  70
    32
  0
VERTEX
  8
0
  5
87E
 10
282.614
 20
240.639
 30
0.000000
  70
    32
  0
VERTEX
  8
0
  5
87F
 10
282.611
 20
240.640
 30
0.000000
  70
    32
  0
VERTEX
  8
0
  5
880
 10
282.607
 20
240.641
 30
0.000000
  70
    32
  0
VERTEX
  8
0
  5
881
 10
282.603
 20
240.642
 30
0.000000
  70
    32
  0
VERTEX
  8
0
  5
882
 10
282.599
 20
240.642
 30
0.000000
  70
    32
  0
VERTEX
  8
0
  5
883
 10
282.595
 20
240.643
 30
0.000000
  70
    32
  0
VERTEX
  8
0
  5
884
 10
282.591
 20
240.644
 30
0.000000
  70
    32
  0
VERTEX
  8
0
  5
885
 10
282.588
 20
240.645
 30
0.000000
  70
    32
  0
VERTEX
  8
0
  5
886
 10
282.584
 20
240.645
 30
0.000000
  70
    32
  0
VERTEX
  8
0
  5
887
 10
282.580
 20
240.646
 30
0.000000
  70
    32
  0
VERTEX
  8
0
  5
888
 10
282.576
 20
240.647
 30
0.000000
  70
    32
  0
VERTEX
  8
0
  5
889
 10
282.572
 20
240.647
 30
0.000000
  70
    32
  0
VERTEX
  8
0
  5
88A
 10
282.569
 20
240.648
 30
0.000000
  70
    32
  0
VERTEX
  8
0
  5
88B
 10
282.565
 20
240.649
 30
0.000000
  70
    32
  0
VERTEX
  8
0
  5
88C
 10
282.561
 20
240.649
 30
0.000000
  70
    32
  0
VERTEX
  8
0
  5
88D
 10
282.557
 20
240.650
 30
0.000000
  70
    32
  0
VERTEX
  8
0
  5
88E
 10
282.553
 20
240.651
 30
0.000000
  70
    32
  0
VERTEX
  8
0
  5
88F
 10
282.549
 20
240.651
 30
0.000000
  70
    32
  0
VERTEX
  8
0
  5
890
 10
282.546
 20
240.652
 30
0.000000
  70
    32
  0
VERTEX
  8
0
  5
891
 10
282.542
 20
240.653
 30
0.000000
  70
    32
  0
VERTEX
  8
0
  5
892
 10
282.538
 20
240.653
 30
0.000000
  70
    32
  0
VERTEX
  8
0
  5
893
 10
282.534
 20
240.654
 30
0.000000
  70
    32
  0
VERTEX
  8
0
  5
894
 10
282.530
 20
240.655
 30
0.000000
  70
    32
  0
VERTEX
  8
0
  5
895
 10
282.526
 20
240.655
 30
0.000000
  70
    32
  0
VERTEX
  8
0
  5
896
 10
282.523
 20
240.656
 30
0.000000
  70
    32
  0
VERTEX
  8
0
  5
897
 10
282.519
 20
240.656
 30
0.000000
  70
    32
  0
VERTEX
  8
0
  5
898
 10
282.515
 20
240.657
 30
0.000000
  70
    32
  0
VERTEX
  8
0
  5
899
 10
282.511
 20
240.658
 30
0.000000
  70
    32
  0
VERTEX
  8
0
  5
89A
 10
282.507
 20
240.658
 30
0.000000
  70
    32
  0
VERTEX
  8
0
  5
89B
 10
282.503
 20
240.659
 30
0.000000
  70
    32
  0
VERTEX
  8
0
  5
89C
 10
282.499
 20
240.659
 30
0.000000
  70
    32
  0
VERTEX
  8
0
  5
89D
 10
282.496
 20
240.660
 30
0.000000
  70
    32
  0
VERTEX
  8
0
  5
89E
 10
282.492
 20
240.660
 30
0.000000
  70
    32
  0
VERTEX
  8
0
  5
89F
 10
282.488
 20
240.661
 30
0.000000
  70
    32
  0
VERTEX
  8
0
  5
8A0
 10
282.484
 20
240.661
 30
0.000000
  70
    32
  0
VERTEX
  8
0
  5
8A1
 10
282.480
 20
240.662
 30
0.000000
  70
    32
  0
VERTEX
  8
0
  5
8A2
 10
282.476
 20
240.662
 30
0.000000
  70
    32
  0
VERTEX
  8
0
  5
8A3
 10
282.473
 20
240.663
 30
0.000000
  70
    32
  0
VERTEX
  8
0
  5
8A4
 10
282.469
 20
240.664
 30
0.000000
  70
    32
  0
VERTEX
  8
0
  5
8A5
 10
282.465
 20
240.664
 30
0.000000
  70
    32
  0
VERTEX
  8
0
  5
8A6
 10
282.461
 20
240.665
 30
0.000000
  70
    32
  0
VERTEX
  8
0
  5
8A7
 10
282.457
 20
240.665
 30
0.000000
  70
    32
  0
VERTEX
  8
0
  5
8A8
 10
282.453
 20
240.665
 30
0.000000
  70
    32
  0
VERTEX
  8
0
  5
8A9
 10
282.449
 20
240.666
 30
0.000000
  70
    32
  0
VERTEX
  8
0
  5
8AA
 10
282.446
 20
240.666
 30
0.000000
  70
    32
  0
VERTEX
  8
0
  5
8AB
 10
282.442
 20
240.667
 30
0.000000
  70
    32
  0
VERTEX
  8
0
  5
8AC
 10
282.438
 20
240.667
 30
0.000000
  70
    32
  0
VERTEX
  8
0
  5
8AD
 10
282.434
 20
240.668
 30
0.000000
  70
    32
  0
VERTEX
  8
0
  5
8AE
 10
282.430
 20
240.668
 30
0.000000
  70
    32
  0
VERTEX
  8
0
  5
8AF
 10
282.426
 20
240.669
 30
0.000000
  70
    32
  0
VERTEX
  8
0
  5
8B0
 10
282.422
 20
240.669
 30
0.000000
  70
    32
  0
VERTEX
  8
0
  5
8B1
 10
282.418
 20
240.670
 30
0.000000
  70
    32
  0
VERTEX
  8
0
  5
8B2
 10
282.415
 20
240.670
 30
0.000000
  70
    32
  0
VERTEX
  8
0
  5
8B3
 10
282.411
 20
240.670
 30
0.000000
  70
    32
  0
VERTEX
  8
0
  5
8B4
 10
282.407
 20
240.671
 30
0.000000
  70
    32
  0
VERTEX
  8
0
  5
8B5
 10
282.403
 20
240.671
 30
0.000000
  70
    32
  0
VERTEX
  8
0
  5
8B6
 10
282.399
 20
240.672
 30
0.000000
  70
    32
  0
VERTEX
  8
0
  5
8B7
 10
282.395
 20
240.672
 30
0.000000
  70
    32
  0
VERTEX
  8
0
  5
8B8
 10
282.391
 20
240.672
 30
0.000000
  70
    32
  0
VERTEX
  8
0
  5
8B9
 10
282.388
 20
240.673
 30
0.000000
  70
    32
  0
VERTEX
  8
0
  5
8BA
 10
282.384
 20
240.673
 30
0.000000
  70
    32
  0
VERTEX
  8
0
  5
8BB
 10
282.380
 20
240.674
 30
0.000000
  70
    32
  0
VERTEX
  8
0
  5
8BC
 10
282.376
 20
240.674
 30
0.000000
  70
    32
  0
VERTEX
  8
0
  5
8BD
 10
282.372
 20
240.674
 30
0.000000
  70
    32
  0
VERTEX
  8
0
  5
8BE
 10
282.368
 20
240.675
 30
0.000000
  70
    32
  0
VERTEX
  8
0
  5
8BF
 10
282.364
 20
240.675
 30
0.000000
  70
    32
  0
VERTEX
  8
0
  5
8C0
 10
282.361
 20
240.675
 30
0.000000
  70
    32
  0
SEQEND
  8
0
  5
8C1
  0
LINE
  5
3D5
  8
0
  6
CONTINUOUS
 62
     7
 10
283.101684
 20
240.330554
 30
0.0
 11
283.101684
 21
239.08151
 31
0.0
  0
LINE
  5
3D6
  8
0
  6
CONTINUOUS
 62
     7
 10
283.101684
 20
239.08151
 30
0.0
 11
283.101684
 21
238.869975
 31
0.0
  0
LINE
  5
3D7
  8
0
  6
CONTINUOUS
 62
     7
 10
283.101684
 20
238.869975
 30
0.0
 11
283.101684
 21
237.972507
 31
0.0
  0
LINE
  5
3D8
  8
0
  6
CONTINUOUS
 62
     7
 10
283.101684
 20
237.972507
 30
0.0
 11
283.101684
 21
237.789457
 31
0.0
  0
LINE
  5
3D9
  8
0
  6
CONTINUOUS
 62
     7
 10
283.101684
 20
237.789457
 30
0.0
 11
283.101684
 21
197.836674
 31
0.0
  0
LINE
  5
3DA
  8
0
  6
CONTINUOUS
 62
     7
 10
283.101684
 20
197.836674
 30
0.0
 11
283.101684
 21
197.781747
 31
0.0
  0
LINE
  5
3DB
  8
0
  6
CONTINUOUS
 62
     7
 10
283.101684
 20
197.781747
 30
0.0
 11
283.101684
 21
197.702352
 31
0.0
  0
LINE
  5
3DC
  8
0
  6
CONTINUOUS
 62
     7
 10
283.101684
 20
197.702352
 30
0.0
 11
283.101684
 21
194.68151
 31
0.0
  0
LINE
  5
3DD
  8
0
  6
CONTINUOUS
 62
     7
 10
277.701684
 20
242.28151
 30
0.0
 11
277.701684
 21
194.28151
 31
0.0
  0
POLYLINE
  8
0
  5
8C2
  62
7
  66
     1
 10
0.000000
 20
0.000000
 30
0.000000
  70
     8
  0
VERTEX
  8
0
  5
8C3
 10
277.702
 20
241.053
 30
0.000000
  70
    32
  0
VERTEX
  8
0
  5
8C4
 10
277.726
 20
241.051
 30
0.000000
  70
    32
  0
VERTEX
  8
0
  5
8C5
 10
277.750
 20
241.049
 30
0.000000
  70
    32
  0
VERTEX
  8
0
  5
8C6
 10
277.775
 20
241.047
 30
0.000000
  70
    32
  0
VERTEX
  8
0
  5
8C7
 10
277.799
 20
241.045
 30
0.000000
  70
    32
  0
VERTEX
  8
0
  5
8C8
 10
277.824
 20
241.044
 30
0.000000
  70
    32
  0
VERTEX
  8
0
  5
8C9
 10
277.848
 20
241.042
 30
0.000000
  70
    32
  0
VERTEX
  8
0
  5
8CA
 10
277.873
 20
241.040
 30
0.000000
  70
    32
  0
VERTEX
  8
0
  5
8CB
 10
277.897
 20
241.038
 30
0.000000
  70
    32
  0
VERTEX
  8
0
  5
8CC
 10
277.921
 20
241.036
 30
0.000000
  70
    32
  0
VERTEX
  8
0
  5
8CD
 10
277.946
 20
241.035
 30
0.000000
  70
    32
  0
VERTEX
  8
0
  5
8CE
 10
277.970
 20
241.033
 30
0.000000
  70
    32
  0
VERTEX
  8
0
  5
8CF
 10
277.995
 20
241.031
 30
0.000000
  70
    32
  0
VERTEX
  8
0
  5
8D0
 10
278.019
 20
241.029
 30
0.000000
  70
    32
  0
VERTEX
  8
0
  5
8D1
 10
278.043
 20
241.027
 30
0.000000
  70
    32
  0
VERTEX
  8
0
  5
8D2
 10
278.068
 20
241.026
 30
0.000000
  70
    32
  0
VERTEX
  8
0
  5
8D3
 10
278.092
 20
241.024
 30
0.000000
  70
    32
  0
VERTEX
  8
0
  5
8D4
 10
278.117
 20
241.022
 30
0.000000
  70
    32
  0
VERTEX
  8
0
  5
8D5
 10
278.141
 20
241.020
 30
0.000000
  70
    32
  0
VERTEX
  8
0
  5
8D6
 10
278.165
 20
241.018
 30
0.000000
  70
    32
  0
VERTEX
  8
0
  5
8D7
 10
278.190
 20
241.017
 30
0.000000
  70
    32
  0
VERTEX
  8
0
  5
8D8
 10
278.214
 20
241.015
 30
0.000000
  70
    32
  0
VERTEX
  8
0
  5
8D9
 10
278.239
 20
241.013
 30
0.000000
  70
    32
  0
VERTEX
  8
0
  5
8DA
 10
278.263
 20
241.011
 30
0.000000
  70
    32
  0
VERTEX
  8
0
  5
8DB
 10
278.287
 20
241.009
 30
0.000000
  70
    32
  0
VERTEX
  8
0
  5
8DC
 10
278.312
 20
241.007
 30
0.000000
  70
    32
  0
VERTEX
  8
0
  5
8DD
 10
278.336
 20
241.006
 30
0.000000
  70
    32
  0
VERTEX
  8
0
  5
8DE
 10
278.361
 20
241.004
 30
0.000000
  70
    32
  0
VERTEX
  8
0
  5
8DF
 10
278.385
 20
241.002
 30
0.000000
  70
    32
  0
VERTEX
  8
0
  5
8E0
 10
278.409
 20
241.000
 30
0.000000
  70
    32
  0
VERTEX
  8
0
  5
8E1
 10
278.434
 20
240.998
 30
0.000000
  70
    32
  0
VERTEX
  8
0
  5
8E2
 10
278.458
 20
240.996
 30
0.000000
  70
    32
  0
VERTEX
  8
0
  5
8E3
 10
278.483
 20
240.995
 30
0.000000
  70
    32
  0
VERTEX
  8
0
  5
8E4
 10
278.507
 20
240.993
 30
0.000000
  70
    32
  0
VERTEX
  8
0
  5
8E5
 10
278.531
 20
240.991
 30
0.000000
  70
    32
  0
VERTEX
  8
0
  5
8E6
 10
278.556
 20
240.989
 30
0.000000
  70
    32
  0
VERTEX
  8
0
  5
8E7
 10
278.580
 20
240.987
 30
0.000000
  70
    32
  0
VERTEX
  8
0
  5
8E8
 10
278.605
 20
240.985
 30
0.000000
  70
    32
  0
VERTEX
  8
0
  5
8E9
 10
278.629
 20
240.983
 30
0.000000
  70
    32
  0
VERTEX
  8
0
  5
8EA
 10
278.653
 20
240.982
 30
0.000000
  70
    32
  0
VERTEX
  8
0
  5
8EB
 10
278.678
 20
240.980
 30
0.000000
  70
    32
  0
VERTEX
  8
0
  5
8EC
 10
278.702
 20
240.978
 30
0.000000
  70
    32
  0
VERTEX
  8
0
  5
8ED
 10
278.727
 20
240.976
 30
0.000000
  70
    32
  0
VERTEX
  8
0
  5
8EE
 10
278.751
 20
240.974
 30
0.000000
  70
    32
  0
VERTEX
  8
0
  5
8EF
 10
278.775
 20
240.972
 30
0.000000
  70
    32
  0
VERTEX
  8
0
  5
8F0
 10
278.800
 20
240.970
 30
0.000000
  70
    32
  0
VERTEX
  8
0
  5
8F1
 10
278.824
 20
240.969
 30
0.000000
  70
    32
  0
VERTEX
  8
0
  5
8F2
 10
278.849
 20
240.967
 30
0.000000
  70
    32
  0
VERTEX
  8
0
  5
8F3
 10
278.873
 20
240.965
 30
0.000000
  70
    32
  0
VERTEX
  8
0
  5
8F4
 10
278.897
 20
240.963
 30
0.000000
  70
    32
  0
VERTEX
  8
0
  5
8F5
 10
278.922
 20
240.961
 30
0.000000
  70
    32
  0
VERTEX
  8
0
  5
8F6
 10
278.946
 20
240.959
 30
0.000000
  70
    32
  0
VERTEX
  8
0
  5
8F7
 10
278.971
 20
240.957
 30
0.000000
  70
    32
  0
VERTEX
  8
0
  5
8F8
 10
278.995
 20
240.955
 30
0.000000
  70
    32
  0
VERTEX
  8
0
  5
8F9
 10
279.019
 20
240.953
 30
0.000000
  70
    32
  0
VERTEX
  8
0
  5
8FA
 10
279.044
 20
240.952
 30
0.000000
  70
    32
  0
VERTEX
  8
0
  5
8FB
 10
279.068
 20
240.950
 30
0.000000
  70
    32
  0
VERTEX
  8
0
  5
8FC
 10
279.093
 20
240.948
 30
0.000000
  70
    32
  0
VERTEX
  8
0
  5
8FD
 10
279.117
 20
240.946
 30
0.000000
  70
    32
  0
VERTEX
  8
0
  5
8FE
 10
279.141
 20
240.944
 30
0.000000
  70
    32
  0
VERTEX
  8
0
  5
8FF
 10
279.166
 20
240.942
 30
0.000000
  70
    32
  0
VERTEX
  8
0
  5
900
 10
279.190
 20
240.940
 30
0.000000
  70
    32
  0
VERTEX
  8
0
  5
901
 10
279.215
 20
240.938
 30
0.000000
  70
    32
  0
VERTEX
  8
0
  5
902
 10
279.239
 20
240.936
 30
0.000000
  70
    32
  0
VERTEX
  8
0
  5
903
 10
279.263
 20
240.934
 30
0.000000
  70
    32
  0
VERTEX
  8
0
  5
904
 10
279.288
 20
240.933
 30
0.000000
  70
    32
  0
VERTEX
  8
0
  5
905
 10
279.312
 20
240.931
 30
0.000000
  70
    32
  0
VERTEX
  8
0
  5
906
 10
279.337
 20
240.929
 30
0.000000
  70
    32
  0
VERTEX
  8
0
  5
907
 10
279.361
 20
240.927
 30
0.000000
  70
    32
  0
VERTEX
  8
0
  5
908
 10
279.385
 20
240.925
 30
0.000000
  70
    32
  0
VERTEX
  8
0
  5
909
 10
279.410
 20
240.923
 30
0.000000
  70
    32
  0
VERTEX
  8
0
  5
90A
 10
279.434
 20
240.921
 30
0.000000
  70
    32
  0
VERTEX
  8
0
  5
90B
 10
279.459
 20
240.919
 30
0.000000
  70
    32
  0
VERTEX
  8
0
  5
90C
 10
279.483
 20
240.917
 30
0.000000
  70
    32
  0
VERTEX
  8
0
  5
90D
 10
279.507
 20
240.915
 30
0.000000
  70
    32
  0
VERTEX
  8
0
  5
90E
 10
279.532
 20
240.913
 30
0.000000
  70
    32
  0
VERTEX
  8
0
  5
90F
 10
279.556
 20
240.911
 30
0.000000
  70
    32
  0
VERTEX
  8
0
  5
910
 10
279.581
 20
240.909
 30
0.000000
  70
    32
  0
VERTEX
  8
0
  5
911
 10
279.605
 20
240.908
 30
0.000000
  70
    32
  0
VERTEX
  8
0
  5
912
 10
279.629
 20
240.906
 30
0.000000
  70
    32
  0
VERTEX
  8
0
  5
913
 10
279.654
 20
240.904
 30
0.000000
  70
    32
  0
VERTEX
  8
0
  5
914
 10
279.678
 20
240.902
 30
0.000000
  70
    32
  0
VERTEX
  8
0
  5
915
 10
279.703
 20
240.900
 30
0.000000
  70
    32
  0
VERTEX
  8
0
  5
916
 10
279.727
 20
240.898
 30
0.000000
  70
    32
  0
VERTEX
  8
0
  5
917
 10
279.751
 20
240.896
 30
0.000000
  70
    32
  0
VERTEX
  8
0
  5
918
 10
279.776
 20
240.894
 30
0.000000
  70
    32
  0
VERTEX
  8
0
  5
919
 10
279.800
 20
240.892
 30
0.000000
  70
    32
  0
VERTEX
  8
0
  5
91A
 10
279.825
 20
240.890
 30
0.000000
  70
    32
  0
VERTEX
  8
0
  5
91B
 10
279.849
 20
240.888
 30
0.000000
  70
    32
  0
VERTEX
  8
0
  5
91C
 10
279.873
 20
240.886
 30
0.000000
  70
    32
  0
VERTEX
  8
0
  5
91D
 10
279.898
 20
240.884
 30
0.000000
  70
    32
  0
VERTEX
  8
0
  5
91E
 10
279.922
 20
240.882
 30
0.000000
  70
    32
  0
VERTEX
  8
0
  5
91F
 10
279.946
 20
240.880
 30
0.000000
  70
    32
  0
VERTEX
  8
0
  5
920
 10
279.971
 20
240.878
 30
0.000000
  70
    32
  0
VERTEX
  8
0
  5
921
 10
279.995
 20
240.876
 30
0.000000
  70
    32
  0
VERTEX
  8
0
  5
922
 10
280.020
 20
240.874
 30
0.000000
  70
    32
  0
VERTEX
  8
0
  5
923
 10
280.044
 20
240.872
 30
0.000000
  70
    32
  0
VERTEX
  8
0
  5
924
 10
280.068
 20
240.870
 30
0.000000
  70
    32
  0
VERTEX
  8
0
  5
925
 10
280.093
 20
240.868
 30
0.000000
  70
    32
  0
VERTEX
  8
0
  5
926
 10
280.117
 20
240.866
 30
0.000000
  70
    32
  0
VERTEX
  8
0
  5
927
 10
280.142
 20
240.864
 30
0.000000
  70
    32
  0
VERTEX
  8
0
  5
928
 10
280.166
 20
240.862
 30
0.000000
  70
    32
  0
VERTEX
  8
0
  5
929
 10
280.190
 20
240.860
 30
0.000000
  70
    32
  0
VERTEX
  8
0
  5
92A
 10
280.215
 20
240.858
 30
0.000000
  70
    32
  0
VERTEX
  8
0
  5
92B
 10
280.239
 20
240.856
 30
0.000000
  70
    32
  0
VERTEX
  8
0
  5
92C
 10
280.264
 20
240.854
 30
0.000000
  70
    32
  0
VERTEX
  8
0
  5
92D
 10
280.288
 20
240.852
 30
0.000000
  70
    32
  0
VERTEX
  8
0
  5
92E
 10
280.312
 20
240.850
 30
0.000000
  70
    32
  0
VERTEX
  8
0
  5
92F
 10
280.337
 20
240.848
 30
0.000000
  70
    32
  0
VERTEX
  8
0
  5
930
 10
280.361
 20
240.846
 30
0.000000
  70
    32
  0
VERTEX
  8
0
  5
931
 10
280.386
 20
240.844
 30
0.000000
  70
    32
  0
VERTEX
  8
0
  5
932
 10
280.410
 20
240.842
 30
0.000000
  70
    32
  0
VERTEX
  8
0
  5
933
 10
280.434
 20
240.840
 30
0.000000
  70
    32
  0
VERTEX
  8
0
  5
934
 10
280.459
 20
240.838
 30
0.000000
  70
    32
  0
VERTEX
  8
0
  5
935
 10
280.483
 20
240.836
 30
0.000000
  70
    32
  0
VERTEX
  8
0
  5
936
 10
280.507
 20
240.834
 30
0.000000
  70
    32
  0
VERTEX
  8
0
  5
937
 10
280.532
 20
240.832
 30
0.000000
  70
    32
  0
VERTEX
  8
0
  5
938
 10
280.556
 20
240.830
 30
0.000000
  70
    32
  0
VERTEX
  8
0
  5
939
 10
280.581
 20
240.828
 30
0.000000
  70
    32
  0
VERTEX
  8
0
  5
93A
 10
280.605
 20
240.826
 30
0.000000
  70
    32
  0
VERTEX
  8
0
  5
93B
 10
280.629
 20
240.824
 30
0.000000
  70
    32
  0
VERTEX
  8
0
  5
93C
 10
280.654
 20
240.822
 30
0.000000
  70
    32
  0
VERTEX
  8
0
  5
93D
 10
280.678
 20
240.820
 30
0.000000
  70
    32
  0
VERTEX
  8
0
  5
93E
 10
280.703
 20
240.818
 30
0.000000
  70
    32
  0
VERTEX
  8
0
  5
93F
 10
280.727
 20
240.816
 30
0.000000
  70
    32
  0
VERTEX
  8
0
  5
940
 10
280.751
 20
240.814
 30
0.000000
  70
    32
  0
VERTEX
  8
0
  5
941
 10
280.776
 20
240.812
 30
0.000000
  70
    32
  0
VERTEX
  8
0
  5
942
 10
280.800
 20
240.810
 30
0.000000
  70
    32
  0
VERTEX
  8
0
  5
943
 10
280.825
 20
240.808
 30
0.000000
  70
    32
  0
VERTEX
  8
0
  5
944
 10
280.849
 20
240.806
 30
0.000000
  70
    32
  0
VERTEX
  8
0
  5
945
 10
280.873
 20
240.804
 30
0.000000
  70
    32
  0
VERTEX
  8
0
  5
946
 10
280.898
 20
240.802
 30
0.000000
  70
    32
  0
VERTEX
  8
0
  5
947
 10
280.922
 20
240.800
 30
0.000000
  70
    32
  0
VERTEX
  8
0
  5
948
 10
280.946
 20
240.798
 30
0.000000
  70
    32
  0
VERTEX
  8
0
  5
949
 10
280.971
 20
240.796
 30
0.000000
  70
    32
  0
VERTEX
  8
0
  5
94A
 10
280.995
 20
240.794
 30
0.000000
  70
    32
  0
VERTEX
  8
0
  5
94B
 10
281.020
 20
240.792
 30
0.000000
  70
    32
  0
VERTEX
  8
0
  5
94C
 10
281.044
 20
240.790
 30
0.000000
  70
    32
  0
VERTEX
  8
0
  5
94D
 10
281.068
 20
240.788
 30
0.000000
  70
    32
  0
VERTEX
  8
0
  5
94E
 10
281.093
 20
240.785
 30
0.000000
  70
    32
  0
VERTEX
  8
0
  5
94F
 10
281.117
 20
240.783
 30
0.000000
  70
    32
  0
VERTEX
  8
0
  5
950
 10
281.142
 20
240.781
 30
0.000000
  70
    32
  0
VERTEX
  8
0
  5
951
 10
281.166
 20
240.779
 30
0.000000
  70
    32
  0
VERTEX
  8
0
  5
952
 10
281.190
 20
240.777
 30
0.000000
  70
    32
  0
VERTEX
  8
0
  5
953
 10
281.215
 20
240.775
 30
0.000000
  70
    32
  0
VERTEX
  8
0
  5
954
 10
281.239
 20
240.773
 30
0.000000
  70
    32
  0
VERTEX
  8
0
  5
955
 10
281.263
 20
240.771
 30
0.000000
  70
    32
  0
VERTEX
  8
0
  5
956
 10
281.288
 20
240.769
 30
0.000000
  70
    32
  0
VERTEX
  8
0
  5
957
 10
281.312
 20
240.767
 30
0.000000
  70
    32
  0
VERTEX
  8
0
  5
958
 10
281.337
 20
240.765
 30
0.000000
  70
    32
  0
VERTEX
  8
0
  5
959
 10
281.361
 20
240.763
 30
0.000000
  70
    32
  0
VERTEX
  8
0
  5
95A
 10
281.385
 20
240.761
 30
0.000000
  70
    32
  0
VERTEX
  8
0
  5
95B
 10
281.410
 20
240.758
 30
0.000000
  70
    32
  0
VERTEX
  8
0
  5
95C
 10
281.434
 20
240.756
 30
0.000000
  70
    32
  0
VERTEX
  8
0
  5
95D
 10
281.458
 20
240.754
 30
0.000000
  70
    32
  0
VERTEX
  8
0
  5
95E
 10
281.483
 20
240.752
 30
0.000000
  70
    32
  0
VERTEX
  8
0
  5
95F
 10
281.507
 20
240.750
 30
0.000000
  70
    32
  0
VERTEX
  8
0
  5
960
 10
281.532
 20
240.748
 30
0.000000
  70
    32
  0
VERTEX
  8
0
  5
961
 10
281.556
 20
240.746
 30
0.000000
  70
    32
  0
VERTEX
  8
0
  5
962
 10
281.580
 20
240.744
 30
0.000000
  70
    32
  0
VERTEX
  8
0
  5
963
 10
281.605
 20
240.742
 30
0.000000
  70
    32
  0
VERTEX
  8
0
  5
964
 10
281.629
 20
240.740
 30
0.000000
  70
    32
  0
VERTEX
  8
0
  5
965
 10
281.654
 20
240.737
 30
0.000000
  70
    32
  0
VERTEX
  8
0
  5
966
 10
281.678
 20
240.735
 30
0.000000
  70
    32
  0
VERTEX
  8
0
  5
967
 10
281.702
 20
240.733
 30
0.000000
  70
    32
  0
VERTEX
  8
0
  5
968
 10
281.727
 20
240.731
 30
0.000000
  70
    32
  0
VERTEX
  8
0
  5
969
 10
281.751
 20
240.729
 30
0.000000
  70
    32
  0
VERTEX
  8
0
  5
96A
 10
281.775
 20
240.727
 30
0.000000
  70
    32
  0
VERTEX
  8
0
  5
96B
 10
281.800
 20
240.725
 30
0.000000
  70
    32
  0
VERTEX
  8
0
  5
96C
 10
281.824
 20
240.723
 30
0.000000
  70
    32
  0
VERTEX
  8
0
  5
96D
 10
281.849
 20
240.720
 30
0.000000
  70
    32
  0
VERTEX
  8
0
  5
96E
 10
281.873
 20
240.718
 30
0.000000
  70
    32
  0
VERTEX
  8
0
  5
96F
 10
281.897
 20
240.716
 30
0.000000
  70
    32
  0
VERTEX
  8
0
  5
970
 10
281.922
 20
240.714
 30
0.000000
  70
    32
  0
VERTEX
  8
0
  5
971
 10
281.946
 20
240.712
 30
0.000000
  70
    32
  0
VERTEX
  8
0
  5
972
 10
281.970
 20
240.710
 30
0.000000
  70
    32
  0
VERTEX
  8
0
  5
973
 10
281.995
 20
240.708
 30
0.000000
  70
    32
  0
VERTEX
  8
0
  5
974
 10
282.019
 20
240.706
 30
0.000000
  70
    32
  0
VERTEX
  8
0
  5
975
 10
282.044
 20
240.703
 30
0.000000
  70
    32
  0
VERTEX
  8
0
  5
976
 10
282.068
 20
240.701
 30
0.000000
  70
    32
  0
VERTEX
  8
0
  5
977
 10
282.092
 20
240.699
 30
0.000000
  70
    32
  0
VERTEX
  8
0
  5
978
 10
282.117
 20
240.697
 30
0.000000
  70
    32
  0
VERTEX
  8
0
  5
979
 10
282.141
 20
240.695
 30
0.000000
  70
    32
  0
VERTEX
  8
0
  5
97A
 10
282.165
 20
240.693
 30
0.000000
  70
    32
  0
VERTEX
  8
0
  5
97B
 10
282.190
 20
240.690
 30
0.000000
  70
    32
  0
VERTEX
  8
0
  5
97C
 10
282.214
 20
240.688
 30
0.000000
  70
    32
  0
VERTEX
  8
0
  5
97D
 10
282.239
 20
240.686
 30
0.000000
  70
    32
  0
VERTEX
  8
0
  5
97E
 10
282.263
 20
240.684
 30
0.000000
  70
    32
  0
VERTEX
  8
0
  5
97F
 10
282.287
 20
240.682
 30
0.000000
  70
    32
  0
VERTEX
  8
0
  5
980
 10
282.312
 20
240.680
 30
0.000000
  70
    32
  0
VERTEX
  8
0
  5
981
 10
282.336
 20
240.677
 30
0.000000
  70
    32
  0
VERTEX
  8
0
  5
982
 10
282.361
 20
240.675
 30
0.000000
  70
    32
  0
SEQEND
  8
0
  5
983
  0
LINE
  5
3DF
  8
0
  6
CONTINUOUS
 62
     7
 10
273.701684
 20
203.68151
 30
0.0
 11
273.701684
 21
232.78151
 31
0.0
  0
LINE
  5
3E0
  8
0
  6
CONTINUOUS
 62
     7
 10
273.701684
 20
232.871804
 30
0.0
 11
273.701684
 21
232.78151
 31
0.0
  0
LINE
  5
3E1
  8
0
  6
CONTINUOUS
 62
     7
 10
273.701684
 20
233.78151
 30
0.0
 11
273.701684
 21
242.28151
 31
0.0
  0
LINE
  5
3E2
  8
0
  6
CONTINUOUS
 62
     7
 10
273.701684
 20
242.28151
 30
0.0
 11
273.701684
 21
242.970886
 31
0.0
  0
LINE
  5
3E3
  8
0
  6
CONTINUOUS
 62
     7
 10
273.701684
 20
242.970886
 30
0.0
 11
273.701684
 21
243.026226
 31
0.0
  0
LINE
  5
3E4
  8
0
  6
CONTINUOUS
 62
     7
 10
273.701684
 20
243.026226
 30
0.0
 11
273.701684
 21
244.273225
 31
0.0
  0
LINE
  5
3E5
  8
0
  6
CONTINUOUS
 62
     7
 10
273.701684
 20
244.273225
 30
0.0
 11
273.701684
 21
244.313432
 31
0.0
  0
LINE
  5
3E6
  8
0
  6
CONTINUOUS
 62
     7
 10
273.701684
 20
244.313432
 30
0.0
 11
273.701684
 21
244.393284
 31
0.0
  0
LINE
  5
3E7
  8
0
  6
CONTINUOUS
 62
     7
 10
273.701684
 20
244.393284
 30
0.0
 11
273.701684
 21
244.88123
 31
0.0
  0
LINE
  5
3E8
  8
0
  6
CONTINUOUS
 62
     7
 10
273.701684
 20
244.88123
 30
0.0
 11
273.701684
 21
244.960294
 31
0.0
  0
LINE
  5
3E9
  8
0
  6
CONTINUOUS
 62
     7
 10
273.701684
 20
244.960294
 30
0.0
 11
273.701684
 21
245.581172
 31
0.0
  0
LINE
  5
3EA
  8
0
  6
CONTINUOUS
 62
     7
 10
273.701684
 20
245.581172
 30
0.0
 11
273.701684
 21
245.78151
 31
0.0
  0
LINE
  5
3EB
  8
0
  6
CONTINUOUS
 62
     7
 10
273.701684
 20
245.78151
 30
0.0
 11
273.701684
 21
249.239036
 31
0.0
  0
LINE
  5
3EC
  8
0
  6
CONTINUOUS
 62
     7
 10
273.701684
 20
249.239036
 30
0.0
 11
273.701684
 21
249.28151
 31
0.0
  0
LINE
  5
3ED
  8
0
  6
CONTINUOUS
 62
     7
 10
143.701684
 20
203.28151
 30
0.0
 11
260.312298
 21
203.28151
 31
0.0
  0
LINE
  5
3EF
  8
0
  6
CONTINUOUS
 62
     7
 10
143.701684
 20
242.28151
 30
0.0
 11
143.701684
 21
242.970886
 31
0.0
  0
LINE
  5
3F0
  8
0
  6
CONTINUOUS
 62
     7
 10
143.701684
 20
242.970886
 30
0.0
 11
143.701684
 21
243.397329
 31
0.0
  0
LINE
  5
3F1
  8
0
  6
CONTINUOUS
 62
     7
 10
143.701684
 20
243.397329
 30
0.0
 11
143.701684
 21
244.273225
 31
0.0
  0
LINE
  5
3F2
  8
0
  6
CONTINUOUS
 62
     7
 10
143.701684
 20
244.273225
 30
0.0
 11
143.701684
 21
244.313432
 31
0.0
  0
LINE
  5
3F3
  8
0
  6
CONTINUOUS
 62
     7
 10
143.701684
 20
244.313432
 30
0.0
 11
143.701684
 21
244.393284
 31
0.0
  0
LINE
  5
3F4
  8
0
  6
CONTINUOUS
 62
     7
 10
143.701684
 20
244.393284
 30
0.0
 11
143.701684
 21
244.88123
 31
0.0
  0
LINE
  5
3F5
  8
0
  6
CONTINUOUS
 62
     7
 10
143.701684
 20
244.88123
 30
0.0
 11
143.701684
 21
244.960294
 31
0.0
  0
LINE
  5
3F6
  8
0
  6
CONTINUOUS
 62
     7
 10
143.701684
 20
244.960294
 30
0.0
 11
143.701684
 21
249.184033
 31
0.0
  0
LINE
  5
3F7
  8
0
  6
CONTINUOUS
 62
     7
 10
143.701684
 20
249.184033
 30
0.0
 11
143.701684
 21
249.28151
 31
0.0
  0
LINE
  5
3F8
  8
0
  6
CONTINUOUS
 62
     7
 10
143.701684
 20
233.78151
 30
0.0
 11
143.701684
 21
242.28151
 31
0.0
  0
LINE
  5
3F9
  8
0
  6
CONTINUOUS
 62
     7
 10
143.701684
 20
232.871804
 30
0.0
 11
143.701684
 21
232.78151
 31
0.0
  0
LINE
  5
3FA
  8
0
  6
CONTINUOUS
 62
     7
 10
143.701684
 20
203.68151
 30
0.0
 11
143.701684
 21
232.78151
 31
0.0
  0
LINE
  5
3FB
  8
0
  6
CONTINUOUS
 62
     7
 10
273.701684
 20
249.28151
 30
0.0
 11
143.701684
 21
249.28151
 31
0.0
  0
LINE
  5
3FC
  8
0
  6
CONTINUOUS
 62
     7
 10
273.701684
 20
233.78151
 30
0.0
 11
270.986726
 21
233.78151
 31
0.0
  0
LINE
  5
3FD
  8
0
  6
CONTINUOUS
 62
     7
 10
273.701684
 20
232.78151
 30
0.0
 11
158.381975
 21
232.78151
 31
0.0
  0
LINE
  5
3FE
  8
0
  6
CONTINUOUS
 62
     7
 10
273.701684
 20
194.28151
 30
0.0
 11
273.701684
 21
202.88151
 31
0.0
  0
LINE
  5
3FF
  8
0
  6
CONTINUOUS
 62
     7
 10
143.701684
 20
187.28151
 30
0.0
 11
143.701684
 21
187.378987
 31
0.0
  0
LINE
  5
400
  8
0
  6
CONTINUOUS
 62
     7
 10
143.701684
 20
187.378987
 30
0.0
 11
143.701684
 21
190.78151
 31
0.0
  0
LINE
  5
401
  8
0
  6
CONTINUOUS
 62
     7
 10
143.701684
 20
190.78151
 30
0.0
 11
143.701684
 21
190.981847
 31
0.0
  0
LINE
  5
402
  8
0
  6
CONTINUOUS
 62
     7
 10
143.701684
 20
190.981847
 30
0.0
 11
143.701684
 21
191.602726
 31
0.0
  0
LINE
  5
403
  8
0
  6
CONTINUOUS
 62
     7
 10
143.701684
 20
191.602726
 30
0.0
 11
143.701684
 21
191.68179
 31
0.0
  0
LINE
  5
404
  8
0
  6
CONTINUOUS
 62
     7
 10
143.701684
 20
191.68179
 30
0.0
 11
143.701684
 21
192.169736
 31
0.0
  0
LINE
  5
405
  8
0
  6
CONTINUOUS
 62
     7
 10
143.701684
 20
192.169736
 30
0.0
 11
143.701684
 21
192.249588
 31
0.0
  0
LINE
  5
406
  8
0
  6
CONTINUOUS
 62
     7
 10
143.701684
 20
192.249588
 30
0.0
 11
143.701684
 21
192.289794
 31
0.0
  0
LINE
  5
407
  8
0
  6
CONTINUOUS
 62
     7
 10
143.701684
 20
192.289794
 30
0.0
 11
143.701684
 21
193.16569
 31
0.0
  0
LINE
  5
408
  8
0
  6
CONTINUOUS
 62
     7
 10
143.701684
 20
193.16569
 30
0.0
 11
143.701684
 21
193.592134
 31
0.0
  0
LINE
  5
409
  8
0
  6
CONTINUOUS
 62
     7
 10
143.701684
 20
193.592134
 30
0.0
 11
143.701684
 21
194.28151
 31
0.0
  0
LINE
  5
40A
  8
0
  6
CONTINUOUS
 62
     7
 10
273.701684
 20
187.28151
 30
0.0
 11
273.701684
 21
187.323984
 31
0.0
  0
LINE
  5
40B
  8
0
  6
CONTINUOUS
 62
     7
 10
273.701684
 20
187.323984
 30
0.0
 11
273.701684
 21
191.602726
 31
0.0
  0
LINE
  5
40C
  8
0
  6
CONTINUOUS
 62
     7
 10
273.701684
 20
191.602726
 30
0.0
 11
273.701684
 21
191.68179
 31
0.0
  0
LINE
  5
40D
  8
0
  6
CONTINUOUS
 62
     7
 10
273.701684
 20
191.68179
 30
0.0
 11
273.701684
 21
192.169736
 31
0.0
  0
LINE
  5
40E
  8
0
  6
CONTINUOUS
 62
     7
 10
273.701684
 20
192.169736
 30
0.0
 11
273.701684
 21
192.249588
 31
0.0
  0
LINE
  5
40F
  8
0
  6
CONTINUOUS
 62
     7
 10
273.701684
 20
192.249588
 30
0.0
 11
273.701684
 21
192.289794
 31
0.0
  0
LINE
  5
410
  8
0
  6
CONTINUOUS
 62
     7
 10
273.701684
 20
192.289794
 30
0.0
 11
273.701684
 21
193.536793
 31
0.0
  0
LINE
  5
411
  8
0
  6
CONTINUOUS
 62
     7
 10
273.701684
 20
193.536793
 30
0.0
 11
273.701684
 21
193.592134
 31
0.0
  0
LINE
  5
412
  8
0
  6
CONTINUOUS
 62
     7
 10
273.701684
 20
193.592134
 30
0.0
 11
273.701684
 21
194.28151
 31
0.0
  0
LINE
  5
413
  8
0
  6
CONTINUOUS
 62
     7
 10
273.701684
 20
187.28151
 30
0.0
 11
143.701684
 21
187.28151
 31
0.0
  0
LINE
  5
414
  8
0
  6
CONTINUOUS
 62
     7
 10
273.701684
 20
203.28151
 30
0.0
 11
269.730911
 21
203.28151
 31
0.0
  0
LINE
  5
415
  8
0
  6
CONTINUOUS
 62
     7
 10
143.701684
 20
194.28151
 30
0.0
 11
143.701684
 21
202.88151
 31
0.0
  0
LINE
  5
416
  8
0
  6
CONTINUOUS
 62
     7
 10
273.701684
 20
187.28151
 30
0.0
 11
143.701684
 21
187.28151
 31
0.0
  0
ARC
  5
417
  8
0
  6
CONTINUOUS
 62
     7
 10
339.11357
 20
218.28151
 30
0.0
 40
2.0
 50
90.0
 51
270.0
  0
ARC
  5
418
  8
0
  6
CONTINUOUS
 62
     7
 10
339.11357
 20
218.28151
 30
0.0
 40
2.0
 50
270.0
 51
90.0
  0
LINE
  5
419
  8
0
  6
CONTINUOUS
 62
     7
 10
319.217774
 20
242.28151
 30
0.0
 11
318.227444
 21
242.28151
 31
0.0
  0
LINE
  5
41A
  8
0
  6
CONTINUOUS
 62
     7
 10
318.699356
 20
244.827094
 30
0.0
 11
317.567986
 21
243.695723
 31
0.0
  0
LINE
  5
41B
  8
0
  6
CONTINUOUS
 62
     7
 10
317.567986
 20
243.695723
 30
0.0
 11
318.227444
 21
242.28151
 31
0.0
  0
LINE
  5
41C
  8
0
  6
CONTINUOUS
 62
     7
 10
318.227444
 20
242.28151
 30
0.0
 11
317.567986
 21
240.867296
 31
0.0
  0
LINE
  5
41D
  8
0
  6
CONTINUOUS
 62
     7
 10
317.567986
 20
240.867296
 30
0.0
 11
318.699356
 21
239.735925
 31
0.0
  0
LINE
  5
41E
  8
0
  6
CONTINUOUS
 62
     7
 10
318.699356
 20
239.735925
 30
0.0
 11
320.11357
 21
240.395384
 31
0.0
  0
LINE
  5
41F
  8
0
  6
CONTINUOUS
 62
     7
 10
320.11357
 20
240.395384
 30
0.0
 11
321.527783
 21
239.735925
 31
0.0
  0
LINE
  5
420
  8
0
  6
CONTINUOUS
 62
     7
 10
321.527783
 20
239.735925
 30
0.0
 11
322.659154
 21
240.867296
 31
0.0
  0
LINE
  5
421
  8
0
  6
CONTINUOUS
 62
     7
 10
322.659154
 20
240.867296
 30
0.0
 11
321.999696
 21
242.28151
 31
0.0
  0
LINE
  5
422
  8
0
  6
CONTINUOUS
 62
     7
 10
321.999696
 20
242.28151
 30
0.0
 11
322.659154
 21
243.695723
 31
0.0
  0
LINE
  5
423
  8
0
  6
CONTINUOUS
 62
     7
 10
322.659154
 20
243.695723
 30
0.0
 11
321.527783
 21
244.827094
 31
0.0
  0
LINE
  5
424
  8
0
  6
CONTINUOUS
 62
     7
 10
321.527783
 20
244.827094
 30
0.0
 11
320.11357
 21
244.167636
 31
0.0
  0
LINE
  5
425
  8
0
  6
CONTINUOUS
 62
     7
 10
320.11357
 20
244.167636
 30
0.0
 11
318.699356
 21
244.827094
 31
0.0
  0
LINE
  5
426
  8
0
  6
CONTINUOUS
 62
     7
 10
320.11357
 20
241.385714
 30
0.0
 11
320.11357
 21
240.395384
 31
0.0
  0
LINE
  5
427
  8
0
  6
CONTINUOUS
 62
     7
 10
321.009365
 20
242.28151
 30
0.0
 11
321.999696
 21
242.28151
 31
0.0
  0
LINE
  5
428
  8
0
  6
CONTINUOUS
 62
     7
 10
320.11357
 20
243.177305
 30
0.0
 11
320.11357
 21
244.167636
 31
0.0
  0
LINE
  5
429
  8
0
  6
CONTINUOUS
 62
     7
 10
319.217774
 20
242.28151
 30
0.0
 11
319.05291
 21
241.927956
 31
0.0
  0
LINE
  5
42A
  8
0
  6
CONTINUOUS
 62
     7
 10
319.05291
 20
242.635063
 30
0.0
 11
319.217774
 21
242.28151
 31
0.0
  0
LINE
  5
42B
  8
0
  6
CONTINUOUS
 62
     7
 10
319.760017
 20
243.34217
 30
0.0
 11
319.05291
 21
242.635063
 31
0.0
  0
LINE
  5
42C
  8
0
  6
CONTINUOUS
 62
     7
 10
320.11357
 20
243.177305
 30
0.0
 11
319.760017
 21
243.34217
 31
0.0
  0
LINE
  5
42D
  8
0
  6
CONTINUOUS
 62
     7
 10
320.467123
 20
243.34217
 30
0.0
 11
320.11357
 21
243.177305
 31
0.0
  0
LINE
  5
42E
  8
0
  6
CONTINUOUS
 62
     7
 10
321.17423
 20
242.635063
 30
0.0
 11
320.467123
 21
243.34217
 31
0.0
  0
LINE
  5
42F
  8
0
  6
CONTINUOUS
 62
     7
 10
321.009365
 20
242.28151
 30
0.0
 11
321.17423
 21
242.635063
 31
0.0
  0
LINE
  5
430
  8
0
  6
CONTINUOUS
 62
     7
 10
321.17423
 20
241.927956
 30
0.0
 11
321.009365
 21
242.28151
 31
0.0
  0
LINE
  5
431
  8
0
  6
CONTINUOUS
 62
     7
 10
320.467123
 20
241.22085
 30
0.0
 11
321.17423
 21
241.927956
 31
0.0
  0
LINE
  5
432
  8
0
  6
CONTINUOUS
 62
     7
 10
320.11357
 20
241.385714
 30
0.0
 11
320.467123
 21
241.22085
 31
0.0
  0
LINE
  5
433
  8
0
  6
CONTINUOUS
 62
     7
 10
319.760017
 20
241.22085
 30
0.0
 11
320.11357
 21
241.385714
 31
0.0
  0
LINE
  5
434
  8
0
  6
CONTINUOUS
 62
     7
 10
319.05291
 20
241.927956
 30
0.0
 11
319.760017
 21
241.22085
 31
0.0
  0
LINE
  5
435
  8
0
  6
CONTINUOUS
 62
     7
 10
357.217774
 20
194.28151
 30
0.0
 11
356.227444
 21
194.28151
 31
0.0
  0
LINE
  5
436
  8
0
  6
CONTINUOUS
 62
     7
 10
356.699356
 20
196.827094
 30
0.0
 11
355.567986
 21
195.695723
 31
0.0
  0
LINE
  5
437
  8
0
  6
CONTINUOUS
 62
     7
 10
355.567986
 20
195.695723
 30
0.0
 11
356.227444
 21
194.28151
 31
0.0
  0
LINE
  5
438
  8
0
  6
CONTINUOUS
 62
     7
 10
356.227444
 20
194.28151
 30
0.0
 11
355.567986
 21
192.867296
 31
0.0
  0
LINE
  5
439
  8
0
  6
CONTINUOUS
 62
     7
 10
355.567986
 20
192.867296
 30
0.0
 11
356.699356
 21
191.735925
 31
0.0
  0
LINE
  5
43A
  8
0
  6
CONTINUOUS
 62
     7
 10
356.699356
 20
191.735925
 30
0.0
 11
358.11357
 21
192.395384
 31
0.0
  0
LINE
  5
43B
  8
0
  6
CONTINUOUS
 62
     7
 10
358.11357
 20
192.395384
 30
0.0
 11
359.527783
 21
191.735925
 31
0.0
  0
LINE
  5
43C
  8
0
  6
CONTINUOUS
 62
     7
 10
359.527783
 20
191.735925
 30
0.0
 11
360.659154
 21
192.867296
 31
0.0
  0
LINE
  5
43D
  8
0
  6
CONTINUOUS
 62
     7
 10
360.659154
 20
192.867296
 30
0.0
 11
359.999696
 21
194.28151
 31
0.0
  0
LINE
  5
43E
  8
0
  6
CONTINUOUS
 62
     7
 10
359.999696
 20
194.28151
 30
0.0
 11
360.659154
 21
195.695723
 31
0.0
  0
LINE
  5
43F
  8
0
  6
CONTINUOUS
 62
     7
 10
360.659154
 20
195.695723
 30
0.0
 11
359.527783
 21
196.827094
 31
0.0
  0
LINE
  5
440
  8
0
  6
CONTINUOUS
 62
     7
 10
359.527783
 20
196.827094
 30
0.0
 11
358.11357
 21
196.167636
 31
0.0
  0
LINE
  5
441
  8
0
  6
CONTINUOUS
 62
     7
 10
358.11357
 20
196.167636
 30
0.0
 11
356.699356
 21
196.827094
 31
0.0
  0
LINE
  5
442
  8
0
  6
CONTINUOUS
 62
     7
 10
358.11357
 20
193.385714
 30
0.0
 11
358.11357
 21
192.395384
 31
0.0
  0
LINE
  5
443
  8
0
  6
CONTINUOUS
 62
     7
 10
359.009365
 20
194.28151
 30
0.0
 11
359.999696
 21
194.28151
 31
0.0
  0
LINE
  5
444
  8
0
  6
CONTINUOUS
 62
     7
 10
358.11357
 20
195.177305
 30
0.0
 11
358.11357
 21
196.167636
 31
0.0
  0
LINE
  5
445
  8
0
  6
CONTINUOUS
 62
     7
 10
357.217774
 20
194.28151
 30
0.0
 11
357.05291
 21
193.927956
 31
0.0
  0
LINE
  5
446
  8
0
  6
CONTINUOUS
 62
     7
 10
357.05291
 20
194.635063
 30
0.0
 11
357.217774
 21
194.28151
 31
0.0
  0
LINE
  5
447
  8
0
  6
CONTINUOUS
 62
     7
 10
357.760017
 20
195.34217
 30
0.0
 11
357.05291
 21
194.635063
 31
0.0
  0
LINE
  5
448
  8
0
  6
CONTINUOUS
 62
     7
 10
358.11357
 20
195.177305
 30
0.0
 11
357.760017
 21
195.34217
 31
0.0
  0
LINE
  5
449
  8
0
  6
CONTINUOUS
 62
     7
 10
358.467123
 20
195.34217
 30
0.0
 11
358.11357
 21
195.177305
 31
0.0
  0
LINE
  5
44A
  8
0
  6
CONTINUOUS
 62
     7
 10
359.17423
 20
194.635063
 30
0.0
 11
358.467123
 21
195.34217
 31
0.0
  0
LINE
  5
44B
  8
0
  6
CONTINUOUS
 62
     7
 10
359.009365
 20
194.28151
 30
0.0
 11
359.17423
 21
194.635063
 31
0.0
  0
LINE
  5
44C
  8
0
  6
CONTINUOUS
 62
     7
 10
359.17423
 20
193.927956
 30
0.0
 11
359.009365
 21
194.28151
 31
0.0
  0
LINE
  5
44D
  8
0
  6
CONTINUOUS
 62
     7
 10
358.467123
 20
193.22085
 30
0.0
 11
359.17423
 21
193.927956
 31
0.0
  0
LINE
  5
44E
  8
0
  6
CONTINUOUS
 62
     7
 10
358.11357
 20
193.385714
 30
0.0
 11
358.467123
 21
193.22085
 31
0.0
  0
LINE
  5
44F
  8
0
  6
CONTINUOUS
 62
     7
 10
357.760017
 20
193.22085
 30
0.0
 11
358.11357
 21
193.385714
 31
0.0
  0
LINE
  5
450
  8
0
  6
CONTINUOUS
 62
     7
 10
357.05291
 20
193.927956
 30
0.0
 11
357.760017
 21
193.22085
 31
0.0
  0
ARC
  5
451
  8
0
  6
CONTINUOUS
 62
     7
 10
339.11357
 20
218.28151
 30
0.0
 40
7.0
 50
354.822734
 51
0.0
  0
ARC
  5
452
  8
0
  6
CONTINUOUS
 62
     7
 10
339.11357
 20
218.28151
 30
0.0
 40
7.0
 50
185.177266
 51
354.822734
  0
ARC
  5
453
  8
0
  6
CONTINUOUS
 62
     7
 10
339.11357
 20
218.28151
 30
0.0
 40
7.0
 50
180.0
 51
185.177266
  0
ARC
  5
454
  8
0
  6
CONTINUOUS
 62
     7
 10
339.11357
 20
218.28151
 30
0.0
 40
7.0
 50
0.0
 51
5.177266
  0
ARC
  5
455
  8
0
  6
CONTINUOUS
 62
     7
 10
339.11357
 20
218.28151
 30
0.0
 40
7.0
 50
5.177266
 51
174.822734
  0
ARC
  5
456
  8
0
  6
CONTINUOUS
 62
     7
 10
339.11357
 20
218.28151
 30
0.0
 40
7.0
 50
174.822734
 51
180.0
  0
ARC
  5
457
  8
0
  6
CONTINUOUS
 62
     7
 10
339.11357
 20
218.28151
 30
0.0
 40
3.0
 50
0.0
 51
180.0
  0
ARC
  5
458
  8
0
  6
CONTINUOUS
 62
     7
 10
339.11357
 20
218.28151
 30
0.0
 40
3.0
 50
180.0
 51
0.0
  0
ARC
  5
459
  8
0
  6
CONTINUOUS
 62
     7
 10
332.95157
 20
247.44734
 30
0.0
 40
4.0
 50
112.651501
 51
117.648605
  0
ARC
  5
45A
  8
0
  6
CONTINUOUS
 62
     7
 10
332.95157
 20
247.44734
 30
0.0
 40
4.0
 50
117.648605
 51
152.691197
  0
ARC
  5
45B
  8
0
  6
CONTINUOUS
 62
     7
 10
339.11357
 20
232.68151
 30
0.0
 40
20.0
 50
67.348499
 51
71.08846
  0
ARC
  5
45C
  8
0
  6
CONTINUOUS
 62
     7
 10
339.11357
 20
232.68151
 30
0.0
 40
20.0
 50
71.08846
 51
108.911066
  0
ARC
  5
45D
  8
0
  6
CONTINUOUS
 62
     7
 10
339.11357
 20
232.68151
 30
0.0
 40
20.0
 50
108.911066
 51
112.651501
  0
ARC
  5
45E
  8
0
  6
CONTINUOUS
 62
     7
 10
345.27557
 20
247.44734
 30
0.0
 40
4.0
 50
27.308803
 51
62.378968
  0
ARC
  5
45F
  8
0
  6
CONTINUOUS
 62
     7
 10
345.27557
 20
247.44734
 30
0.0
 40
4.0
 50
62.378968
 51
67.348499
  0
ARC
  5
460
  8
0
  6
CONTINUOUS
 62
     7
 10
332.95157
 20
247.44734
 30
0.0
 40
4.0
 50
112.651501
 51
117.602964
  0
ARC
  5
461
  8
0
  6
CONTINUOUS
 62
     7
 10
332.95157
 20
247.44734
 30
0.0
 40
4.0
 50
117.602964
 51
152.699158
  0
ARC
  5
462
  8
0
  6
CONTINUOUS
 62
     7
 10
339.11357
 20
232.68151
 30
0.0
 40
20.0
 50
67.348499
 51
71.088355
  0
ARC
  5
463
  8
0
  6
CONTINUOUS
 62
     7
 10
339.11357
 20
232.68151
 30
0.0
 40
20.0
 50
71.088355
 51
108.911169
  0
ARC
  5
464
  8
0
  6
CONTINUOUS
 62
     7
 10
339.11357
 20
232.68151
 30
0.0
 40
20.0
 50
108.911169
 51
112.651501
  0
ARC
  5
465
  8
0
  6
CONTINUOUS
 62
     7
 10
345.27557
 20
247.44734
 30
0.0
 40
4.0
 50
27.29916
 51
62.423603
  0
ARC
  5
466
  8
0
  6
CONTINUOUS
 62
     7
 10
345.27557
 20
247.44734
 30
0.0
 40
4.0
 50
62.423603
 51
67.348499
  0
ARC
  5
467
  8
0
  6
CONTINUOUS
 62
     7
 10
339.11357
 20
232.68151
 30
0.0
 40
20.0
 50
71.113034
 51
108.921797
  0
ARC
  5
46A
  8
0
  6
CONTINUOUS
 62
     7
 10
339.11357
 20
218.28151
 30
0.0
 40
12.0
 50
0.0
 51
180.0
  0
ARC
  5
46B
  8
0
  6
CONTINUOUS
 62
     7
 10
339.11357
 20
218.28151
 30
0.0
 40
12.0
 50
180.0
 51
0.0
  0
ARC
  5
46E
  8
0
  6
CONTINUOUS
 62
     7
 10
339.11357
 20
218.28151
 30
0.0
 40
7.0
 50
174.822762
 51
180.0
  0
ARC
  5
46F
  8
0
  6
CONTINUOUS
 62
     7
 10
339.11357
 20
218.28151
 30
0.0
 40
7.0
 50
5.177238
 51
174.822762
  0
ARC
  5
470
  8
0
  6
CONTINUOUS
 62
     7
 10
339.11357
 20
218.28151
 30
0.0
 40
7.0
 50
0.0
 51
5.177238
  0
ARC
  5
471
  8
0
  6
CONTINUOUS
 62
     7
 10
339.11357
 20
218.28151
 30
0.0
 40
7.0
 50
180.0
 51
0.0
  0
LINE
  5
474
  8
0
  6
CONTINUOUS
 62
     7
 10
313.11357
 20
232.88151
 30
0.0
 11
313.11357
 21
203.78151
 31
0.0
  0
LINE
  5
475
  8
0
  6
CONTINUOUS
 62
     7
 10
313.11357
 20
202.78151
 30
0.0
 11
313.11357
 21
194.28151
 31
0.0
  0
ARC
  5
476
  8
0
  6
CONTINUOUS
 62
     7
 10
320.11357
 20
194.28151
 30
0.0
 40
7.0
 50
180.0
 51
260.815041
  0
ARC
  5
477
  8
0
  6
CONTINUOUS
 62
     7
 10
320.11357
 20
194.28151
 30
0.0
 40
7.0
 50
260.815041
 51
270.0
  0
LINE
  5
478
  8
0
  6
CONTINUOUS
 62
     7
 10
320.11357
 20
187.28151
 30
0.0
 11
324.91357
 21
187.28151
 31
0.0
  0
LINE
  5
479
  8
0
  6
CONTINUOUS
 62
     7
 10
353.31357
 20
187.28151
 30
0.0
 11
358.11357
 21
187.28151
 31
0.0
  0
ARC
  5
47B
  8
0
  6
CONTINUOUS
 62
     7
 10
358.11357
 20
194.28151
 30
0.0
 40
7.0
 50
270.0
 51
0.0
  0
LINE
  5
47C
  8
0
  6
CONTINUOUS
 62
     7
 10
365.11357
 20
194.28151
 30
0.0
 11
365.11357
 21
202.88151
 31
0.0
  0
LINE
  5
47D
  8
0
  6
CONTINUOUS
 62
     7
 10
365.11357
 20
203.68151
 30
0.0
 11
365.11357
 21
232.78151
 31
0.0
  0
LINE
  5
47E
  8
0
  6
CONTINUOUS
 62
     7
 10
365.11357
 20
233.78151
 30
0.0
 11
365.11357
 21
242.28151
 31
0.0
  0
ARC
  5
47F
  8
0
  6
CONTINUOUS
 62
     7
 10
358.11357
 20
242.28151
 30
0.0
 40
7.0
 50
0.0
 51
80.815041
  0
ARC
  5
480
  8
0
  6
CONTINUOUS
 62
     7
 10
358.11357
 20
242.28151
 30
0.0
 40
7.0
 50
80.815041
 51
90.0
  0
LINE
  5
481
  8
0
  6
CONTINUOUS
 62
     7
 10
358.11357
 20
249.28151
 30
0.0
 11
353.31357
 21
249.28151
 31
0.0
  0
LINE
  5
482
  8
0
  6
CONTINUOUS
 62
     7
 10
324.91357
 20
249.28151
 30
0.0
 11
320.11357
 21
249.28151
 31
0.0
  0
ARC
  5
483
  8
0
  6
CONTINUOUS
 62
     7
 10
320.11357
 20
242.28151
 30
0.0
 40
7.0
 50
90.0
 51
180.0
  0
LINE
  5
484
  8
0
  6
CONTINUOUS
 62
     7
 10
313.11357
 20
242.28151
 30
0.0
 11
313.11357
 21
233.68151
 31
0.0
  0
ARC
  5
485
  8
0
  6
CONTINUOUS
 62
     7
 10
358.11357
 20
242.28151
 30
0.0
 40
7.0
 50
0.0
 51
9.184957
  0
ARC
  5
486
  8
0
  6
CONTINUOUS
 62
     7
 10
358.11357
 20
242.28151
 30
0.0
 40
7.0
 50
9.184957
 51
80.815043
  0
ARC
  5
487
  8
0
  6
CONTINUOUS
 62
     7
 10
358.11357
 20
242.28151
 30
0.0
 40
7.0
 50
80.815043
 51
90.0
  0
LINE
  5
488
  8
0
  6
CONTINUOUS
 62
     7
 10
358.11357
 20
249.28151
 30
0.0
 11
353.31357
 21
249.28151
 31
0.0
  0
LINE
  5
489
  8
0
  6
CONTINUOUS
 62
     7
 10
353.31357
 20
249.28151
 30
0.0
 11
324.91357
 21
249.28151
 31
0.0
  0
LINE
  5
48A
  8
0
  6
CONTINUOUS
 62
     7
 10
324.91357
 20
249.28151
 30
0.0
 11
320.11357
 21
249.28151
 31
0.0
  0
LINE
  5
48E
  8
0
  6
CONTINUOUS
 62
     7
 10
313.11357
 20
242.28151
 30
0.0
 11
313.11357
 21
233.68151
 31
0.0
  0
LINE
  5
48F
  8
0
  6
CONTINUOUS
 62
     7
 10
313.11357
 20
233.68151
 30
0.0
 11
313.11357
 21
232.88151
 31
0.0
  0
LINE
  5
490
  8
0
  6
CONTINUOUS
 62
     7
 10
313.11357
 20
232.88151
 30
0.0
 11
313.11357
 21
203.78151
 31
0.0
  0
LINE
  5
491
  8
0
  6
CONTINUOUS
 62
     7
 10
313.11357
 20
203.78151
 30
0.0
 11
313.11357
 21
202.78151
 31
0.0
  0
LINE
  5
492
  8
0
  6
CONTINUOUS
 62
     7
 10
313.11357
 20
202.78151
 30
0.0
 11
313.11357
 21
194.28151
 31
0.0
  0
ARC
  5
493
  8
0
  6
CONTINUOUS
 62
     7
 10
320.11357
 20
194.28151
 30
0.0
 40
7.0
 50
180.0
 51
189.184957
  0
ARC
  5
494
  8
0
  6
CONTINUOUS
 62
     7
 10
320.11357
 20
194.28151
 30
0.0
 40
7.0
 50
189.184957
 51
260.815043
  0
ARC
  5
495
  8
0
  6
CONTINUOUS
 62
     7
 10
320.11357
 20
194.28151
 30
0.0
 40
7.0
 50
260.815043
 51
270.0
  0
LINE
  5
496
  8
0
  6
CONTINUOUS
 62
     7
 10
320.11357
 20
187.28151
 30
0.0
 11
324.91357
 21
187.28151
 31
0.0
  0
LINE
  5
497
  8
0
  6
CONTINUOUS
 62
     7
 10
324.91357
 20
187.28151
 30
0.0
 11
353.31357
 21
187.28151
 31
0.0
  0
LINE
  5
498
  8
0
  6
CONTINUOUS
 62
     7
 10
353.31357
 20
187.28151
 30
0.0
 11
358.11357
 21
187.28151
 31
0.0
  0
LINE
  5
49C
  8
0
  6
CONTINUOUS
 62
     7
 10
365.11357
 20
194.28151
 30
0.0
 11
365.11357
 21
202.88151
 31
0.0
  0
LINE
  5
49D
  8
0
  6
CONTINUOUS
 62
     7
 10
365.11357
 20
202.88151
 30
0.0
 11
365.11357
 21
203.68151
 31
0.0
  0
LINE
  5
49E
  8
0
  6
CONTINUOUS
 62
     7
 10
365.11357
 20
203.68151
 30
0.0
 11
365.11357
 21
232.78151
 31
0.0
  0
LINE
  5
49F
  8
0
  6
CONTINUOUS
 62
     7
 10
365.11357
 20
232.78151
 30
0.0
 11
365.11357
 21
233.78151
 31
0.0
  0
LINE
  5
4A0
  8
0
  6
CONTINUOUS
 62
     7
 10
365.11357
 20
233.78151
 30
0.0
 11
365.11357
 21
242.28151
 31
0.0
  0
ARC
  5
4A1
  8
0
  6
CONTINUOUS
 62
     7
 10
358.11357
 20
242.28151
 30
0.0
 40
2.9
 50
339.594068
 51
30.0
  0
ARC
  5
4A2
  8
0
  6
CONTINUOUS
 62
     7
 10
361.043623
 20
243.973176
 30
0.0
 40
0.483333
 50
30.0
 51
210.0
  0
ARC
  5
4A3
  8
0
  6
CONTINUOUS
 62
     7
 10
358.11357
 20
242.28151
 30
0.0
 40
3.866667
 50
330.0
 51
30.0
  0
ARC
  5
4A4
  8
0
  6
CONTINUOUS
 62
     7
 10
361.043623
 20
240.589843
 30
0.0
 40
0.483333
 50
240.0
 51
330.0
  0
LINE
  5
4A5
  8
0
  6
CONTINUOUS
 62
     7
 10
360.801956
 20
240.171264
 30
0.0
 11
359.33696
 21
241.01708
 31
0.0
  0
ARC
  5
4A6
  8
0
  6
CONTINUOUS
 62
     7
 10
359.578627
 20
241.435659
 30
0.0
 40
0.483333
 50
60.0
 51
240.0
  0
LINE
  5
4A7
  8
0
  6
CONTINUOUS
 62
     7
 10
359.820293
 20
241.854238
 30
0.0
 11
360.831583
 21
241.270369
 31
0.0
  0
ARC
  5
4A8
  8
0
  6
CONTINUOUS
 62
     7
 10
358.11357
 20
242.28151
 30
0.0
 40
2.9
 50
99.594068
 51
125.0
  0
ARC
  5
4A9
  8
0
  6
CONTINUOUS
 62
     7
 10
356.17297
 20
245.052974
 30
0.0
 40
0.483333
 50
125.0
 51
305.0
  0
ARC
  5
4AA
  8
0
  6
CONTINUOUS
 62
     7
 10
358.11357
 20
242.28151
 30
0.0
 40
3.866667
 50
60.0
 51
125.0
  0
ARC
  5
4AB
  8
0
  6
CONTINUOUS
 62
     7
 10
359.805237
 20
245.211562
 30
0.0
 40
0.483333
 50
240.0
 51
60.0
  0
ARC
  5
4AC
  8
0
  6
CONTINUOUS
 62
     7
 10
358.11357
 20
242.28151
 30
0.0
 40
2.9
 50
60.0
 51
80.405932
  0
LINE
  5
4AD
  8
0
  6
CONTINUOUS
 62
     7
 10
358.596903
 20
245.140948
 30
0.0
 11
358.596903
 21
238.898176
 31
0.0
  0
ARC
  5
4AE
  8
0
  6
CONTINUOUS
 62
     7
 10
358.11357
 20
238.898176
 30
0.0
 40
0.483333
 50
180.0
 51
0.0
  0
LINE
  5
4AF
  8
0
  6
CONTINUOUS
 62
     7
 10
357.630237
 20
238.898176
 30
0.0
 11
357.630237
 21
245.140948
 31
0.0
  0
LINE
  5
4B0
  8
0
  6
CONTINUOUS
 62
     7
 10
355.425184
 20
244.391755
 30
0.0
 11
356.894016
 21
243.543725
 31
0.0
  0
ARC
  5
4B1
  8
0
  6
CONTINUOUS
 62
     7
 10
356.652349
 20
243.125146
 30
0.0
 40
0.483333
 50
240.0
 51
60.0
  0
LINE
  5
4B2
  8
0
  6
CONTINUOUS
 62
     7
 10
356.410682
 20
242.706567
 30
0.0
 11
355.395557
 21
243.29265
 31
0.0
  0
ARC
  5
4B3
  8
0
  6
CONTINUOUS
 62
     7
 10
358.11357
 20
242.28151
 30
0.0
 40
2.9
 50
159.594068
 51
210.0
  0
ARC
  5
4B4
  8
0
  6
CONTINUOUS
 62
     7
 10
355.183517
 20
240.589843
 30
0.0
 40
0.483333
 50
210.0
 51
30.0
  0
ARC
  5
4B5
  8
0
  6
CONTINUOUS
 62
     7
 10
358.11357
 20
242.28151
 30
0.0
 40
3.866667
 50
150.0
 51
210.0
  0
ARC
  5
4B6
  8
0
  6
CONTINUOUS
 62
     7
 10
355.183517
 20
243.973176
 30
0.0
 40
0.483333
 50
60.0
 51
150.0
  0
ARC
  5
4B7
  8
0
  6
CONTINUOUS
 62
     7
 10
320.11357
 20
242.28151
 30
0.0
 40
6.0
 50
0.0
 51
90.0
  0
ARC
  5
4B8
  8
0
  6
CONTINUOUS
 62
     7
 10
320.11357
 20
242.28151
 30
0.0
 40
6.0
 50
90.0
 51
180.0
  0
ARC
  5
4B9
  8
0
  6
CONTINUOUS
 62
     7
 10
320.11357
 20
242.28151
 30
0.0
 40
6.0
 50
180.0
 51
0.0
  0
ARC
  5
4BA
  8
0
  6
CONTINUOUS
 62
     7
 10
358.11357
 20
194.28151
 30
0.0
 40
6.0
 50
0.0
 51
180.0
  0
ARC
  5
4BB
  8
0
  6
CONTINUOUS
 62
     7
 10
358.11357
 20
194.28151
 30
0.0
 40
6.0
 50
180.0
 51
270.0
  0
ARC
  5
4BC
  8
0
  6
CONTINUOUS
 62
     7
 10
358.11357
 20
194.28151
 30
0.0
 40
6.0
 50
270.0
 51
0.0
  0
ARC
  5
4BD
  8
0
  6
CONTINUOUS
 62
     7
 10
320.11357
 20
194.28151
 30
0.0
 40
5.0
 50
180.0
 51
0.0
  0
ARC
  5
4BE
  8
0
  6
CONTINUOUS
 62
     7
 10
320.11357
 20
194.28151
 30
0.0
 40
5.0
 50
0.0
 51
180.0
  0
ARC
  5
4BF
  8
0
  6
CONTINUOUS
 62
     7
 10
358.11357
 20
242.28151
 30
0.0
 40
5.0
 50
180.0
 51
0.0
  0
ARC
  5
4C0
  8
0
  6
CONTINUOUS
 62
     7
 10
358.11357
 20
242.28151
 30
0.0
 40
5.0
 50
0.0
 51
180.0
  0
ARC
  5
4C1
  8
0
  6
CONTINUOUS
 62
     9
 10
339.11357
 20
218.28151
 30
0.0
 40
23.438389
 50
0.0
 51
180.0
  0
ARC
  5
4C2
  8
0
  6
CONTINUOUS
 62
     9
 10
339.11357
 20
218.28151
 30
0.0
 40
23.438389
 50
180.0
 51
0.0
  0
ARC
  5
4C6
  8
0
  6
CONTINUOUS
 62
     9
 10
339.11357
 20
218.28151
 30
0.0
 40
18.217302
 50
270.0
 51
90.0
  0
ARC
  5
4C7
  8
0
  6
CONTINUOUS
 62
     9
 10
339.11357
 20
218.28151
 30
0.0
 40
18.217302
 50
90.0
 51
270.0
  0
LINE
  5
4CB
  8
0
  6
CONTINUOUS
 62
     7
 10
64.643589
 20
242.28151
 30
0.0
 11
63.653258
 21
242.28151
 31
0.0
  0
LINE
  5
4CC
  8
0
  6
CONTINUOUS
 62
     7
 10
64.125171
 20
244.827094
 30
0.0
 11
62.9938
 21
243.695723
 31
0.0
  0
LINE
  5
4CD
  8
0
  6
CONTINUOUS
 62
     7
 10
62.9938
 20
243.695723
 30
0.0
 11
63.653258
 21
242.28151
 31
0.0
  0
LINE
  5
4CE
  8
0
  6
CONTINUOUS
 62
     7
 10
63.653258
 20
242.28151
 30
0.0
 11
62.9938
 21
240.867296
 31
0.0
  0
LINE
  5
4CF
  8
0
  6
CONTINUOUS
 62
     7
 10
62.9938
 20
240.867296
 30
0.0
 11
64.125171
 21
239.735925
 31
0.0
  0
LINE
  5
4D0
  8
0
  6
CONTINUOUS
 62
     7
 10
64.125171
 20
239.735925
 30
0.0
 11
65.539384
 21
240.395384
 31
0.0
  0
LINE
  5
4D1
  8
0
  6
CONTINUOUS
 62
     7
 10
65.539384
 20
240.395384
 30
0.0
 11
66.953598
 21
239.735925
 31
0.0
  0
LINE
  5
4D2
  8
0
  6
CONTINUOUS
 62
     7
 10
66.953598
 20
239.735925
 30
0.0
 11
68.084969
 21
240.867296
 31
0.0
  0
LINE
  5
4D3
  8
0
  6
CONTINUOUS
 62
     7
 10
68.084969
 20
240.867296
 30
0.0
 11
67.42551
 21
242.28151
 31
0.0
  0
LINE
  5
4D4
  8
0
  6
CONTINUOUS
 62
     7
 10
67.42551
 20
242.28151
 30
0.0
 11
68.084969
 21
243.695723
 31
0.0
  0
LINE
  5
4D5
  8
0
  6
CONTINUOUS
 62
     7
 10
68.084969
 20
243.695723
 30
0.0
 11
66.953598
 21
244.827094
 31
0.0
  0
LINE
  5
4D6
  8
0
  6
CONTINUOUS
 62
     7
 10
66.953598
 20
244.827094
 30
0.0
 11
65.539384
 21
244.167636
 31
0.0
  0
LINE
  5
4D7
  8
0
  6
CONTINUOUS
 62
     7
 10
65.539384
 20
244.167636
 30
0.0
 11
64.125171
 21
244.827094
 31
0.0
  0
LINE
  5
4D8
  8
0
  6
CONTINUOUS
 62
     7
 10
65.539384
 20
241.385714
 30
0.0
 11
65.539384
 21
240.395384
 31
0.0
  0
LINE
  5
4D9
  8
0
  6
CONTINUOUS
 62
     7
 10
66.43518
 20
242.28151
 30
0.0
 11
67.42551
 21
242.28151
 31
0.0
  0
LINE
  5
4DA
  8
0
  6
CONTINUOUS
 62
     7
 10
65.539384
 20
243.177305
 30
0.0
 11
65.539384
 21
244.167636
 31
0.0
  0
LINE
  5
4DB
  8
0
  6
CONTINUOUS
 62
     7
 10
64.643589
 20
242.28151
 30
0.0
 11
64.478724
 21
241.927956
 31
0.0
  0
LINE
  5
4DC
  8
0
  6
CONTINUOUS
 62
     7
 10
64.478724
 20
242.635063
 30
0.0
 11
64.643589
 21
242.28151
 31
0.0
  0
LINE
  5
4DD
  8
0
  6
CONTINUOUS
 62
     7
 10
65.185831
 20
243.34217
 30
0.0
 11
64.478724
 21
242.635063
 31
0.0
  0
LINE
  5
4DE
  8
0
  6
CONTINUOUS
 62
     7
 10
65.539384
 20
243.177305
 30
0.0
 11
65.185831
 21
243.34217
 31
0.0
  0
LINE
  5
4DF
  8
0
  6
CONTINUOUS
 62
     7
 10
65.892938
 20
243.34217
 30
0.0
 11
65.539384
 21
243.177305
 31
0.0
  0
LINE
  5
4E0
  8
0
  6
CONTINUOUS
 62
     7
 10
66.600044
 20
242.635063
 30
0.0
 11
65.892938
 21
243.34217
 31
0.0
  0
LINE
  5
4E1
  8
0
  6
CONTINUOUS
 62
     7
 10
66.43518
 20
242.28151
 30
0.0
 11
66.600044
 21
242.635063
 31
0.0
  0
LINE
  5
4E2
  8
0
  6
CONTINUOUS
 62
     7
 10
66.600044
 20
241.927956
 30
0.0
 11
66.43518
 21
242.28151
 31
0.0
  0
LINE
  5
4E3
  8
0
  6
CONTINUOUS
 62
     7
 10
65.892938
 20
241.22085
 30
0.0
 11
66.600044
 21
241.927956
 31
0.0
  0
LINE
  5
4E4
  8
0
  6
CONTINUOUS
 62
     7
 10
65.539384
 20
241.385714
 30
0.0
 11
65.892938
 21
241.22085
 31
0.0
  0
LINE
  5
4E5
  8
0
  6
CONTINUOUS
 62
     7
 10
65.185831
 20
241.22085
 30
0.0
 11
65.539384
 21
241.385714
 31
0.0
  0
LINE
  5
4E6
  8
0
  6
CONTINUOUS
 62
     7
 10
64.478724
 20
241.927956
 30
0.0
 11
65.185831
 21
241.22085
 31
0.0
  0
LINE
  5
4E7
  8
0
  6
CONTINUOUS
 62
     7
 10
102.643589
 20
194.28151
 30
0.0
 11
101.653258
 21
194.28151
 31
0.0
  0
LINE
  5
4E8
  8
0
  6
CONTINUOUS
 62
     7
 10
102.125171
 20
196.827094
 30
0.0
 11
100.9938
 21
195.695723
 31
0.0
  0
LINE
  5
4E9
  8
0
  6
CONTINUOUS
 62
     7
 10
100.9938
 20
195.695723
 30
0.0
 11
101.653258
 21
194.28151
 31
0.0
  0
LINE
  5
4EA
  8
0
  6
CONTINUOUS
 62
     7
 10
101.653258
 20
194.28151
 30
0.0
 11
100.9938
 21
192.867296
 31
0.0
  0
LINE
  5
4EB
  8
0
  6
CONTINUOUS
 62
     7
 10
100.9938
 20
192.867296
 30
0.0
 11
102.125171
 21
191.735925
 31
0.0
  0
LINE
  5
4EC
  8
0
  6
CONTINUOUS
 62
     7
 10
102.125171
 20
191.735925
 30
0.0
 11
103.539384
 21
192.395384
 31
0.0
  0
LINE
  5
4ED
  8
0
  6
CONTINUOUS
 62
     7
 10
103.539384
 20
192.395384
 30
0.0
 11
104.953598
 21
191.735925
 31
0.0
  0
LINE
  5
4EE
  8
0
  6
CONTINUOUS
 62
     7
 10
104.953598
 20
191.735925
 30
0.0
 11
106.084969
 21
192.867296
 31
0.0
  0
LINE
  5
4EF
  8
0
  6
CONTINUOUS
 62
     7
 10
106.084969
 20
192.867296
 30
0.0
 11
105.42551
 21
194.28151
 31
0.0
  0
LINE
  5
4F0
  8
0
  6
CONTINUOUS
 62
     7
 10
105.42551
 20
194.28151
 30
0.0
 11
106.084969
 21
195.695723
 31
0.0
  0
LINE
  5
4F1
  8
0
  6
CONTINUOUS
 62
     7
 10
106.084969
 20
195.695723
 30
0.0
 11
104.953598
 21
196.827094
 31
0.0
  0
LINE
  5
4F2
  8
0
  6
CONTINUOUS
 62
     7
 10
104.953598
 20
196.827094
 30
0.0
 11
103.539384
 21
196.167636
 31
0.0
  0
LINE
  5
4F3
  8
0
  6
CONTINUOUS
 62
     7
 10
103.539384
 20
196.167636
 30
0.0
 11
102.125171
 21
196.827094
 31
0.0
  0
LINE
  5
4F4
  8
0
  6
CONTINUOUS
 62
     7
 10
103.539384
 20
193.385714
 30
0.0
 11
103.539384
 21
192.395384
 31
0.0
  0
LINE
  5
4F5
  8
0
  6
CONTINUOUS
 62
     7
 10
104.43518
 20
194.28151
 30
0.0
 11
105.42551
 21
194.28151
 31
0.0
  0
LINE
  5
4F6
  8
0
  6
CONTINUOUS
 62
     7
 10
103.539384
 20
195.177305
 30
0.0
 11
103.539384
 21
196.167636
 31
0.0
  0
LINE
  5
4F7
  8
0
  6
CONTINUOUS
 62
     7
 10
102.643589
 20
194.28151
 30
0.0
 11
102.478724
 21
193.927956
 31
0.0
  0
LINE
  5
4F8
  8
0
  6
CONTINUOUS
 62
     7
 10
102.478724
 20
194.635063
 30
0.0
 11
102.643589
 21
194.28151
 31
0.0
  0
LINE
  5
4F9
  8
0
  6
CONTINUOUS
 62
     7
 10
103.185831
 20
195.34217
 30
0.0
 11
102.478724
 21
194.635063
 31
0.0
  0
LINE
  5
4FA
  8
0
  6
CONTINUOUS
 62
     7
 10
103.539384
 20
195.177305
 30
0.0
 11
103.185831
 21
195.34217
 31
0.0
  0
LINE
  5
4FB
  8
0
  6
CONTINUOUS
 62
     7
 10
103.892938
 20
195.34217
 30
0.0
 11
103.539384
 21
195.177305
 31
0.0
  0
LINE
  5
4FC
  8
0
  6
CONTINUOUS
 62
     7
 10
104.600044
 20
194.635063
 30
0.0
 11
103.892938
 21
195.34217
 31
0.0
  0
LINE
  5
4FD
  8
0
  6
CONTINUOUS
 62
     7
 10
104.43518
 20
194.28151
 30
0.0
 11
104.600044
 21
194.635063
 31
0.0
  0
LINE
  5
4FE
  8
0
  6
CONTINUOUS
 62
     7
 10
104.600044
 20
193.927956
 30
0.0
 11
104.43518
 21
194.28151
 31
0.0
  0
LINE
  5
4FF
  8
0
  6
CONTINUOUS
 62
     7
 10
103.892938
 20
193.22085
 30
0.0
 11
104.600044
 21
193.927956
 31
0.0
  0
LINE
  5
500
  8
0
  6
CONTINUOUS
 62
     7
 10
103.539384
 20
193.385714
 30
0.0
 11
103.892938
 21
193.22085
 31
0.0
  0
LINE
  5
501
  8
0
  6
CONTINUOUS
 62
     7
 10
103.185831
 20
193.22085
 30
0.0
 11
103.539384
 21
193.385714
 31
0.0
  0
LINE
  5
502
  8
0
  6
CONTINUOUS
 62
     7
 10
102.478724
 20
193.927956
 30
0.0
 11
103.185831
 21
193.22085
 31
0.0
  0
LINE
  5
503
  8
0
  6
CONTINUOUS
 62
     7
 10
82.339384
 20
238.857203
 30
0.0
 11
82.339384
 21
238.68155
 31
0.0
  0
LINE
  5
504
  8
0
  6
CONTINUOUS
 62
     7
 10
82.339384
 20
238.857286
 30
0.0
 11
81.539384
 21
238.857286
 31
0.0
  0
LINE
  5
505
  8
0
  6
CONTINUOUS
 62
     7
 10
87.539384
 20
238.857286
 30
0.0
 11
86.739384
 21
238.857286
 31
0.0
  0
LINE
  5
506
  8
0
  6
CONTINUOUS
 62
     7
 10
81.539384
 20
238.68155
 30
0.0
 11
81.539384
 21
238.857203
 31
0.0
  0
LINE
  5
507
  8
0
  6
CONTINUOUS
 62
     7
 10
81.539384
 20
235.705814
 30
0.0
 11
81.539384
 21
238.68155
 31
0.0
  0
LINE
  5
508
  8
0
  6
CONTINUOUS
 62
     7
 10
81.539384
 20
234.213235
 30
0.0
 11
81.539384
 21
235.705814
 31
0.0
  0
LINE
  5
509
  8
0
  6
CONTINUOUS
 62
     7
 10
87.539384
 20
233.782971
 30
0.0
 11
87.539384
 21
234.213168
 31
0.0
  0
LINE
  5
50A
  8
0
  6
CONTINUOUS
 62
     7
 10
87.539384
 20
234.213168
 30
0.0
 11
87.539384
 21
235.705814
 31
0.0
  0
LINE
  5
50B
  8
0
  6
CONTINUOUS
 62
     7
 10
87.539384
 20
235.705814
 30
0.0
 11
87.539384
 21
238.68155
 31
0.0
  0
LINE
  5
50C
  8
0
  6
CONTINUOUS
 62
     7
 10
87.539384
 20
238.68155
 30
0.0
 11
87.539384
 21
238.857203
 31
0.0
  0
LINE
  5
50D
  8
0
  6
CONTINUOUS
 62
     7
 10
86.739384
 20
238.68155
 30
0.0
 11
86.739384
 21
238.857203
 31
0.0
  0
LINE
  5
50E
  8
0
  6
CONTINUOUS
 62
     7
 10
82.339384
 20
235.705814
 30
0.0
 11
82.339384
 21
238.68155
 31
0.0
  0
LINE
  5
50F
  8
0
  6
CONTINUOUS
 62
     7
 10
86.739384
 20
235.705814
 30
0.0
 11
86.739384
 21
238.68155
 31
0.0
  0
LINE
  5
510
  8
0
  6
CONTINUOUS
 62
     7
 10
82.339384
 20
235.705814
 30
0.0
 11
82.339384
 21
234.213235
 31
0.0
  0
LINE
  5
511
  8
0
  6
CONTINUOUS
 62
     7
 10
86.739384
 20
235.705814
 30
0.0
 11
86.739384
 21
234.213235
 31
0.0
  0
LINE
  5
512
  8
0
  6
CONTINUOUS
 62
     7
 10
81.539384
 20
233.787806
 30
0.0
 11
81.539384
 21
234.213168
 31
0.0
  0
LINE
  5
513
  8
0
  6
CONTINUOUS
 62
     7
 10
90.539384
 20
241.08151
 30
0.0
 11
90.539384
 21
240.88151
 31
0.0
  0
LINE
  5
514
  8
0
  6
CONTINUOUS
 62
     7
 10
89.339384
 20
241.08151
 30
0.0
 11
90.539384
 21
241.08151
 31
0.0
  0
ARC
  5
515
  8
0
  6
CONTINUOUS
 62
     7
 10
90.701384
 20
245.88151
 30
0.0
 40
4.0
 50
275.61116
 51
0.0
  0
ARC
  5
516
  8
0
  6
CONTINUOUS
 62
     7
 10
90.701384
 20
245.88151
 30
0.0
 40
4.0
 50
270.0
 51
275.61116
  0
ARC
  5
517
  8
0
  6
CONTINUOUS
 62
     7
 10
78.377384
 20
247.44734
 30
0.0
 40
4.0
 50
174.755676
 51
180.0
  0
ARC
  5
518
  8
0
  6
CONTINUOUS
 62
     7
 10
78.377384
 20
247.44734
 30
0.0
 40
4.0
 50
112.651501
 51
174.755676
  0
LINE
  5
519
  8
0
  6
CONTINUOUS
 62
     7
 10
90.539384
 20
239.48151
 30
0.0
 11
89.032277
 21
239.48151
 31
0.0
  0
ARC
  5
51A
  8
0
  6
CONTINUOUS
 62
     7
 10
88.739384
 20
240.08151
 30
0.0
 40
0.6
 50
270.0
 51
0.0
  0
ARC
  5
51B
  8
0
  6
CONTINUOUS
 62
     7
 10
88.739384
 20
240.08151
 30
0.0
 40
0.6
 50
270.0
 51
0.0
  0
LINE
  5
51C
  8
0
  6
CONTINUOUS
 62
     7
 10
89.339384
 20
241.48151
 30
0.0
 11
89.339384
 21
240.924204
 31
0.0
  0
LINE
  5
51D
  8
0
  6
CONTINUOUS
 62
     7
 10
89.339384
 20
240.924204
 30
0.0
 11
89.339384
 21
240.08151
 31
0.0
  0
ARC
  5
51E
  8
0
  6
CONTINUOUS
 62
     7
 10
80.339384
 20
240.08151
 30
0.0
 40
0.6
 50
180.0
 51
270.0
  0
ARC
  5
51F
  8
0
  6
CONTINUOUS
 62
     7
 10
80.339384
 20
240.08151
 30
0.0
 40
0.6
 50
180.0
 51
270.0
  0
LINE
  5
520
  8
0
  6
CONTINUOUS
 62
     7
 10
79.739384
 20
241.48151
 30
0.0
 11
79.739384
 21
240.924202
 31
0.0
  0
LINE
  5
521
  8
0
  6
CONTINUOUS
 62
     7
 10
79.739384
 20
240.924202
 30
0.0
 11
79.739384
 21
240.08151
 31
0.0
  0
LINE
  5
522
  8
0
  6
CONTINUOUS
 62
     7
 10
80.339384
 20
239.48151
 30
0.0
 11
80.046491
 21
239.48151
 31
0.0
  0
LINE
  5
523
  8
0
  6
CONTINUOUS
 62
     7
 10
86.739384
 20
236.88151
 30
0.0
 11
82.339384
 21
236.88151
 31
0.0
  0
LINE
  5
524
  8
0
  6
CONTINUOUS
 62
     7
 10
89.339384
 20
241.08151
 30
0.0
 11
90.539384
 21
241.08151
 31
0.0
  0
ARC
  5
525
  8
0
  6
CONTINUOUS
 62
     7
 10
78.377384
 20
245.88151
 30
0.0
 40
4.0
 50
264.568501
 51
270.0
  0
ARC
  5
526
  8
0
  6
CONTINUOUS
 62
     7
 10
78.377384
 20
245.88151
 30
0.0
 40
4.0
 50
185.412546
 51
264.568501
  0
ARC
  5
527
  8
0
  6
CONTINUOUS
 62
     7
 10
78.377384
 20
245.88151
 30
0.0
 40
4.0
 50
180.0
 51
185.412546
  0
ARC
  5
528
  8
0
  6
CONTINUOUS
 62
     7
 10
79.339384
 20
241.48151
 30
0.0
 40
0.4
 50
0.0
 51
5.289291
  0
ARC
  5
529
  8
0
  6
CONTINUOUS
 62
     7
 10
79.339384
 20
241.48151
 30
0.0
 40
0.4
 50
12.133136
 51
17.701457
  0
LINE
  5
52A
  8
0
  6
CONTINUOUS
 62
     7
 10
78.539384
 20
240.88151
 30
0.0
 11
78.539384
 21
241.08151
 31
0.0
  0
LINE
  5
52B
  8
0
  6
CONTINUOUS
 62
     7
 10
78.539384
 20
241.08151
 30
0.0
 11
79.739384
 21
241.08151
 31
0.0
  0
LINE
  5
52C
  8
0
  6
CONTINUOUS
 62
     7
 10
90.539384
 20
240.08151
 30
0.0
 11
90.539384
 21
239.48151
 31
0.0
  0
LINE
  5
52D
  8
0
  6
CONTINUOUS
 62
     7
 10
90.539384
 20
239.48151
 30
0.0
 11
89.032277
 21
239.48151
 31
0.0
  0
LINE
  5
52E
  8
0
  6
CONTINUOUS
 62
     7
 10
89.032277
 20
239.48151
 30
0.0
 11
88.739384
 21
239.48151
 31
0.0
  0
LINE
  5
52F
  8
0
  6
CONTINUOUS
 62
     7
 10
89.339384
 20
240.08151
 30
0.0
 11
89.339384
 21
240.852041
 31
0.0
  0
LINE
  5
530
  8
0
  6
CONTINUOUS
 62
     7
 10
89.339384
 20
240.852041
 30
0.0
 11
89.339384
 21
240.998988
 31
0.0
  0
LINE
  5
531
  8
0
  6
CONTINUOUS
 62
     7
 10
89.339384
 20
240.998988
 30
0.0
 11
89.339384
 21
241.48151
 31
0.0
  0
ARC
  5
532
  8
0
  6
CONTINUOUS
 62
     7
 10
89.739384
 20
241.48151
 30
0.0
 40
0.4
 50
156.421822
 51
180.0
  0
ARC
  5
533
  8
0
  6
CONTINUOUS
 62
     7
 10
89.739384
 20
241.48151
 30
0.0
 40
0.4
 50
90.0
 51
156.421822
  0
LINE
  5
534
  8
0
  6
CONTINUOUS
 62
     7
 10
89.739384
 20
241.88151
 30
0.0
 11
90.701384
 21
241.88151
 31
0.0
  0
LINE
  5
536
  8
0
  6
CONTINUOUS
 62
     7
 10
94.701384
 20
245.88151
 30
0.0
 11
94.701384
 21
247.44734
 31
0.0
  0
ARC
  5
537
  8
0
  6
CONTINUOUS
 62
     7
 10
90.701384
 20
247.44734
 30
0.0
 40
4.0
 50
0.0
 51
67.348499
  0
ARC
  5
538
  8
0
  6
CONTINUOUS
 62
     7
 10
84.539384
 20
232.68151
 30
0.0
 40
20.0
 50
67.348499
 51
112.651501
  0
LINE
  5
53A
  8
0
  6
CONTINUOUS
 62
     7
 10
74.377384
 20
247.44734
 30
0.0
 11
74.377384
 21
245.88151
 31
0.0
  0
LINE
  5
53C
  8
0
  6
CONTINUOUS
 62
     7
 10
78.377384
 20
241.88151
 30
0.0
 11
79.339384
 21
241.88151
 31
0.0
  0
ARC
  5
53D
  8
0
  6
CONTINUOUS
 62
     7
 10
79.339384
 20
241.48151
 30
0.0
 40
0.4
 50
23.578178
 51
90.0
  0
ARC
  5
53E
  8
0
  6
CONTINUOUS
 62
     7
 10
79.339384
 20
241.48151
 30
0.0
 40
0.4
 50
0.0
 51
23.578178
  0
LINE
  5
53F
  8
0
  6
CONTINUOUS
 62
     7
 10
79.739384
 20
241.48151
 30
0.0
 11
79.739384
 21
240.998988
 31
0.0
  0
LINE
  5
540
  8
0
  6
CONTINUOUS
 62
     7
 10
79.739384
 20
240.998988
 30
0.0
 11
79.739384
 21
240.852041
 31
0.0
  0
LINE
  5
541
  8
0
  6
CONTINUOUS
 62
     7
 10
79.739384
 20
240.852041
 30
0.0
 11
79.739384
 21
240.08151
 31
0.0
  0
LINE
  5
542
  8
0
  6
CONTINUOUS
 62
     7
 10
78.539384
 20
239.48151
 30
0.0
 11
78.539384
 21
240.08151
 31
0.0
  0
LINE
  5
543
  8
0
  6
CONTINUOUS
 62
     7
 10
80.046491
 20
239.48151
 30
0.0
 11
78.539384
 21
239.48151
 31
0.0
  0
LINE
  5
544
  8
0
  6
CONTINUOUS
 62
     7
 10
90.539384
 20
240.08151
 30
0.0
 11
90.539384
 21
240.88151
 31
0.0
  0
LINE
  5
545
  8
0
  6
CONTINUOUS
 62
     7
 10
78.539384
 20
240.08151
 30
0.0
 11
78.539384
 21
240.88151
 31
0.0
  0
POLYLINE
  8
0
  5
984
  62
7
  66
     1
 10
0.000000
 20
0.000000
 30
0.000000
  70
     8
  0
VERTEX
  8
0
  5
985
 10
88.8394
 20
237.199
 30
0.000000
  70
    32
  0
VERTEX
  8
0
  5
986
 10
88.8412
 20
237.199
 30
0.000000
  70
    32
  0
VERTEX
  8
0
  5
987
 10
88.8430
 20
237.199
 30
0.000000
  70
    32
  0
VERTEX
  8
0
  5
988
 10
88.8448
 20
237.199
 30
0.000000
  70
    32
  0
VERTEX
  8
0
  5
989
 10
88.8466
 20
237.199
 30
0.000000
  70
    32
  0
VERTEX
  8
0
  5
98A
 10
88.8484
 20
237.199
 30
0.000000
  70
    32
  0
VERTEX
  8
0
  5
98B
 10
88.8502
 20
237.199
 30
0.000000
  70
    32
  0
VERTEX
  8
0
  5
98C
 10
88.8520
 20
237.199
 30
0.000000
  70
    32
  0
VERTEX
  8
0
  5
98D
 10
88.8538
 20
237.199
 30
0.000000
  70
    32
  0
VERTEX
  8
0
  5
98E
 10
88.8556
 20
237.199
 30
0.000000
  70
    32
  0
VERTEX
  8
0
  5
98F
 10
88.8574
 20
237.199
 30
0.000000
  70
    32
  0
VERTEX
  8
0
  5
990
 10
88.8592
 20
237.199
 30
0.000000
  70
    32
  0
VERTEX
  8
0
  5
991
 10
88.8610
 20
237.199
 30
0.000000
  70
    32
  0
VERTEX
  8
0
  5
992
 10
88.8628
 20
237.199
 30
0.000000
  70
    32
  0
VERTEX
  8
0
  5
993
 10
88.8646
 20
237.199
 30
0.000000
  70
    32
  0
VERTEX
  8
0
  5
994
 10
88.8665
 20
237.199
 30
0.000000
  70
    32
  0
VERTEX
  8
0
  5
995
 10
88.8683
 20
237.199
 30
0.000000
  70
    32
  0
VERTEX
  8
0
  5
996
 10
88.8701
 20
237.199
 30
0.000000
  70
    32
  0
VERTEX
  8
0
  5
997
 10
88.8719
 20
237.199
 30
0.000000
  70
    32
  0
VERTEX
  8
0
  5
998
 10
88.8737
 20
237.199
 30
0.000000
  70
    32
  0
VERTEX
  8
0
  5
999
 10
88.8755
 20
237.200
 30
0.000000
  70
    32
  0
VERTEX
  8
0
  5
99A
 10
88.8773
 20
237.200
 30
0.000000
  70
    32
  0
VERTEX
  8
0
  5
99B
 10
88.8791
 20
237.200
 30
0.000000
  70
    32
  0
VERTEX
  8
0
  5
99C
 10
88.8809
 20
237.200
 30
0.000000
  70
    32
  0
VERTEX
  8
0
  5
99D
 10
88.8827
 20
237.200
 30
0.000000
  70
    32
  0
VERTEX
  8
0
  5
99E
 10
88.8845
 20
237.200
 30
0.000000
  70
    32
  0
VERTEX
  8
0
  5
99F
 10
88.8863
 20
237.200
 30
0.000000
  70
    32
  0
VERTEX
  8
0
  5
9A0
 10
88.8881
 20
237.200
 30
0.000000
  70
    32
  0
VERTEX
  8
0
  5
9A1
 10
88.8899
 20
237.200
 30
0.000000
  70
    32
  0
VERTEX
  8
0
  5
9A2
 10
88.8917
 20
237.200
 30
0.000000
  70
    32
  0
VERTEX
  8
0
  5
9A3
 10
88.8935
 20
237.200
 30
0.000000
  70
    32
  0
VERTEX
  8
0
  5
9A4
 10
88.8953
 20
237.200
 30
0.000000
  70
    32
  0
VERTEX
  8
0
  5
9A5
 10
88.8971
 20
237.200
 30
0.000000
  70
    32
  0
VERTEX
  8
0
  5
9A6
 10
88.8989
 20
237.201
 30
0.000000
  70
    32
  0
VERTEX
  8
0
  5
9A7
 10
88.9007
 20
237.201
 30
0.000000
  70
    32
  0
VERTEX
  8
0
  5
9A8
 10
88.9025
 20
237.201
 30
0.000000
  70
    32
  0
VERTEX
  8
0
  5
9A9
 10
88.9043
 20
237.201
 30
0.000000
  70
    32
  0
VERTEX
  8
0
  5
9AA
 10
88.9061
 20
237.201
 30
0.000000
  70
    32
  0
VERTEX
  8
0
  5
9AB
 10
88.9079
 20
237.201
 30
0.000000
  70
    32
  0
VERTEX
  8
0
  5
9AC
 10
88.9097
 20
237.201
 30
0.000000
  70
    32
  0
VERTEX
  8
0
  5
9AD
 10
88.9115
 20
237.201
 30
0.000000
  70
    32
  0
VERTEX
  8
0
  5
9AE
 10
88.9133
 20
237.201
 30
0.000000
  70
    32
  0
VERTEX
  8
0
  5
9AF
 10
88.9151
 20
237.202
 30
0.000000
  70
    32
  0
VERTEX
  8
0
  5
9B0
 10
88.9169
 20
237.202
 30
0.000000
  70
    32
  0
VERTEX
  8
0
  5
9B1
 10
88.9187
 20
237.202
 30
0.000000
  70
    32
  0
VERTEX
  8
0
  5
9B2
 10
88.9205
 20
237.202
 30
0.000000
  70
    32
  0
VERTEX
  8
0
  5
9B3
 10
88.9223
 20
237.202
 30
0.000000
  70
    32
  0
VERTEX
  8
0
  5
9B4
 10
88.9241
 20
237.202
 30
0.000000
  70
    32
  0
VERTEX
  8
0
  5
9B5
 10
88.9259
 20
237.202
 30
0.000000
  70
    32
  0
VERTEX
  8
0
  5
9B6
 10
88.9277
 20
237.202
 30
0.000000
  70
    32
  0
VERTEX
  8
0
  5
9B7
 10
88.9295
 20
237.203
 30
0.000000
  70
    32
  0
VERTEX
  8
0
  5
9B8
 10
88.9313
 20
237.203
 30
0.000000
  70
    32
  0
VERTEX
  8
0
  5
9B9
 10
88.9331
 20
237.203
 30
0.000000
  70
    32
  0
VERTEX
  8
0
  5
9BA
 10
88.9349
 20
237.203
 30
0.000000
  70
    32
  0
VERTEX
  8
0
  5
9BB
 10
88.9367
 20
237.203
 30
0.000000
  70
    32
  0
VERTEX
  8
0
  5
9BC
 10
88.9385
 20
237.203
 30
0.000000
  70
    32
  0
VERTEX
  8
0
  5
9BD
 10
88.9403
 20
237.204
 30
0.000000
  70
    32
  0
VERTEX
  8
0
  5
9BE
 10
88.9421
 20
237.204
 30
0.000000
  70
    32
  0
VERTEX
  8
0
  5
9BF
 10
88.9439
 20
237.204
 30
0.000000
  70
    32
  0
VERTEX
  8
0
  5
9C0
 10
88.9457
 20
237.204
 30
0.000000
  70
    32
  0
VERTEX
  8
0
  5
9C1
 10
88.9475
 20
237.204
 30
0.000000
  70
    32
  0
VERTEX
  8
0
  5
9C2
 10
88.9493
 20
237.204
 30
0.000000
  70
    32
  0
VERTEX
  8
0
  5
9C3
 10
88.9511
 20
237.205
 30
0.000000
  70
    32
  0
VERTEX
  8
0
  5
9C4
 10
88.9529
 20
237.205
 30
0.000000
  70
    32
  0
VERTEX
  8
0
  5
9C5
 10
88.9547
 20
237.205
 30
0.000000
  70
    32
  0
VERTEX
  8
0
  5
9C6
 10
88.9565
 20
237.205
 30
0.000000
  70
    32
  0
VERTEX
  8
0
  5
9C7
 10
88.9583
 20
237.205
 30
0.000000
  70
    32
  0
VERTEX
  8
0
  5
9C8
 10
88.9601
 20
237.206
 30
0.000000
  70
    32
  0
VERTEX
  8
0
  5
9C9
 10
88.9619
 20
237.206
 30
0.000000
  70
    32
  0
VERTEX
  8
0
  5
9CA
 10
88.9637
 20
237.206
 30
0.000000
  70
    32
  0
VERTEX
  8
0
  5
9CB
 10
88.9655
 20
237.206
 30
0.000000
  70
    32
  0
VERTEX
  8
0
  5
9CC
 10
88.9673
 20
237.206
 30
0.000000
  70
    32
  0
VERTEX
  8
0
  5
9CD
 10
88.9691
 20
237.207
 30
0.000000
  70
    32
  0
VERTEX
  8
0
  5
9CE
 10
88.9709
 20
237.207
 30
0.000000
  70
    32
  0
VERTEX
  8
0
  5
9CF
 10
88.9727
 20
237.207
 30
0.000000
  70
    32
  0
VERTEX
  8
0
  5
9D0
 10
88.9744
 20
237.207
 30
0.000000
  70
    32
  0
VERTEX
  8
0
  5
9D1
 10
88.9762
 20
237.208
 30
0.000000
  70
    32
  0
VERTEX
  8
0
  5
9D2
 10
88.9780
 20
237.208
 30
0.000000
  70
    32
  0
VERTEX
  8
0
  5
9D3
 10
88.9798
 20
237.208
 30
0.000000
  70
    32
  0
VERTEX
  8
0
  5
9D4
 10
88.9816
 20
237.208
 30
0.000000
  70
    32
  0
VERTEX
  8
0
  5
9D5
 10
88.9834
 20
237.209
 30
0.000000
  70
    32
  0
VERTEX
  8
0
  5
9D6
 10
88.9852
 20
237.209
 30
0.000000
  70
    32
  0
VERTEX
  8
0
  5
9D7
 10
88.9870
 20
237.209
 30
0.000000
  70
    32
  0
VERTEX
  8
0
  5
9D8
 10
88.9888
 20
237.209
 30
0.000000
  70
    32
  0
VERTEX
  8
0
  5
9D9
 10
88.9906
 20
237.210
 30
0.000000
  70
    32
  0
VERTEX
  8
0
  5
9DA
 10
88.9923
 20
237.210
 30
0.000000
  70
    32
  0
VERTEX
  8
0
  5
9DB
 10
88.9941
 20
237.210
 30
0.000000
  70
    32
  0
VERTEX
  8
0
  5
9DC
 10
88.9959
 20
237.210
 30
0.000000
  70
    32
  0
VERTEX
  8
0
  5
9DD
 10
88.9977
 20
237.211
 30
0.000000
  70
    32
  0
VERTEX
  8
0
  5
9DE
 10
88.9995
 20
237.211
 30
0.000000
  70
    32
  0
VERTEX
  8
0
  5
9DF
 10
89.0013
 20
237.211
 30
0.000000
  70
    32
  0
VERTEX
  8
0
  5
9E0
 10
89.0031
 20
237.212
 30
0.000000
  70
    32
  0
VERTEX
  8
0
  5
9E1
 10
89.0048
 20
237.212
 30
0.000000
  70
    32
  0
VERTEX
  8
0
  5
9E2
 10
89.0066
 20
237.212
 30
0.000000
  70
    32
  0
VERTEX
  8
0
  5
9E3
 10
89.0084
 20
237.212
 30
0.000000
  70
    32
  0
VERTEX
  8
0
  5
9E4
 10
89.0102
 20
237.213
 30
0.000000
  70
    32
  0
VERTEX
  8
0
  5
9E5
 10
89.0120
 20
237.213
 30
0.000000
  70
    32
  0
VERTEX
  8
0
  5
9E6
 10
89.0137
 20
237.213
 30
0.000000
  70
    32
  0
VERTEX
  8
0
  5
9E7
 10
89.0155
 20
237.214
 30
0.000000
  70
    32
  0
VERTEX
  8
0
  5
9E8
 10
89.0173
 20
237.214
 30
0.000000
  70
    32
  0
VERTEX
  8
0
  5
9E9
 10
89.0191
 20
237.214
 30
0.000000
  70
    32
  0
VERTEX
  8
0
  5
9EA
 10
89.0209
 20
237.215
 30
0.000000
  70
    32
  0
VERTEX
  8
0
  5
9EB
 10
89.0226
 20
237.215
 30
0.000000
  70
    32
  0
VERTEX
  8
0
  5
9EC
 10
89.0244
 20
237.215
 30
0.000000
  70
    32
  0
VERTEX
  8
0
  5
9ED
 10
89.0262
 20
237.216
 30
0.000000
  70
    32
  0
VERTEX
  8
0
  5
9EE
 10
89.0279
 20
237.216
 30
0.000000
  70
    32
  0
VERTEX
  8
0
  5
9EF
 10
89.0297
 20
237.216
 30
0.000000
  70
    32
  0
VERTEX
  8
0
  5
9F0
 10
89.0315
 20
237.217
 30
0.000000
  70
    32
  0
VERTEX
  8
0
  5
9F1
 10
89.0333
 20
237.217
 30
0.000000
  70
    32
  0
VERTEX
  8
0
  5
9F2
 10
89.0350
 20
237.217
 30
0.000000
  70
    32
  0
VERTEX
  8
0
  5
9F3
 10
89.0368
 20
237.218
 30
0.000000
  70
    32
  0
VERTEX
  8
0
  5
9F4
 10
89.0386
 20
237.218
 30
0.000000
  70
    32
  0
VERTEX
  8
0
  5
9F5
 10
89.0403
 20
237.219
 30
0.000000
  70
    32
  0
VERTEX
  8
0
  5
9F6
 10
89.0421
 20
237.219
 30
0.000000
  70
    32
  0
VERTEX
  8
0
  5
9F7
 10
89.0439
 20
237.219
 30
0.000000
  70
    32
  0
VERTEX
  8
0
  5
9F8
 10
89.0456
 20
237.220
 30
0.000000
  70
    32
  0
VERTEX
  8
0
  5
9F9
 10
89.0474
 20
237.220
 30
0.000000
  70
    32
  0
VERTEX
  8
0
  5
9FA
 10
89.0491
 20
237.220
 30
0.000000
  70
    32
  0
VERTEX
  8
0
  5
9FB
 10
89.0509
 20
237.221
 30
0.000000
  70
    32
  0
VERTEX
  8
0
  5
9FC
 10
89.0527
 20
237.221
 30
0.000000
  70
    32
  0
VERTEX
  8
0
  5
9FD
 10
89.0544
 20
237.222
 30
0.000000
  70
    32
  0
VERTEX
  8
0
  5
9FE
 10
89.0562
 20
237.222
 30
0.000000
  70
    32
  0
VERTEX
  8
0
  5
9FF
 10
89.0579
 20
237.223
 30
0.000000
  70
    32
  0
VERTEX
  8
0
  5
A00
 10
89.0597
 20
237.223
 30
0.000000
  70
    32
  0
VERTEX
  8
0
  5
A01
 10
89.0614
 20
237.223
 30
0.000000
  70
    32
  0
VERTEX
  8
0
  5
A02
 10
89.0632
 20
237.224
 30
0.000000
  70
    32
  0
VERTEX
  8
0
  5
A03
 10
89.0649
 20
237.224
 30
0.000000
  70
    32
  0
VERTEX
  8
0
  5
A04
 10
89.0667
 20
237.225
 30
0.000000
  70
    32
  0
VERTEX
  8
0
  5
A05
 10
89.0684
 20
237.225
 30
0.000000
  70
    32
  0
VERTEX
  8
0
  5
A06
 10
89.0702
 20
237.226
 30
0.000000
  70
    32
  0
VERTEX
  8
0
  5
A07
 10
89.0719
 20
237.226
 30
0.000000
  70
    32
  0
VERTEX
  8
0
  5
A08
 10
89.0737
 20
237.227
 30
0.000000
  70
    32
  0
VERTEX
  8
0
  5
A09
 10
89.0754
 20
237.227
 30
0.000000
  70
    32
  0
VERTEX
  8
0
  5
A0A
 10
89.0771
 20
237.228
 30
0.000000
  70
    32
  0
VERTEX
  8
0
  5
A0B
 10
89.0789
 20
237.228
 30
0.000000
  70
    32
  0
VERTEX
  8
0
  5
A0C
 10
89.0806
 20
237.229
 30
0.000000
  70
    32
  0
VERTEX
  8
0
  5
A0D
 10
89.0824
 20
237.229
 30
0.000000
  70
    32
  0
VERTEX
  8
0
  5
A0E
 10
89.0841
 20
237.230
 30
0.000000
  70
    32
  0
VERTEX
  8
0
  5
A0F
 10
89.0858
 20
237.230
 30
0.000000
  70
    32
  0
VERTEX
  8
0
  5
A10
 10
89.0876
 20
237.231
 30
0.000000
  70
    32
  0
VERTEX
  8
0
  5
A11
 10
89.0893
 20
237.231
 30
0.000000
  70
    32
  0
VERTEX
  8
0
  5
A12
 10
89.0910
 20
237.232
 30
0.000000
  70
    32
  0
VERTEX
  8
0
  5
A13
 10
89.0927
 20
237.232
 30
0.000000
  70
    32
  0
VERTEX
  8
0
  5
A14
 10
89.0945
 20
237.233
 30
0.000000
  70
    32
  0
VERTEX
  8
0
  5
A15
 10
89.0962
 20
237.233
 30
0.000000
  70
    32
  0
VERTEX
  8
0
  5
A16
 10
89.0979
 20
237.234
 30
0.000000
  70
    32
  0
VERTEX
  8
0
  5
A17
 10
89.0996
 20
237.234
 30
0.000000
  70
    32
  0
VERTEX
  8
0
  5
A18
 10
89.1013
 20
237.235
 30
0.000000
  70
    32
  0
VERTEX
  8
0
  5
A19
 10
89.1031
 20
237.235
 30
0.000000
  70
    32
  0
VERTEX
  8
0
  5
A1A
 10
89.1048
 20
237.236
 30
0.000000
  70
    32
  0
VERTEX
  8
0
  5
A1B
 10
89.1065
 20
237.237
 30
0.000000
  70
    32
  0
VERTEX
  8
0
  5
A1C
 10
89.1082
 20
237.237
 30
0.000000
  70
    32
  0
VERTEX
  8
0
  5
A1D
 10
89.1099
 20
237.238
 30
0.000000
  70
    32
  0
VERTEX
  8
0
  5
A1E
 10
89.1116
 20
237.238
 30
0.000000
  70
    32
  0
VERTEX
  8
0
  5
A1F
 10
89.1133
 20
237.239
 30
0.000000
  70
    32
  0
VERTEX
  8
0
  5
A20
 10
89.1150
 20
237.240
 30
0.000000
  70
    32
  0
VERTEX
  8
0
  5
A21
 10
89.1167
 20
237.240
 30
0.000000
  70
    32
  0
VERTEX
  8
0
  5
A22
 10
89.1184
 20
237.241
 30
0.000000
  70
    32
  0
VERTEX
  8
0
  5
A23
 10
89.1201
 20
237.241
 30
0.000000
  70
    32
  0
VERTEX
  8
0
  5
A24
 10
89.1218
 20
237.242
 30
0.000000
  70
    32
  0
VERTEX
  8
0
  5
A25
 10
89.1235
 20
237.243
 30
0.000000
  70
    32
  0
VERTEX
  8
0
  5
A26
 10
89.1251
 20
237.243
 30
0.000000
  70
    32
  0
VERTEX
  8
0
  5
A27
 10
89.1268
 20
237.244
 30
0.000000
  70
    32
  0
VERTEX
  8
0
  5
A28
 10
89.1285
 20
237.245
 30
0.000000
  70
    32
  0
VERTEX
  8
0
  5
A29
 10
89.1302
 20
237.245
 30
0.000000
  70
    32
  0
VERTEX
  8
0
  5
A2A
 10
89.1318
 20
237.246
 30
0.000000
  70
    32
  0
VERTEX
  8
0
  5
A2B
 10
89.1335
 20
237.247
 30
0.000000
  70
    32
  0
VERTEX
  8
0
  5
A2C
 10
89.1352
 20
237.247
 30
0.000000
  70
    32
  0
VERTEX
  8
0
  5
A2D
 10
89.1368
 20
237.248
 30
0.000000
  70
    32
  0
VERTEX
  8
0
  5
A2E
 10
89.1385
 20
237.249
 30
0.000000
  70
    32
  0
VERTEX
  8
0
  5
A2F
 10
89.1402
 20
237.250
 30
0.000000
  70
    32
  0
VERTEX
  8
0
  5
A30
 10
89.1418
 20
237.250
 30
0.000000
  70
    32
  0
VERTEX
  8
0
  5
A31
 10
89.1435
 20
237.251
 30
0.000000
  70
    32
  0
VERTEX
  8
0
  5
A32
 10
89.1451
 20
237.252
 30
0.000000
  70
    32
  0
VERTEX
  8
0
  5
A33
 10
89.1468
 20
237.253
 30
0.000000
  70
    32
  0
VERTEX
  8
0
  5
A34
 10
89.1484
 20
237.253
 30
0.000000
  70
    32
  0
VERTEX
  8
0
  5
A35
 10
89.1501
 20
237.254
 30
0.000000
  70
    32
  0
VERTEX
  8
0
  5
A36
 10
89.1517
 20
237.255
 30
0.000000
  70
    32
  0
VERTEX
  8
0
  5
A37
 10
89.1533
 20
237.256
 30
0.000000
  70
    32
  0
VERTEX
  8
0
  5
A38
 10
89.1550
 20
237.256
 30
0.000000
  70
    32
  0
VERTEX
  8
0
  5
A39
 10
89.1566
 20
237.257
 30
0.000000
  70
    32
  0
VERTEX
  8
0
  5
A3A
 10
89.1582
 20
237.258
 30
0.000000
  70
    32
  0
VERTEX
  8
0
  5
A3B
 10
89.1598
 20
237.259
 30
0.000000
  70
    32
  0
VERTEX
  8
0
  5
A3C
 10
89.1614
 20
237.260
 30
0.000000
  70
    32
  0
VERTEX
  8
0
  5
A3D
 10
89.1630
 20
237.261
 30
0.000000
  70
    32
  0
VERTEX
  8
0
  5
A3E
 10
89.1647
 20
237.261
 30
0.000000
  70
    32
  0
VERTEX
  8
0
  5
A3F
 10
89.1663
 20
237.262
 30
0.000000
  70
    32
  0
VERTEX
  8
0
  5
A40
 10
89.1679
 20
237.263
 30
0.000000
  70
    32
  0
VERTEX
  8
0
  5
A41
 10
89.1695
 20
237.264
 30
0.000000
  70
    32
  0
VERTEX
  8
0
  5
A42
 10
89.1710
 20
237.265
 30
0.000000
  70
    32
  0
VERTEX
  8
0
  5
A43
 10
89.1726
 20
237.266
 30
0.000000
  70
    32
  0
VERTEX
  8
0
  5
A44
 10
89.1742
 20
237.267
 30
0.000000
  70
    32
  0
VERTEX
  8
0
  5
A45
 10
89.1758
 20
237.268
 30
0.000000
  70
    32
  0
VERTEX
  8
0
  5
A46
 10
89.1773
 20
237.269
 30
0.000000
  70
    32
  0
VERTEX
  8
0
  5
A47
 10
89.1789
 20
237.270
 30
0.000000
  70
    32
  0
VERTEX
  8
0
  5
A48
 10
89.1804
 20
237.271
 30
0.000000
  70
    32
  0
VERTEX
  8
0
  5
A49
 10
89.1820
 20
237.272
 30
0.000000
  70
    32
  0
VERTEX
  8
0
  5
A4A
 10
89.1835
 20
237.272
 30
0.000000
  70
    32
  0
VERTEX
  8
0
  5
A4B
 10
89.1850
 20
237.273
 30
0.000000
  70
    32
  0
VERTEX
  8
0
  5
A4C
 10
89.1865
 20
237.275
 30
0.000000
  70
    32
  0
VERTEX
  8
0
  5
A4D
 10
89.1880
 20
237.276
 30
0.000000
  70
    32
  0
VERTEX
  8
0
  5
A4E
 10
89.1895
 20
237.277
 30
0.000000
  70
    32
  0
VERTEX
  8
0
  5
A4F
 10
89.1910
 20
237.278
 30
0.000000
  70
    32
  0
VERTEX
  8
0
  5
A50
 10
89.1925
 20
237.279
 30
0.000000
  70
    32
  0
VERTEX
  8
0
  5
A51
 10
89.1939
 20
237.280
 30
0.000000
  70
    32
  0
VERTEX
  8
0
  5
A52
 10
89.1954
 20
237.281
 30
0.000000
  70
    32
  0
VERTEX
  8
0
  5
A53
 10
89.1968
 20
237.282
 30
0.000000
  70
    32
  0
VERTEX
  8
0
  5
A54
 10
89.1982
 20
237.283
 30
0.000000
  70
    32
  0
VERTEX
  8
0
  5
A55
 10
89.1996
 20
237.284
 30
0.000000
  70
    32
  0
VERTEX
  8
0
  5
A56
 10
89.2010
 20
237.285
 30
0.000000
  70
    32
  0
VERTEX
  8
0
  5
A57
 10
89.2024
 20
237.287
 30
0.000000
  70
    32
  0
VERTEX
  8
0
  5
A58
 10
89.2037
 20
237.288
 30
0.000000
  70
    32
  0
VERTEX
  8
0
  5
A59
 10
89.2051
 20
237.289
 30
0.000000
  70
    32
  0
VERTEX
  8
0
  5
A5A
 10
89.2064
 20
237.290
 30
0.000000
  70
    32
  0
VERTEX
  8
0
  5
A5B
 10
89.2077
 20
237.292
 30
0.000000
  70
    32
  0
VERTEX
  8
0
  5
A5C
 10
89.2090
 20
237.293
 30
0.000000
  70
    32
  0
VERTEX
  8
0
  5
A5D
 10
89.2103
 20
237.294
 30
0.000000
  70
    32
  0
VERTEX
  8
0
  5
A5E
 10
89.2115
 20
237.295
 30
0.000000
  70
    32
  0
VERTEX
  8
0
  5
A5F
 10
89.2128
 20
237.297
 30
0.000000
  70
    32
  0
VERTEX
  8
0
  5
A60
 10
89.2140
 20
237.298
 30
0.000000
  70
    32
  0
VERTEX
  8
0
  5
A61
 10
89.2152
 20
237.299
 30
0.000000
  70
    32
  0
VERTEX
  8
0
  5
A62
 10
89.2164
 20
237.301
 30
0.000000
  70
    32
  0
VERTEX
  8
0
  5
A63
 10
89.2175
 20
237.302
 30
0.000000
  70
    32
  0
VERTEX
  8
0
  5
A64
 10
89.2187
 20
237.304
 30
0.000000
  70
    32
  0
VERTEX
  8
0
  5
A65
 10
89.2198
 20
237.305
 30
0.000000
  70
    32
  0
VERTEX
  8
0
  5
A66
 10
89.2209
 20
237.307
 30
0.000000
  70
    32
  0
VERTEX
  8
0
  5
A67
 10
89.2220
 20
237.308
 30
0.000000
  70
    32
  0
VERTEX
  8
0
  5
A68
 10
89.2230
 20
237.310
 30
0.000000
  70
    32
  0
VERTEX
  8
0
  5
A69
 10
89.2241
 20
237.311
 30
0.000000
  70
    32
  0
VERTEX
  8
0
  5
A6A
 10
89.2251
 20
237.313
 30
0.000000
  70
    32
  0
VERTEX
  8
0
  5
A6B
 10
89.2260
 20
237.314
 30
0.000000
  70
    32
  0
VERTEX
  8
0
  5
A6C
 10
89.2270
 20
237.316
 30
0.000000
  70
    32
  0
VERTEX
  8
0
  5
A6D
 10
89.2279
 20
237.318
 30
0.000000
  70
    32
  0
VERTEX
  8
0
  5
A6E
 10
89.2288
 20
237.319
 30
0.000000
  70
    32
  0
VERTEX
  8
0
  5
A6F
 10
89.2297
 20
237.321
 30
0.000000
  70
    32
  0
VERTEX
  8
0
  5
A70
 10
89.2305
 20
237.322
 30
0.000000
  70
    32
  0
VERTEX
  8
0
  5
A71
 10
89.2313
 20
237.324
 30
0.000000
  70
    32
  0
VERTEX
  8
0
  5
A72
 10
89.2321
 20
237.326
 30
0.000000
  70
    32
  0
VERTEX
  8
0
  5
A73
 10
89.2328
 20
237.328
 30
0.000000
  70
    32
  0
VERTEX
  8
0
  5
A74
 10
89.2336
 20
237.329
 30
0.000000
  70
    32
  0
VERTEX
  8
0
  5
A75
 10
89.2342
 20
237.331
 30
0.000000
  70
    32
  0
VERTEX
  8
0
  5
A76
 10
89.2349
 20
237.333
 30
0.000000
  70
    32
  0
VERTEX
  8
0
  5
A77
 10
89.2355
 20
237.334
 30
0.000000
  70
    32
  0
VERTEX
  8
0
  5
A78
 10
89.2360
 20
237.336
 30
0.000000
  70
    32
  0
VERTEX
  8
0
  5
A79
 10
89.2365
 20
237.338
 30
0.000000
  70
    32
  0
VERTEX
  8
0
  5
A7A
 10
89.2370
 20
237.340
 30
0.000000
  70
    32
  0
VERTEX
  8
0
  5
A7B
 10
89.2374
 20
237.341
 30
0.000000
  70
    32
  0
VERTEX
  8
0
  5
A7C
 10
89.2378
 20
237.343
 30
0.000000
  70
    32
  0
VERTEX
  8
0
  5
A7D
 10
89.2382
 20
237.345
 30
0.000000
  70
    32
  0
VERTEX
  8
0
  5
A7E
 10
89.2385
 20
237.347
 30
0.000000
  70
    32
  0
VERTEX
  8
0
  5
A7F
 10
89.2388
 20
237.349
 30
0.000000
  70
    32
  0
VERTEX
  8
0
  5
A80
 10
89.2390
 20
237.350
 30
0.000000
  70
    32
  0
VERTEX
  8
0
  5
A81
 10
89.2392
 20
237.352
 30
0.000000
  70
    32
  0
VERTEX
  8
0
  5
A82
 10
89.2393
 20
237.354
 30
0.000000
  70
    32
  0
VERTEX
  8
0
  5
A83
 10
89.2394
 20
237.356
 30
0.000000
  70
    32
  0
VERTEX
  8
0
  5
A84
 10
89.2394
 20
237.358
 30
0.000000
  70
    32
  0
SEQEND
  8
0
  5
A85
  0
POLYLINE
  8
0
  5
A86
  62
7
  66
     1
 10
0.000000
 20
0.000000
 30
0.000000
  70
     8
  0
VERTEX
  8
0
  5
A87
 10
79.8394
 20
237.358
 30
0.000000
  70
    32
  0
VERTEX
  8
0
  5
A88
 10
79.8394
 20
237.356
 30
0.000000
  70
    32
  0
VERTEX
  8
0
  5
A89
 10
79.8395
 20
237.354
 30
0.000000
  70
    32
  0
VERTEX
  8
0
  5
A8A
 10
79.8396
 20
237.352
 30
0.000000
  70
    32
  0
VERTEX
  8
0
  5
A8B
 10
79.8398
 20
237.350
 30
0.000000
  70
    32
  0
VERTEX
  8
0
  5
A8C
 10
79.8400
 20
237.349
 30
0.000000
  70
    32
  0
VERTEX
  8
0
  5
A8D
 10
79.8403
 20
237.347
 30
0.000000
  70
    32
  0
VERTEX
  8
0
  5
A8E
 10
79.8406
 20
237.345
 30
0.000000
  70
    32
  0
VERTEX
  8
0
  5
A8F
 10
79.8409
 20
237.343
 30
0.000000
  70
    32
  0
VERTEX
  8
0
  5
A90
 10
79.8413
 20
237.341
 30
0.000000
  70
    32
  0
VERTEX
  8
0
  5
A91
 10
79.8418
 20
237.340
 30
0.000000
  70
    32
  0
VERTEX
  8
0
  5
A92
 10
79.8422
 20
237.338
 30
0.000000
  70
    32
  0
VERTEX
  8
0
  5
A93
 10
79.8428
 20
237.336
 30
0.000000
  70
    32
  0
VERTEX
  8
0
  5
A94
 10
79.8433
 20
237.334
 30
0.000000
  70
    32
  0
VERTEX
  8
0
  5
A95
 10
79.8439
 20
237.333
 30
0.000000
  70
    32
  0
VERTEX
  8
0
  5
A96
 10
79.8445
 20
237.331
 30
0.000000
  70
    32
  0
VERTEX
  8
0
  5
A97
 10
79.8452
 20
237.329
 30
0.000000
  70
    32
  0
VERTEX
  8
0
  5
A98
 10
79.8459
 20
237.328
 30
0.000000
  70
    32
  0
VERTEX
  8
0
  5
A99
 10
79.8467
 20
237.326
 30
0.000000
  70
    32
  0
VERTEX
  8
0
  5
A9A
 10
79.8474
 20
237.324
 30
0.000000
  70
    32
  0
VERTEX
  8
0
  5
A9B
 10
79.8482
 20
237.322
 30
0.000000
  70
    32
  0
VERTEX
  8
0
  5
A9C
 10
79.8491
 20
237.321
 30
0.000000
  70
    32
  0
VERTEX
  8
0
  5
A9D
 10
79.8499
 20
237.319
 30
0.000000
  70
    32
  0
VERTEX
  8
0
  5
A9E
 10
79.8508
 20
237.318
 30
0.000000
  70
    32
  0
VERTEX
  8
0
  5
A9F
 10
79.8518
 20
237.316
 30
0.000000
  70
    32
  0
VERTEX
  8
0
  5
AA0
 10
79.8527
 20
237.314
 30
0.000000
  70
    32
  0
VERTEX
  8
0
  5
AA1
 10
79.8537
 20
237.313
 30
0.000000
  70
    32
  0
VERTEX
  8
0
  5
AA2
 10
79.8547
 20
237.311
 30
0.000000
  70
    32
  0
VERTEX
  8
0
  5
AA3
 10
79.8557
 20
237.310
 30
0.000000
  70
    32
  0
VERTEX
  8
0
  5
AA4
 10
79.8568
 20
237.308
 30
0.000000
  70
    32
  0
VERTEX
  8
0
  5
AA5
 10
79.8579
 20
237.307
 30
0.000000
  70
    32
  0
VERTEX
  8
0
  5
AA6
 10
79.8590
 20
237.305
 30
0.000000
  70
    32
  0
VERTEX
  8
0
  5
AA7
 10
79.8601
 20
237.304
 30
0.000000
  70
    32
  0
VERTEX
  8
0
  5
AA8
 10
79.8612
 20
237.302
 30
0.000000
  70
    32
  0
VERTEX
  8
0
  5
AA9
 10
79.8624
 20
237.301
 30
0.000000
  70
    32
  0
VERTEX
  8
0
  5
AAA
 10
79.8636
 20
237.299
 30
0.000000
  70
    32
  0
VERTEX
  8
0
  5
AAB
 10
79.8648
 20
237.298
 30
0.000000
  70
    32
  0
VERTEX
  8
0
  5
AAC
 10
79.8660
 20
237.297
 30
0.000000
  70
    32
  0
VERTEX
  8
0
  5
AAD
 10
79.8672
 20
237.295
 30
0.000000
  70
    32
  0
VERTEX
  8
0
  5
AAE
 10
79.8685
 20
237.294
 30
0.000000
  70
    32
  0
VERTEX
  8
0
  5
AAF
 10
79.8698
 20
237.293
 30
0.000000
  70
    32
  0
VERTEX
  8
0
  5
AB0
 10
79.8711
 20
237.292
 30
0.000000
  70
    32
  0
VERTEX
  8
0
  5
AB1
 10
79.8724
 20
237.290
 30
0.000000
  70
    32
  0
VERTEX
  8
0
  5
AB2
 10
79.8737
 20
237.289
 30
0.000000
  70
    32
  0
VERTEX
  8
0
  5
AB3
 10
79.8751
 20
237.288
 30
0.000000
  70
    32
  0
VERTEX
  8
0
  5
AB4
 10
79.8764
 20
237.287
 30
0.000000
  70
    32
  0
VERTEX
  8
0
  5
AB5
 10
79.8778
 20
237.285
 30
0.000000
  70
    32
  0
VERTEX
  8
0
  5
AB6
 10
79.8792
 20
237.284
 30
0.000000
  70
    32
  0
VERTEX
  8
0
  5
AB7
 10
79.8806
 20
237.283
 30
0.000000
  70
    32
  0
VERTEX
  8
0
  5
AB8
 10
79.8820
 20
237.282
 30
0.000000
  70
    32
  0
VERTEX
  8
0
  5
AB9
 10
79.8834
 20
237.281
 30
0.000000
  70
    32
  0
VERTEX
  8
0
  5
ABA
 10
79.8849
 20
237.280
 30
0.000000
  70
    32
  0
VERTEX
  8
0
  5
ABB
 10
79.8863
 20
237.279
 30
0.000000
  70
    32
  0
VERTEX
  8
0
  5
ABC
 10
79.8878
 20
237.278
 30
0.000000
  70
    32
  0
VERTEX
  8
0
  5
ABD
 10
79.8893
 20
237.277
 30
0.000000
  70
    32
  0
VERTEX
  8
0
  5
ABE
 10
79.8907
 20
237.276
 30
0.000000
  70
    32
  0
VERTEX
  8
0
  5
ABF
 10
79.8922
 20
237.275
 30
0.000000
  70
    32
  0
VERTEX
  8
0
  5
AC0
 10
79.8938
 20
237.273
 30
0.000000
  70
    32
  0
VERTEX
  8
0
  5
AC1
 10
79.8953
 20
237.272
 30
0.000000
  70
    32
  0
VERTEX
  8
0
  5
AC2
 10
79.8968
 20
237.272
 30
0.000000
  70
    32
  0
VERTEX
  8
0
  5
AC3
 10
79.8983
 20
237.271
 30
0.000000
  70
    32
  0
VERTEX
  8
0
  5
AC4
 10
79.8999
 20
237.270
 30
0.000000
  70
    32
  0
VERTEX
  8
0
  5
AC5
 10
79.9014
 20
237.269
 30
0.000000
  70
    32
  0
VERTEX
  8
0
  5
AC6
 10
79.9030
 20
237.268
 30
0.000000
  70
    32
  0
VERTEX
  8
0
  5
AC7
 10
79.9046
 20
237.267
 30
0.000000
  70
    32
  0
VERTEX
  8
0
  5
AC8
 10
79.9061
 20
237.266
 30
0.000000
  70
    32
  0
VERTEX
  8
0
  5
AC9
 10
79.9077
 20
237.265
 30
0.000000
  70
    32
  0
VERTEX
  8
0
  5
ACA
 10
79.9093
 20
237.264
 30
0.000000
  70
    32
  0
VERTEX
  8
0
  5
ACB
 10
79.9109
 20
237.263
 30
0.000000
  70
    32
  0
VERTEX
  8
0
  5
ACC
 10
79.9125
 20
237.262
 30
0.000000
  70
    32
  0
VERTEX
  8
0
  5
ACD
 10
79.9141
 20
237.261
 30
0.000000
  70
    32
  0
VERTEX
  8
0
  5
ACE
 10
79.9157
 20
237.261
 30
0.000000
  70
    32
  0
VERTEX
  8
0
  5
ACF
 10
79.9173
 20
237.260
 30
0.000000
  70
    32
  0
VERTEX
  8
0
  5
AD0
 10
79.9189
 20
237.259
 30
0.000000
  70
    32
  0
VERTEX
  8
0
  5
AD1
 10
79.9206
 20
237.258
 30
0.000000
  70
    32
  0
VERTEX
  8
0
  5
AD2
 10
79.9222
 20
237.257
 30
0.000000
  70
    32
  0
VERTEX
  8
0
  5
AD3
 10
79.9238
 20
237.256
 30
0.000000
  70
    32
  0
VERTEX
  8
0
  5
AD4
 10
79.9254
 20
237.256
 30
0.000000
  70
    32
  0
VERTEX
  8
0
  5
AD5
 10
79.9271
 20
237.255
 30
0.000000
  70
    32
  0
VERTEX
  8
0
  5
AD6
 10
79.9287
 20
237.254
 30
0.000000
  70
    32
  0
VERTEX
  8
0
  5
AD7
 10
79.9304
 20
237.253
 30
0.000000
  70
    32
  0
VERTEX
  8
0
  5
AD8
 10
79.9320
 20
237.253
 30
0.000000
  70
    32
  0
VERTEX
  8
0
  5
AD9
 10
79.9336
 20
237.252
 30
0.000000
  70
    32
  0
VERTEX
  8
0
  5
ADA
 10
79.9353
 20
237.251
 30
0.000000
  70
    32
  0
VERTEX
  8
0
  5
ADB
 10
79.9369
 20
237.250
 30
0.000000
  70
    32
  0
VERTEX
  8
0
  5
ADC
 10
79.9386
 20
237.250
 30
0.000000
  70
    32
  0
VERTEX
  8
0
  5
ADD
 10
79.9403
 20
237.249
 30
0.000000
  70
    32
  0
VERTEX
  8
0
  5
ADE
 10
79.9419
 20
237.248
 30
0.000000
  70
    32
  0
VERTEX
  8
0
  5
ADF
 10
79.9436
 20
237.247
 30
0.000000
  70
    32
  0
VERTEX
  8
0
  5
AE0
 10
79.9453
 20
237.247
 30
0.000000
  70
    32
  0
VERTEX
  8
0
  5
AE1
 10
79.9469
 20
237.246
 30
0.000000
  70
    32
  0
VERTEX
  8
0
  5
AE2
 10
79.9486
 20
237.245
 30
0.000000
  70
    32
  0
VERTEX
  8
0
  5
AE3
 10
79.9503
 20
237.245
 30
0.000000
  70
    32
  0
VERTEX
  8
0
  5
AE4
 10
79.9520
 20
237.244
 30
0.000000
  70
    32
  0
VERTEX
  8
0
  5
AE5
 10
79.9536
 20
237.243
 30
0.000000
  70
    32
  0
VERTEX
  8
0
  5
AE6
 10
79.9553
 20
237.243
 30
0.000000
  70
    32
  0
VERTEX
  8
0
  5
AE7
 10
79.9570
 20
237.242
 30
0.000000
  70
    32
  0
VERTEX
  8
0
  5
AE8
 10
79.9587
 20
237.241
 30
0.000000
  70
    32
  0
VERTEX
  8
0
  5
AE9
 10
79.9604
 20
237.241
 30
0.000000
  70
    32
  0
VERTEX
  8
0
  5
AEA
 10
79.9621
 20
237.240
 30
0.000000
  70
    32
  0
VERTEX
  8
0
  5
AEB
 10
79.9638
 20
237.240
 30
0.000000
  70
    32
  0
VERTEX
  8
0
  5
AEC
 10
79.9655
 20
237.239
 30
0.000000
  70
    32
  0
VERTEX
  8
0
  5
AED
 10
79.9672
 20
237.238
 30
0.000000
  70
    32
  0
VERTEX
  8
0
  5
AEE
 10
79.9689
 20
237.238
 30
0.000000
  70
    32
  0
VERTEX
  8
0
  5
AEF
 10
79.9706
 20
237.237
 30
0.000000
  70
    32
  0
VERTEX
  8
0
  5
AF0
 10
79.9723
 20
237.237
 30
0.000000
  70
    32
  0
VERTEX
  8
0
  5
AF1
 10
79.9740
 20
237.236
 30
0.000000
  70
    32
  0
VERTEX
  8
0
  5
AF2
 10
79.9757
 20
237.235
 30
0.000000
  70
    32
  0
VERTEX
  8
0
  5
AF3
 10
79.9774
 20
237.235
 30
0.000000
  70
    32
  0
VERTEX
  8
0
  5
AF4
 10
79.9791
 20
237.234
 30
0.000000
  70
    32
  0
VERTEX
  8
0
  5
AF5
 10
79.9809
 20
237.234
 30
0.000000
  70
    32
  0
VERTEX
  8
0
  5
AF6
 10
79.9826
 20
237.233
 30
0.000000
  70
    32
  0
VERTEX
  8
0
  5
AF7
 10
79.9843
 20
237.233
 30
0.000000
  70
    32
  0
VERTEX
  8
0
  5
AF8
 10
79.9860
 20
237.232
 30
0.000000
  70
    32
  0
VERTEX
  8
0
  5
AF9
 10
79.9878
 20
237.232
 30
0.000000
  70
    32
  0
VERTEX
  8
0
  5
AFA
 10
79.9895
 20
237.231
 30
0.000000
  70
    32
  0
VERTEX
  8
0
  5
AFB
 10
79.9912
 20
237.231
 30
0.000000
  70
    32
  0
VERTEX
  8
0
  5
AFC
 10
79.9929
 20
237.230
 30
0.000000
  70
    32
  0
VERTEX
  8
0
  5
AFD
 10
79.9947
 20
237.230
 30
0.000000
  70
    32
  0
VERTEX
  8
0
  5
AFE
 10
79.9964
 20
237.229
 30
0.000000
  70
    32
  0
VERTEX
  8
0
  5
AFF
 10
79.9982
 20
237.229
 30
0.000000
  70
    32
  0
VERTEX
  8
0
  5
B00
 10
79.9999
 20
237.228
 30
0.000000
  70
    32
  0
VERTEX
  8
0
  5
B01
 10
80.0016
 20
237.228
 30
0.000000
  70
    32
  0
VERTEX
  8
0
  5
B02
 10
80.0034
 20
237.227
 30
0.000000
  70
    32
  0
VERTEX
  8
0
  5
B03
 10
80.0051
 20
237.227
 30
0.000000
  70
    32
  0
VERTEX
  8
0
  5
B04
 10
80.0069
 20
237.226
 30
0.000000
  70
    32
  0
VERTEX
  8
0
  5
B05
 10
80.0086
 20
237.226
 30
0.000000
  70
    32
  0
VERTEX
  8
0
  5
B06
 10
80.0103
 20
237.225
 30
0.000000
  70
    32
  0
VERTEX
  8
0
  5
B07
 10
80.0121
 20
237.225
 30
0.000000
  70
    32
  0
VERTEX
  8
0
  5
B08
 10
80.0138
 20
237.224
 30
0.000000
  70
    32
  0
VERTEX
  8
0
  5
B09
 10
80.0156
 20
237.224
 30
0.000000
  70
    32
  0
VERTEX
  8
0
  5
B0A
 10
80.0173
 20
237.223
 30
0.000000
  70
    32
  0
VERTEX
  8
0
  5
B0B
 10
80.0191
 20
237.223
 30
0.000000
  70
    32
  0
VERTEX
  8
0
  5
B0C
 10
80.0208
 20
237.223
 30
0.000000
  70
    32
  0
VERTEX
  8
0
  5
B0D
 10
80.0226
 20
237.222
 30
0.000000
  70
    32
  0
VERTEX
  8
0
  5
B0E
 10
80.0244
 20
237.222
 30
0.000000
  70
    32
  0
VERTEX
  8
0
  5
B0F
 10
80.0261
 20
237.221
 30
0.000000
  70
    32
  0
VERTEX
  8
0
  5
B10
 10
80.0279
 20
237.221
 30
0.000000
  70
    32
  0
VERTEX
  8
0
  5
B11
 10
80.0296
 20
237.220
 30
0.000000
  70
    32
  0
VERTEX
  8
0
  5
B12
 10
80.0314
 20
237.220
 30
0.000000
  70
    32
  0
VERTEX
  8
0
  5
B13
 10
80.0332
 20
237.220
 30
0.000000
  70
    32
  0
VERTEX
  8
0
  5
B14
 10
80.0349
 20
237.219
 30
0.000000
  70
    32
  0
VERTEX
  8
0
  5
B15
 10
80.0367
 20
237.219
 30
0.000000
  70
    32
  0
VERTEX
  8
0
  5
B16
 10
80.0384
 20
237.219
 30
0.000000
  70
    32
  0
VERTEX
  8
0
  5
B17
 10
80.0402
 20
237.218
 30
0.000000
  70
    32
  0
VERTEX
  8
0
  5
B18
 10
80.0420
 20
237.218
 30
0.000000
  70
    32
  0
VERTEX
  8
0
  5
B19
 10
80.0437
 20
237.217
 30
0.000000
  70
    32
  0
VERTEX
  8
0
  5
B1A
 10
80.0455
 20
237.217
 30
0.000000
  70
    32
  0
VERTEX
  8
0
  5
B1B
 10
80.0473
 20
237.217
 30
0.000000
  70
    32
  0
VERTEX
  8
0
  5
B1C
 10
80.0491
 20
237.216
 30
0.000000
  70
    32
  0
VERTEX
  8
0
  5
B1D
 10
80.0508
 20
237.216
 30
0.000000
  70
    32
  0
VERTEX
  8
0
  5
B1E
 10
80.0526
 20
237.216
 30
0.000000
  70
    32
  0
VERTEX
  8
0
  5
B1F
 10
80.0544
 20
237.215
 30
0.000000
  70
    32
  0
VERTEX
  8
0
  5
B20
 10
80.0561
 20
237.215
 30
0.000000
  70
    32
  0
VERTEX
  8
0
  5
B21
 10
80.0579
 20
237.215
 30
0.000000
  70
    32
  0
VERTEX
  8
0
  5
B22
 10
80.0597
 20
237.214
 30
0.000000
  70
    32
  0
VERTEX
  8
0
  5
B23
 10
80.0615
 20
237.214
 30
0.000000
  70
    32
  0
VERTEX
  8
0
  5
B24
 10
80.0632
 20
237.214
 30
0.000000
  70
    32
  0
VERTEX
  8
0
  5
B25
 10
80.0650
 20
237.213
 30
0.000000
  70
    32
  0
VERTEX
  8
0
  5
B26
 10
80.0668
 20
237.213
 30
0.000000
  70
    32
  0
VERTEX
  8
0
  5
B27
 10
80.0686
 20
237.213
 30
0.000000
  70
    32
  0
VERTEX
  8
0
  5
B28
 10
80.0704
 20
237.212
 30
0.000000
  70
    32
  0
VERTEX
  8
0
  5
B29
 10
80.0721
 20
237.212
 30
0.000000
  70
    32
  0
VERTEX
  8
0
  5
B2A
 10
80.0739
 20
237.212
 30
0.000000
  70
    32
  0
VERTEX
  8
0
  5
B2B
 10
80.0757
 20
237.212
 30
0.000000
  70
    32
  0
VERTEX
  8
0
  5
B2C
 10
80.0775
 20
237.211
 30
0.000000
  70
    32
  0
VERTEX
  8
0
  5
B2D
 10
80.0793
 20
237.211
 30
0.000000
  70
    32
  0
VERTEX
  8
0
  5
B2E
 10
80.0811
 20
237.211
 30
0.000000
  70
    32
  0
VERTEX
  8
0
  5
B2F
 10
80.0829
 20
237.210
 30
0.000000
  70
    32
  0
VERTEX
  8
0
  5
B30
 10
80.0846
 20
237.210
 30
0.000000
  70
    32
  0
VERTEX
  8
0
  5
B31
 10
80.0864
 20
237.210
 30
0.000000
  70
    32
  0
VERTEX
  8
0
  5
B32
 10
80.0882
 20
237.210
 30
0.000000
  70
    32
  0
VERTEX
  8
0
  5
B33
 10
80.0900
 20
237.209
 30
0.000000
  70
    32
  0
VERTEX
  8
0
  5
B34
 10
80.0918
 20
237.209
 30
0.000000
  70
    32
  0
VERTEX
  8
0
  5
B35
 10
80.0936
 20
237.209
 30
0.000000
  70
    32
  0
VERTEX
  8
0
  5
B36
 10
80.0954
 20
237.209
 30
0.000000
  70
    32
  0
VERTEX
  8
0
  5
B37
 10
80.0972
 20
237.208
 30
0.000000
  70
    32
  0
VERTEX
  8
0
  5
B38
 10
80.0989
 20
237.208
 30
0.000000
  70
    32
  0
VERTEX
  8
0
  5
B39
 10
80.1007
 20
237.208
 30
0.000000
  70
    32
  0
VERTEX
  8
0
  5
B3A
 10
80.1025
 20
237.208
 30
0.000000
  70
    32
  0
VERTEX
  8
0
  5
B3B
 10
80.1043
 20
237.207
 30
0.000000
  70
    32
  0
VERTEX
  8
0
  5
B3C
 10
80.1061
 20
237.207
 30
0.000000
  70
    32
  0
VERTEX
  8
0
  5
B3D
 10
80.1079
 20
237.207
 30
0.000000
  70
    32
  0
VERTEX
  8
0
  5
B3E
 10
80.1097
 20
237.207
 30
0.000000
  70
    32
  0
VERTEX
  8
0
  5
B3F
 10
80.1115
 20
237.206
 30
0.000000
  70
    32
  0
VERTEX
  8
0
  5
B40
 10
80.1133
 20
237.206
 30
0.000000
  70
    32
  0
VERTEX
  8
0
  5
B41
 10
80.1151
 20
237.206
 30
0.000000
  70
    32
  0
VERTEX
  8
0
  5
B42
 10
80.1169
 20
237.206
 30
0.000000
  70
    32
  0
VERTEX
  8
0
  5
B43
 10
80.1187
 20
237.206
 30
0.000000
  70
    32
  0
VERTEX
  8
0
  5
B44
 10
80.1205
 20
237.205
 30
0.000000
  70
    32
  0
VERTEX
  8
0
  5
B45
 10
80.1223
 20
237.205
 30
0.000000
  70
    32
  0
VERTEX
  8
0
  5
B46
 10
80.1241
 20
237.205
 30
0.000000
  70
    32
  0
VERTEX
  8
0
  5
B47
 10
80.1259
 20
237.205
 30
0.000000
  70
    32
  0
VERTEX
  8
0
  5
B48
 10
80.1277
 20
237.205
 30
0.000000
  70
    32
  0
VERTEX
  8
0
  5
B49
 10
80.1295
 20
237.204
 30
0.000000
  70
    32
  0
VERTEX
  8
0
  5
B4A
 10
80.1312
 20
237.204
 30
0.000000
  70
    32
  0
VERTEX
  8
0
  5
B4B
 10
80.1330
 20
237.204
 30
0.000000
  70
    32
  0
VERTEX
  8
0
  5
B4C
 10
80.1348
 20
237.204
 30
0.000000
  70
    32
  0
VERTEX
  8
0
  5
B4D
 10
80.1366
 20
237.204
 30
0.000000
  70
    32
  0
VERTEX
  8
0
  5
B4E
 10
80.1384
 20
237.204
 30
0.000000
  70
    32
  0
VERTEX
  8
0
  5
B4F
 10
80.1402
 20
237.203
 30
0.000000
  70
    32
  0
VERTEX
  8
0
  5
B50
 10
80.1420
 20
237.203
 30
0.000000
  70
    32
  0
VERTEX
  8
0
  5
B51
 10
80.1438
 20
237.203
 30
0.000000
  70
    32
  0
VERTEX
  8
0
  5
B52
 10
80.1456
 20
237.203
 30
0.000000
  70
    32
  0
VERTEX
  8
0
  5
B53
 10
80.1474
 20
237.203
 30
0.000000
  70
    32
  0
VERTEX
  8
0
  5
B54
 10
80.1492
 20
237.203
 30
0.000000
  70
    32
  0
VERTEX
  8
0
  5
B55
 10
80.1510
 20
237.202
 30
0.000000
  70
    32
  0
VERTEX
  8
0
  5
B56
 10
80.1528
 20
237.202
 30
0.000000
  70
    32
  0
VERTEX
  8
0
  5
B57
 10
80.1546
 20
237.202
 30
0.000000
  70
    32
  0
VERTEX
  8
0
  5
B58
 10
80.1564
 20
237.202
 30
0.000000
  70
    32
  0
VERTEX
  8
0
  5
B59
 10
80.1582
 20
237.202
 30
0.000000
  70
    32
  0
VERTEX
  8
0
  5
B5A
 10
80.1600
 20
237.202
 30
0.000000
  70
    32
  0
VERTEX
  8
0
  5
B5B
 10
80.1618
 20
237.202
 30
0.000000
  70
    32
  0
VERTEX
  8
0
  5
B5C
 10
80.1636
 20
237.202
 30
0.000000
  70
    32
  0
VERTEX
  8
0
  5
B5D
 10
80.1654
 20
237.201
 30
0.000000
  70
    32
  0
VERTEX
  8
0
  5
B5E
 10
80.1672
 20
237.201
 30
0.000000
  70
    32
  0
VERTEX
  8
0
  5
B5F
 10
80.1690
 20
237.201
 30
0.000000
  70
    32
  0
VERTEX
  8
0
  5
B60
 10
80.1708
 20
237.201
 30
0.000000
  70
    32
  0
VERTEX
  8
0
  5
B61
 10
80.1726
 20
237.201
 30
0.000000
  70
    32
  0
VERTEX
  8
0
  5
B62
 10
80.1744
 20
237.201
 30
0.000000
  70
    32
  0
VERTEX
  8
0
  5
B63
 10
80.1762
 20
237.201
 30
0.000000
  70
    32
  0
VERTEX
  8
0
  5
B64
 10
80.1781
 20
237.201
 30
0.000000
  70
    32
  0
VERTEX
  8
0
  5
B65
 10
80.1799
 20
237.201
 30
0.000000
  70
    32
  0
VERTEX
  8
0
  5
B66
 10
80.1817
 20
237.200
 30
0.000000
  70
    32
  0
VERTEX
  8
0
  5
B67
 10
80.1835
 20
237.200
 30
0.000000
  70
    32
  0
VERTEX
  8
0
  5
B68
 10
80.1853
 20
237.200
 30
0.000000
  70
    32
  0
VERTEX
  8
0
  5
B69
 10
80.1871
 20
237.200
 30
0.000000
  70
    32
  0
VERTEX
  8
0
  5
B6A
 10
80.1889
 20
237.200
 30
0.000000
  70
    32
  0
VERTEX
  8
0
  5
B6B
 10
80.1907
 20
237.200
 30
0.000000
  70
    32
  0
VERTEX
  8
0
  5
B6C
 10
80.1925
 20
237.200
 30
0.000000
  70
    32
  0
VERTEX
  8
0
  5
B6D
 10
80.1943
 20
237.200
 30
0.000000
  70
    32
  0
VERTEX
  8
0
  5
B6E
 10
80.1961
 20
237.200
 30
0.000000
  70
    32
  0
VERTEX
  8
0
  5
B6F
 10
80.1979
 20
237.200
 30
0.000000
  70
    32
  0
VERTEX
  8
0
  5
B70
 10
80.1997
 20
237.200
 30
0.000000
  70
    32
  0
VERTEX
  8
0
  5
B71
 10
80.2015
 20
237.200
 30
0.000000
  70
    32
  0
VERTEX
  8
0
  5
B72
 10
80.2033
 20
237.200
 30
0.000000
  70
    32
  0
VERTEX
  8
0
  5
B73
 10
80.2051
 20
237.199
 30
0.000000
  70
    32
  0
VERTEX
  8
0
  5
B74
 10
80.2069
 20
237.199
 30
0.000000
  70
    32
  0
VERTEX
  8
0
  5
B75
 10
80.2087
 20
237.199
 30
0.000000
  70
    32
  0
VERTEX
  8
0
  5
B76
 10
80.2105
 20
237.199
 30
0.000000
  70
    32
  0
VERTEX
  8
0
  5
B77
 10
80.2123
 20
237.199
 30
0.000000
  70
    32
  0
VERTEX
  8
0
  5
B78
 10
80.2141
 20
237.199
 30
0.000000
  70
    32
  0
VERTEX
  8
0
  5
B79
 10
80.2159
 20
237.199
 30
0.000000
  70
    32
  0
VERTEX
  8
0
  5
B7A
 10
80.2177
 20
237.199
 30
0.000000
  70
    32
  0
VERTEX
  8
0
  5
B7B
 10
80.2195
 20
237.199
 30
0.000000
  70
    32
  0
VERTEX
  8
0
  5
B7C
 10
80.2213
 20
237.199
 30
0.000000
  70
    32
  0
VERTEX
  8
0
  5
B7D
 10
80.2231
 20
237.199
 30
0.000000
  70
    32
  0
VERTEX
  8
0
  5
B7E
 10
80.2249
 20
237.199
 30
0.000000
  70
    32
  0
VERTEX
  8
0
  5
B7F
 10
80.2268
 20
237.199
 30
0.000000
  70
    32
  0
VERTEX
  8
0
  5
B80
 10
80.2286
 20
237.199
 30
0.000000
  70
    32
  0
VERTEX
  8
0
  5
B81
 10
80.2304
 20
237.199
 30
0.000000
  70
    32
  0
VERTEX
  8
0
  5
B82
 10
80.2322
 20
237.199
 30
0.000000
  70
    32
  0
VERTEX
  8
0
  5
B83
 10
80.2340
 20
237.199
 30
0.000000
  70
    32
  0
VERTEX
  8
0
  5
B84
 10
80.2358
 20
237.199
 30
0.000000
  70
    32
  0
VERTEX
  8
0
  5
B85
 10
80.2376
 20
237.199
 30
0.000000
  70
    32
  0
VERTEX
  8
0
  5
B86
 10
80.2394
 20
237.199
 30
0.000000
  70
    32
  0
SEQEND
  8
0
  5
B87
  0
ARC
  5
548
  8
0
  6
CONTINUOUS
 62
     7
 10
86.839384
 20
236.08151
 30
0.0
 40
2.4
 50
0.0
 51
27.956912
  0
ARC
  5
549
  8
0
  6
CONTINUOUS
 62
     7
 10
82.239384
 20
236.08151
 30
0.0
 40
2.4
 50
152.043081
 51
180.0
  0
LINE
  5
54A
  8
0
  6
CONTINUOUS
 62
     7
 10
79.839384
 20
236.08151
 30
0.0
 11
79.839384
 21
233.36456
 31
0.0
  0
LINE
  5
54B
  8
0
  6
CONTINUOUS
 62
     7
 10
89.239384
 20
236.08151
 30
0.0
 11
89.239384
 21
233.36456
 31
0.0
  0
LINE
  5
54C
  8
0
  6
CONTINUOUS
 62
     7
 10
89.239384
 20
239.48151
 30
0.0
 11
89.239384
 21
239.143677
 31
0.0
  0
LINE
  5
54D
  8
0
  6
CONTINUOUS
 62
     7
 10
79.839384
 20
239.143677
 30
0.0
 11
79.839384
 21
239.48151
 31
0.0
  0
LINE
  5
54E
  8
0
  6
CONTINUOUS
 62
     7
 10
86.739384
 20
236.88151
 30
0.0
 11
82.339384
 21
236.88151
 31
0.0
  0
LINE
  5
54F
  8
0
  6
CONTINUOUS
 62
     7
 10
89.239384
 20
237.388259
 30
0.0
 11
89.239384
 21
237.357574
 31
0.0
  0
LINE
  5
550
  8
0
  6
CONTINUOUS
 62
     7
 10
79.839384
 20
237.357574
 30
0.0
 11
79.839384
 21
237.388259
 31
0.0
  0
LINE
  5
551
  8
0
  6
CONTINUOUS
 62
     7
 10
79.839384
 20
239.143677
 30
0.0
 11
79.839384
 21
238.858486
 31
0.0
  0
LINE
  5
552
  8
0
  6
CONTINUOUS
 62
     7
 10
79.839384
 20
238.858486
 30
0.0
 11
79.839384
 21
237.388259
 31
0.0
  0
LINE
  5
553
  8
0
  6
CONTINUOUS
 62
     7
 10
89.239384
 20
239.143677
 30
0.0
 11
89.239384
 21
238.858486
 31
0.0
  0
LINE
  5
554
  8
0
  6
CONTINUOUS
 62
     7
 10
89.239384
 20
238.858486
 30
0.0
 11
89.239384
 21
237.388259
 31
0.0
  0
LINE
  5
555
  8
0
  6
CONTINUOUS
 62
     7
 10
80.339384
 20
239.48151
 30
0.0
 11
88.739384
 21
239.48151
 31
0.0
  0
ARC
  5
556
  8
0
  6
CONTINUOUS
 62
     7
 10
84.161482
 20
249.899692
 30
0.0
 40
0.125
 50
240.0
 51
60.0
  0
LINE
  5
557
  8
0
  6
CONTINUOUS
 62
     7
 10
84.098982
 20
249.791438
 30
0.0
 11
83.83645
 21
249.943012
 31
0.0
  0
ARC
  5
558
  8
0
  6
CONTINUOUS
 62
     7
 10
84.539384
 20
249.68151
 30
0.0
 40
0.75
 50
159.594068
 51
210.0
  0
ARC
  5
559
  8
0
  6
CONTINUOUS
 62
     7
 10
83.781612
 20
249.24401
 30
0.0
 40
0.125
 50
210.0
 51
30.0
  0
ARC
  5
55A
  8
0
  6
CONTINUOUS
 62
     7
 10
84.539384
 20
249.68151
 30
0.0
 40
1.0
 50
150.0
 51
210.0
  0
ARC
  5
55B
  8
0
  6
CONTINUOUS
 62
     7
 10
83.781612
 20
250.11901
 30
0.0
 40
0.125
 50
60.0
 51
150.0
  0
LINE
  5
55C
  8
0
  6
CONTINUOUS
 62
     7
 10
83.844112
 20
250.227263
 30
0.0
 11
84.223982
 21
250.007945
 31
0.0
  0
ARC
  5
55D
  8
0
  6
CONTINUOUS
 62
     7
 10
84.037505
 20
250.398268
 30
0.0
 40
0.125
 50
125.0
 51
305.0
  0
ARC
  5
55E
  8
0
  6
CONTINUOUS
 62
     7
 10
84.539384
 20
249.68151
 30
0.0
 40
1.0
 50
60.0
 51
125.0
  0
ARC
  5
55F
  8
0
  6
CONTINUOUS
 62
     7
 10
84.976884
 20
250.439282
 30
0.0
 40
0.125
 50
240.0
 51
60.0
  0
ARC
  5
560
  8
0
  6
CONTINUOUS
 62
     7
 10
84.539384
 20
249.68151
 30
0.0
 40
0.75
 50
60.0
 51
80.405932
  0
LINE
  5
561
  8
0
  6
CONTINUOUS
 62
     7
 10
84.664384
 20
250.42102
 30
0.0
 11
84.664384
 21
248.80651
 31
0.0
  0
ARC
  5
562
  8
0
  6
CONTINUOUS
 62
     7
 10
84.539384
 20
248.80651
 30
0.0
 40
0.125
 50
180.0
 51
0.0
  0
LINE
  5
563
  8
0
  6
CONTINUOUS
 62
     7
 10
84.414384
 20
248.80651
 30
0.0
 11
84.414384
 21
250.42102
 31
0.0
  0
ARC
  5
564
  8
0
  6
CONTINUOUS
 62
     7
 10
84.539384
 20
249.68151
 30
0.0
 40
0.75
 50
99.594068
 51
125.0
  0
ARC
  5
565
  8
0
  6
CONTINUOUS
 62
     7
 10
85.297156
 20
250.11901
 30
0.0
 40
0.125
 50
30.0
 51
210.0
  0
ARC
  5
566
  8
0
  6
CONTINUOUS
 62
     7
 10
84.539384
 20
249.68151
 30
0.0
 40
1.0
 50
330.0
 51
30.0
  0
ARC
  5
567
  8
0
  6
CONTINUOUS
 62
     7
 10
85.297156
 20
249.24401
 30
0.0
 40
0.125
 50
240.0
 51
330.0
  0
LINE
  5
568
  8
0
  6
CONTINUOUS
 62
     7
 10
85.234656
 20
249.135757
 30
0.0
 11
84.855778
 21
249.354502
 31
0.0
  0
ARC
  5
569
  8
0
  6
CONTINUOUS
 62
     7
 10
84.918278
 20
249.462755
 30
0.0
 40
0.125
 50
60.0
 51
240.0
  0
LINE
  5
56A
  8
0
  6
CONTINUOUS
 62
     7
 10
84.980778
 20
249.571008
 30
0.0
 11
85.242319
 21
249.420008
 31
0.0
  0
ARC
  5
56B
  8
0
  6
CONTINUOUS
 62
     7
 10
84.539384
 20
249.68151
 30
0.0
 40
0.75
 50
339.594068
 51
30.0
  0
ARC
  5
56C
  8
0
  6
CONTINUOUS
 62
     7
 10
84.539384
 20
249.68151
 30
0.0
 40
1.25
 50
180.0
 51
0.0
  0
ARC
  5
56D
  8
0
  6
CONTINUOUS
 62
     7
 10
84.539384
 20
249.68151
 30
0.0
 40
1.25
 50
0.0
 51
180.0
  0
ARC
  5
56E
  8
0
  6
CONTINUOUS
 62
     7
 10
84.539384
 20
249.68151
 30
0.0
 40
1.5
 50
180.0
 51
0.0
  0
ARC
  5
56F
  8
0
  6
CONTINUOUS
 62
     7
 10
84.539384
 20
249.68151
 30
0.0
 40
1.5
 50
0.0
 51
180.0
  0
LINE
  5
570
  8
0
  6
CONTINUOUS
 62
     7
 10
88.106051
 20
247.08151
 30
0.0
 11
88.606051
 21
247.08151
 31
0.0
  0
LINE
  5
571
  8
0
  6
CONTINUOUS
 62
     7
 10
88.606051
 20
247.08151
 30
0.0
 11
88.606051
 21
245.464489
 31
0.0
  0
LINE
  5
572
  8
0
  6
CONTINUOUS
 62
     7
 10
88.606051
 20
245.464489
 30
0.0
 11
90.939384
 21
245.464489
 31
0.0
  0
LINE
  5
573
  8
0
  6
CONTINUOUS
 62
     7
 10
90.939384
 20
245.464489
 30
0.0
 11
90.939384
 21
247.08151
 31
0.0
  0
LINE
  5
574
  8
0
  6
CONTINUOUS
 62
     7
 10
90.939384
 20
247.08151
 30
0.0
 11
91.439384
 21
247.08151
 31
0.0
  0
LINE
  5
575
  8
0
  6
CONTINUOUS
 62
     7
 10
91.439384
 20
247.08151
 30
0.0
 11
91.439384
 21
243.08151
 31
0.0
  0
LINE
  5
576
  8
0
  6
CONTINUOUS
 62
     7
 10
91.439384
 20
243.08151
 30
0.0
 11
90.939384
 21
243.08151
 31
0.0
  0
LINE
  5
577
  8
0
  6
CONTINUOUS
 62
     7
 10
90.939384
 20
243.08151
 30
0.0
 11
90.939384
 21
244.95385
 31
0.0
  0
LINE
  5
578
  8
0
  6
CONTINUOUS
 62
     7
 10
90.939384
 20
244.95385
 30
0.0
 11
88.606051
 21
244.95385
 31
0.0
  0
LINE
  5
579
  8
0
  6
CONTINUOUS
 62
     7
 10
88.606051
 20
244.95385
 30
0.0
 11
88.606051
 21
243.08151
 31
0.0
  0
LINE
  5
57A
  8
0
  6
CONTINUOUS
 62
     7
 10
88.606051
 20
243.08151
 30
0.0
 11
88.106051
 21
243.08151
 31
0.0
  0
LINE
  5
57B
  8
0
  6
CONTINUOUS
 62
     7
 10
88.106051
 20
243.08151
 30
0.0
 11
88.106051
 21
247.08151
 31
0.0
  0
LINE
  5
57C
  8
0
  6
CONTINUOUS
 62
     7
 10
86.439384
 20
246.485765
 30
0.0
 11
86.189384
 21
246.570872
 31
0.0
  0
LINE
  5
57D
  8
0
  6
CONTINUOUS
 62
     7
 10
86.189384
 20
246.570872
 30
0.0
 11
85.689384
 21
246.570872
 31
0.0
  0
LINE
  5
57E
  8
0
  6
CONTINUOUS
 62
     7
 10
85.689384
 20
246.570872
 30
0.0
 11
85.439384
 21
246.485765
 31
0.0
  0
LINE
  5
57F
  8
0
  6
CONTINUOUS
 62
     7
 10
85.439384
 20
246.485765
 30
0.0
 11
85.189384
 21
246.315552
 31
0.0
  0
LINE
  5
580
  8
0
  6
CONTINUOUS
 62
     7
 10
85.189384
 20
246.315552
 30
0.0
 11
85.106051
 21
246.060233
 31
0.0
  0
LINE
  5
581
  8
0
  6
CONTINUOUS
 62
     7
 10
85.106051
 20
246.060233
 30
0.0
 11
85.106051
 21
245.890021
 31
0.0
  0
LINE
  5
582
  8
0
  6
CONTINUOUS
 62
     7
 10
85.106051
 20
245.890021
 30
0.0
 11
85.189384
 21
245.634701
 31
0.0
  0
LINE
  5
583
  8
0
  6
CONTINUOUS
 62
     7
 10
85.189384
 20
245.634701
 30
0.0
 11
85.439384
 21
245.464489
 31
0.0
  0
LINE
  5
584
  8
0
  6
CONTINUOUS
 62
     7
 10
85.439384
 20
245.464489
 30
0.0
 11
85.689384
 21
245.379382
 31
0.0
  0
LINE
  5
585
  8
0
  6
CONTINUOUS
 62
     7
 10
85.689384
 20
245.379382
 30
0.0
 11
86.189384
 21
245.379382
 31
0.0
  0
LINE
  5
586
  8
0
  6
CONTINUOUS
 62
     7
 10
86.189384
 20
245.379382
 30
0.0
 11
86.606051
 21
245.294276
 31
0.0
  0
LINE
  5
587
  8
0
  6
CONTINUOUS
 62
     7
 10
86.606051
 20
245.294276
 30
0.0
 11
86.939384
 21
245.124063
 31
0.0
  0
LINE
  5
588
  8
0
  6
CONTINUOUS
 62
     7
 10
86.939384
 20
245.124063
 30
0.0
 11
87.272718
 21
244.783637
 31
0.0
  0
LINE
  5
589
  8
0
  6
CONTINUOUS
 62
     7
 10
87.272718
 20
244.783637
 30
0.0
 11
87.439384
 21
244.443212
 31
0.0
  0
LINE
  5
58A
  8
0
  6
CONTINUOUS
 62
     7
 10
87.439384
 20
244.443212
 30
0.0
 11
87.439384
 21
244.01768
 31
0.0
  0
LINE
  5
58B
  8
0
  6
CONTINUOUS
 62
     7
 10
87.439384
 20
244.01768
 30
0.0
 11
87.272718
 21
243.677254
 31
0.0
  0
LINE
  5
58C
  8
0
  6
CONTINUOUS
 62
     7
 10
87.272718
 20
243.677254
 30
0.0
 11
86.939384
 21
243.336829
 31
0.0
  0
LINE
  5
58D
  8
0
  6
CONTINUOUS
 62
     7
 10
86.939384
 20
243.336829
 30
0.0
 11
86.606051
 21
243.166616
 31
0.0
  0
LINE
  5
58E
  8
0
  6
CONTINUOUS
 62
     7
 10
86.606051
 20
243.166616
 30
0.0
 11
86.189384
 21
243.08151
 31
0.0
  0
LINE
  5
58F
  8
0
  6
CONTINUOUS
 62
     7
 10
86.189384
 20
243.08151
 30
0.0
 11
85.522717
 21
243.08151
 31
0.0
  0
LINE
  5
590
  8
0
  6
CONTINUOUS
 62
     7
 10
85.522717
 20
243.08151
 30
0.0
 11
85.106051
 21
243.166616
 31
0.0
  0
LINE
  5
591
  8
0
  6
CONTINUOUS
 62
     7
 10
85.106051
 20
243.166616
 30
0.0
 11
84.689384
 21
243.421935
 31
0.0
  0
LINE
  5
592
  8
0
  6
CONTINUOUS
 62
     7
 10
84.689384
 20
243.421935
 30
0.0
 11
84.439384
 21
243.847467
 31
0.0
  0
LINE
  5
593
  8
0
  6
CONTINUOUS
 62
     7
 10
84.439384
 20
243.847467
 30
0.0
 11
84.356051
 21
244.187893
 31
0.0
  0
LINE
  5
594
  8
0
  6
CONTINUOUS
 62
     7
 10
84.356051
 20
244.187893
 30
0.0
 11
84.856051
 21
244.187893
 31
0.0
  0
LINE
  5
595
  8
0
  6
CONTINUOUS
 62
     7
 10
84.856051
 20
244.187893
 30
0.0
 11
84.939384
 21
243.932574
 31
0.0
  0
LINE
  5
596
  8
0
  6
CONTINUOUS
 62
     7
 10
84.939384
 20
243.932574
 30
0.0
 11
85.189384
 21
243.677254
 31
0.0
  0
LINE
  5
597
  8
0
  6
CONTINUOUS
 62
     7
 10
85.189384
 20
243.677254
 30
0.0
 11
85.522717
 21
243.592148
 31
0.0
  0
LINE
  5
598
  8
0
  6
CONTINUOUS
 62
     7
 10
85.522717
 20
243.592148
 30
0.0
 11
86.189384
 21
243.592148
 31
0.0
  0
LINE
  5
599
  8
0
  6
CONTINUOUS
 62
     7
 10
86.189384
 20
243.592148
 30
0.0
 11
86.522717
 21
243.677254
 31
0.0
  0
LINE
  5
59A
  8
0
  6
CONTINUOUS
 62
     7
 10
86.522717
 20
243.677254
 30
0.0
 11
86.772718
 21
243.847467
 31
0.0
  0
LINE
  5
59B
  8
0
  6
CONTINUOUS
 62
     7
 10
86.772718
 20
243.847467
 30
0.0
 11
86.939384
 21
244.102786
 31
0.0
  0
LINE
  5
59C
  8
0
  6
CONTINUOUS
 62
     7
 10
86.939384
 20
244.102786
 30
0.0
 11
86.939384
 21
244.358105
 31
0.0
  0
LINE
  5
59D
  8
0
  6
CONTINUOUS
 62
     7
 10
86.939384
 20
244.358105
 30
0.0
 11
86.772718
 21
244.613424
 31
0.0
  0
LINE
  5
59E
  8
0
  6
CONTINUOUS
 62
     7
 10
86.772718
 20
244.613424
 30
0.0
 11
86.522717
 21
244.783637
 31
0.0
  0
LINE
  5
59F
  8
0
  6
CONTINUOUS
 62
     7
 10
86.522717
 20
244.783637
 30
0.0
 11
86.189384
 21
244.868744
 31
0.0
  0
LINE
  5
5A0
  8
0
  6
CONTINUOUS
 62
     7
 10
86.189384
 20
244.868744
 30
0.0
 11
85.689384
 21
244.868744
 31
0.0
  0
LINE
  5
5A1
  8
0
  6
CONTINUOUS
 62
     7
 10
85.689384
 20
244.868744
 30
0.0
 11
85.356051
 21
244.95385
 31
0.0
  0
LINE
  5
5A2
  8
0
  6
CONTINUOUS
 62
     7
 10
85.356051
 20
244.95385
 30
0.0
 11
85.022717
 21
245.124063
 31
0.0
  0
LINE
  5
5A3
  8
0
  6
CONTINUOUS
 62
     7
 10
85.022717
 20
245.124063
 30
0.0
 11
84.689384
 21
245.464489
 31
0.0
  0
LINE
  5
5A4
  8
0
  6
CONTINUOUS
 62
     7
 10
84.689384
 20
245.464489
 30
0.0
 11
84.606051
 21
245.804914
 31
0.0
  0
LINE
  5
5A5
  8
0
  6
CONTINUOUS
 62
     7
 10
84.606051
 20
245.804914
 30
0.0
 11
84.606051
 21
246.14534
 31
0.0
  0
LINE
  5
5A6
  8
0
  6
CONTINUOUS
 62
     7
 10
84.606051
 20
246.14534
 30
0.0
 11
84.689384
 21
246.485765
 31
0.0
  0
LINE
  5
5A7
  8
0
  6
CONTINUOUS
 62
     7
 10
84.689384
 20
246.485765
 30
0.0
 11
85.022717
 21
246.826191
 31
0.0
  0
LINE
  5
5A8
  8
0
  6
CONTINUOUS
 62
     7
 10
85.022717
 20
246.826191
 30
0.0
 11
85.356051
 21
246.996403
 31
0.0
  0
LINE
  5
5A9
  8
0
  6
CONTINUOUS
 62
     7
 10
85.356051
 20
246.996403
 30
0.0
 11
85.689384
 21
247.08151
 31
0.0
  0
LINE
  5
5AA
  8
0
  6
CONTINUOUS
 62
     7
 10
85.689384
 20
247.08151
 30
0.0
 11
86.106051
 21
247.08151
 31
0.0
  0
LINE
  5
5AB
  8
0
  6
CONTINUOUS
 62
     7
 10
86.106051
 20
247.08151
 30
0.0
 11
86.522717
 21
246.996403
 31
0.0
  0
LINE
  5
5AC
  8
0
  6
CONTINUOUS
 62
     7
 10
86.522717
 20
246.996403
 30
0.0
 11
86.856051
 21
246.741084
 31
0.0
  0
LINE
  5
5AD
  8
0
  6
CONTINUOUS
 62
     7
 10
86.856051
 20
246.741084
 30
0.0
 11
87.106051
 21
246.400659
 31
0.0
  0
LINE
  5
5AE
  8
0
  6
CONTINUOUS
 62
     7
 10
87.106051
 20
246.400659
 30
0.0
 11
87.189384
 21
246.14534
 31
0.0
  0
LINE
  5
5AF
  8
0
  6
CONTINUOUS
 62
     7
 10
87.189384
 20
246.14534
 30
0.0
 11
86.689384
 21
246.14534
 31
0.0
  0
LINE
  5
5B0
  8
0
  6
CONTINUOUS
 62
     7
 10
86.689384
 20
246.14534
 30
0.0
 11
86.606051
 21
246.315552
 31
0.0
  0
LINE
  5
5B1
  8
0
  6
CONTINUOUS
 62
     7
 10
86.606051
 20
246.315552
 30
0.0
 11
86.439384
 21
246.485765
 31
0.0
  0
LINE
  5
5B2
  8
0
  6
CONTINUOUS
 62
     7
 10
83.439384
 20
243.677254
 30
0.0
 11
83.106051
 21
243.336829
 31
0.0
  0
LINE
  5
5B3
  8
0
  6
CONTINUOUS
 62
     7
 10
83.106051
 20
243.336829
 30
0.0
 11
82.772717
 21
243.166616
 31
0.0
  0
LINE
  5
5B4
  8
0
  6
CONTINUOUS
 62
     7
 10
82.772717
 20
243.166616
 30
0.0
 11
82.356051
 21
243.08151
 31
0.0
  0
LINE
  5
5B5
  8
0
  6
CONTINUOUS
 62
     7
 10
82.356051
 20
243.08151
 30
0.0
 11
82.022717
 21
243.08151
 31
0.0
  0
LINE
  5
5B6
  8
0
  6
CONTINUOUS
 62
     7
 10
82.022717
 20
243.08151
 30
0.0
 11
81.606051
 21
243.166616
 31
0.0
  0
LINE
  5
5B7
  8
0
  6
CONTINUOUS
 62
     7
 10
81.606051
 20
243.166616
 30
0.0
 11
81.272717
 21
243.336829
 31
0.0
  0
LINE
  5
5B8
  8
0
  6
CONTINUOUS
 62
     7
 10
81.272717
 20
243.336829
 30
0.0
 11
80.939384
 21
243.677254
 31
0.0
  0
LINE
  5
5B9
  8
0
  6
CONTINUOUS
 62
     7
 10
80.939384
 20
243.677254
 30
0.0
 11
80.772717
 21
244.01768
 31
0.0
  0
LINE
  5
5BA
  8
0
  6
CONTINUOUS
 62
     7
 10
80.772717
 20
244.01768
 30
0.0
 11
80.689384
 21
244.443212
 31
0.0
  0
LINE
  5
5BB
  8
0
  6
CONTINUOUS
 62
     7
 10
80.689384
 20
244.443212
 30
0.0
 11
80.689384
 21
247.08151
 31
0.0
  0
LINE
  5
5BC
  8
0
  6
CONTINUOUS
 62
     7
 10
80.689384
 20
247.08151
 30
0.0
 11
81.189384
 21
247.08151
 31
0.0
  0
LINE
  5
5BD
  8
0
  6
CONTINUOUS
 62
     7
 10
81.189384
 20
247.08151
 30
0.0
 11
81.189384
 21
244.443212
 31
0.0
  0
LINE
  5
5BE
  8
0
  6
CONTINUOUS
 62
     7
 10
81.189384
 20
244.443212
 30
0.0
 11
81.272717
 21
244.102786
 31
0.0
  0
LINE
  5
5BF
  8
0
  6
CONTINUOUS
 62
     7
 10
81.272717
 20
244.102786
 30
0.0
 11
81.439384
 21
243.847467
 31
0.0
  0
LINE
  5
5C0
  8
0
  6
CONTINUOUS
 62
     7
 10
81.439384
 20
243.847467
 30
0.0
 11
81.689384
 21
243.677254
 31
0.0
  0
LINE
  5
5C1
  8
0
  6
CONTINUOUS
 62
     7
 10
81.539384
 20
237.198937
 30
0.0
 11
80.239384
 21
237.198937
 31
0.0
  0
LINE
  5
5C2
  8
0
  6
CONTINUOUS
 62
     7
 10
81.689384
 20
243.677254
 30
0.0
 11
82.022717
 21
243.592148
 31
0.0
  0
LINE
  5
5C3
  8
0
  6
CONTINUOUS
 62
     7
 10
82.022717
 20
243.592148
 30
0.0
 11
82.356051
 21
243.592148
 31
0.0
  0
LINE
  5
5C4
  8
0
  6
CONTINUOUS
 62
     7
 10
82.356051
 20
243.592148
 30
0.0
 11
82.689384
 21
243.677254
 31
0.0
  0
LINE
  5
5C5
  8
0
  6
CONTINUOUS
 62
     7
 10
88.839384
 20
237.198937
 30
0.0
 11
87.539384
 21
237.198937
 31
0.0
  0
LINE
  5
5C6
  8
0
  6
CONTINUOUS
 62
     7
 10
82.689384
 20
243.677254
 30
0.0
 11
82.939384
 21
243.847467
 31
0.0
  0
LINE
  5
5C7
  8
0
  6
CONTINUOUS
 62
     7
 10
82.939384
 20
243.847467
 30
0.0
 11
83.106051
 21
244.102786
 31
0.0
  0
LINE
  5
5C8
  8
0
  6
CONTINUOUS
 62
     7
 10
83.106051
 20
244.102786
 30
0.0
 11
83.189384
 21
244.443212
 31
0.0
  0
LINE
  5
5C9
  8
0
  6
CONTINUOUS
 62
     7
 10
80.022717
 20
246.14534
 30
0.0
 11
80.022717
 21
245.804914
 31
0.0
  0
LINE
  5
5CA
  8
0
  6
CONTINUOUS
 62
     7
 10
79.939384
 20
246.400659
 30
0.0
 11
80.022717
 21
246.14534
 31
0.0
  0
LINE
  5
5CB
  8
0
  6
CONTINUOUS
 62
     7
 10
79.689384
 20
246.741084
 30
0.0
 11
79.939384
 21
246.400659
 31
0.0
  0
LINE
  5
5CC
  8
0
  6
CONTINUOUS
 62
     7
 10
79.356051
 20
246.996403
 30
0.0
 11
79.689384
 21
246.741084
 31
0.0
  0
LINE
  5
5CD
  8
0
  6
CONTINUOUS
 62
     7
 10
78.939384
 20
247.08151
 30
0.0
 11
79.356051
 21
246.996403
 31
0.0
  0
LINE
  5
5CE
  8
0
  6
CONTINUOUS
 62
     7
 10
76.939384
 20
247.08151
 30
0.0
 11
78.939384
 21
247.08151
 31
0.0
  0
LINE
  5
5CF
  8
0
  6
CONTINUOUS
 62
     7
 10
76.939384
 20
243.08151
 30
0.0
 11
76.939384
 21
247.08151
 31
0.0
  0
LINE
  5
5D0
  8
0
  6
CONTINUOUS
 62
     7
 10
77.439384
 20
243.08151
 30
0.0
 11
76.939384
 21
243.08151
 31
0.0
  0
LINE
  5
5D1
  8
0
  6
CONTINUOUS
 62
     7
 10
77.439384
 20
244.868744
 30
0.0
 11
77.439384
 21
243.08151
 31
0.0
  0
LINE
  5
5D2
  8
0
  6
CONTINUOUS
 62
     7
 10
78.939384
 20
244.868744
 30
0.0
 11
77.439384
 21
244.868744
 31
0.0
  0
LINE
  5
5D3
  8
0
  6
CONTINUOUS
 62
     7
 10
79.356051
 20
244.95385
 30
0.0
 11
78.939384
 21
244.868744
 31
0.0
  0
LINE
  5
5D4
  8
0
  6
CONTINUOUS
 62
     7
 10
79.689384
 20
245.20917
 30
0.0
 11
79.356051
 21
244.95385
 31
0.0
  0
LINE
  5
5D5
  8
0
  6
CONTINUOUS
 62
     7
 10
79.939384
 20
245.549595
 30
0.0
 11
79.689384
 21
245.20917
 31
0.0
  0
LINE
  5
5D6
  8
0
  6
CONTINUOUS
 62
     7
 10
80.022717
 20
245.804914
 30
0.0
 11
79.939384
 21
245.549595
 31
0.0
  0
LINE
  5
5D7
  8
0
  6
CONTINUOUS
 62
     7
 10
79.022717
 20
245.379382
 30
0.0
 11
79.272717
 21
245.464489
 31
0.0
  0
LINE
  5
5D8
  8
0
  6
CONTINUOUS
 62
     7
 10
77.439384
 20
245.379382
 30
0.0
 11
79.022717
 21
245.379382
 31
0.0
  0
LINE
  5
5D9
  8
0
  6
CONTINUOUS
 62
     7
 10
77.439384
 20
246.655978
 30
0.0
 11
77.439384
 21
245.379382
 31
0.0
  0
LINE
  5
5DA
  8
0
  6
CONTINUOUS
 62
     7
 10
79.022717
 20
246.655978
 30
0.0
 11
77.439384
 21
246.655978
 31
0.0
  0
LINE
  5
5DB
  8
0
  6
CONTINUOUS
 62
     7
 10
79.272717
 20
246.570872
 30
0.0
 11
79.022717
 21
246.655978
 31
0.0
  0
LINE
  5
5DC
  8
0
  6
CONTINUOUS
 62
     7
 10
79.439384
 20
246.400659
 30
0.0
 11
79.272717
 21
246.570872
 31
0.0
  0
LINE
  5
5DD
  8
0
  6
CONTINUOUS
 62
     7
 10
79.522717
 20
246.14534
 30
0.0
 11
79.439384
 21
246.400659
 31
0.0
  0
LINE
  5
5DE
  8
0
  6
CONTINUOUS
 62
     7
 10
79.522717
 20
245.890021
 30
0.0
 11
79.522717
 21
246.14534
 31
0.0
  0
LINE
  5
5DF
  8
0
  6
CONTINUOUS
 62
     7
 10
79.439384
 20
245.634701
 30
0.0
 11
79.522717
 21
245.890021
 31
0.0
  0
LINE
  5
5E0
  8
0
  6
CONTINUOUS
 62
     7
 10
79.272717
 20
245.464489
 30
0.0
 11
79.439384
 21
245.634701
 31
0.0
  0
LINE
  5
5E1
  8
0
  6
CONTINUOUS
 62
     7
 10
83.606051
 20
244.01768
 30
0.0
 11
83.439384
 21
243.677254
 31
0.0
  0
LINE
  5
5E2
  8
0
  6
CONTINUOUS
 62
     7
 10
83.689384
 20
244.443212
 30
0.0
 11
83.606051
 21
244.01768
 31
0.0
  0
LINE
  5
5E3
  8
0
  6
CONTINUOUS
 62
     7
 10
83.689384
 20
247.08151
 30
0.0
 11
83.689384
 21
244.443212
 31
0.0
  0
LINE
  5
5E4
  8
0
  6
CONTINUOUS
 62
     7
 10
83.189384
 20
247.08151
 30
0.0
 11
83.689384
 21
247.08151
 31
0.0
  0
LINE
  5
5E5
  8
0
  6
CONTINUOUS
 62
     7
 10
83.189384
 20
244.443212
 30
0.0
 11
83.189384
 21
247.08151
 31
0.0
  0
ARC
  5
5E6
  8
0
  6
CONTINUOUS
 62
     7
 10
84.539384
 20
218.28151
 30
0.0
 40
1.5
 50
339.594068
 51
35.0
  0
ARC
  5
5E7
  8
0
  6
CONTINUOUS
 62
     7
 10
85.9729
 20
219.285269
 30
0.0
 40
0.25
 50
35.0
 51
215.0
  0
ARC
  5
5E8
  8
0
  6
CONTINUOUS
 62
     7
 10
84.539384
 20
218.28151
 30
0.0
 40
2.0
 50
330.0
 51
35.0
  0
ARC
  5
5E9
  8
0
  6
CONTINUOUS
 62
     7
 10
86.054929
 20
217.40651
 30
0.0
 40
0.25
 50
240.0
 51
330.0
  0
LINE
  5
5EA
  8
0
  6
CONTINUOUS
 62
     7
 10
85.929929
 20
217.190003
 30
0.0
 11
85.172172
 21
217.627494
 31
0.0
  0
ARC
  5
5EB
  8
0
  6
CONTINUOUS
 62
     7
 10
85.297172
 20
217.844001
 30
0.0
 40
0.25
 50
60.0
 51
240.0
  0
LINE
  5
5EC
  8
0
  6
CONTINUOUS
 62
     7
 10
85.422172
 20
218.060507
 30
0.0
 11
85.945253
 21
217.758506
 31
0.0
  0
ARC
  5
5ED
  8
0
  6
CONTINUOUS
 62
     7
 10
84.539384
 20
218.28151
 30
0.0
 40
1.5
 50
99.594068
 51
125.0
  0
ARC
  5
5EE
  8
0
  6
CONTINUOUS
 62
     7
 10
83.535625
 20
219.715026
 30
0.0
 40
0.25
 50
125.0
 51
305.0
  0
ARC
  5
5EF
  8
0
  6
CONTINUOUS
 62
     7
 10
84.539384
 20
218.28151
 30
0.0
 40
2.0
 50
60.0
 51
125.0
  0
ARC
  5
5F0
  8
0
  6
CONTINUOUS
 62
     7
 10
85.414384
 20
219.797054
 30
0.0
 40
0.25
 50
240.0
 51
60.0
  0
ARC
  5
5F1
  8
0
  6
CONTINUOUS
 62
     7
 10
84.539384
 20
218.28151
 30
0.0
 40
1.5
 50
60.0
 51
80.405932
  0
LINE
  5
5F2
  8
0
  6
CONTINUOUS
 62
     7
 10
84.789384
 20
219.76053
 30
0.0
 11
84.789384
 21
216.53151
 31
0.0
  0
ARC
  5
5F3
  8
0
  6
CONTINUOUS
 62
     7
 10
84.539384
 20
216.53151
 30
0.0
 40
0.25
 50
180.0
 51
0.0
  0
LINE
  5
5F4
  8
0
  6
CONTINUOUS
 62
     7
 10
84.289384
 20
216.53151
 30
0.0
 11
84.289384
 21
219.76053
 31
0.0
  0
LINE
  5
5F5
  8
0
  6
CONTINUOUS
 62
     7
 10
83.14884
 20
219.373016
 30
0.0
 11
83.90858
 21
218.93438
 31
0.0
  0
ARC
  5
5F6
  8
0
  6
CONTINUOUS
 62
     7
 10
83.78358
 20
218.717873
 30
0.0
 40
0.25
 50
240.0
 51
60.0
  0
LINE
  5
5F7
  8
0
  6
CONTINUOUS
 62
     7
 10
83.65858
 20
218.501367
 30
0.0
 11
83.133515
 21
218.804513
 31
0.0
  0
ARC
  5
5F8
  8
0
  6
CONTINUOUS
 62
     7
 10
84.539384
 20
218.28151
 30
0.0
 40
1.5
 50
159.594068
 51
215.0
  0
ARC
  5
5F9
  8
0
  6
CONTINUOUS
 62
     7
 10
83.105868
 20
217.277751
 30
0.0
 40
0.25
 50
215.0
 51
35.0
  0
ARC
  5
5FA
  8
0
  6
CONTINUOUS
 62
     7
 10
84.539384
 20
218.28151
 30
0.0
 40
2.0
 50
150.0
 51
215.0
  0
ARC
  5
5FB
  8
0
  6
CONTINUOUS
 62
     7
 10
83.02384
 20
219.15651
 30
0.0
 40
0.25
 50
60.0
 51
150.0
  0
ARC
  5
5FC
  8
0
  6
CONTINUOUS
 62
     7
 10
84.539384
 20
218.28151
 30
0.0
 40
2.5
 50
0.0
 51
180.0
  0
ARC
  5
5FD
  8
0
  6
CONTINUOUS
 62
     7
 10
84.539384
 20
218.28151
 30
0.0
 40
2.5
 50
180.0
 51
0.0
  0
ARC
  5
5FE
  8
0
  6
CONTINUOUS
 62
     7
 10
84.539384
 20
218.28151
 30
0.0
 40
3.0
 50
0.0
 51
180.0
  0
ARC
  5
5FF
  8
0
  6
CONTINUOUS
 62
     7
 10
84.539384
 20
218.28151
 30
0.0
 40
3.0
 50
180.0
 51
0.0
  0
ARC
  5
600
  8
0
  6
CONTINUOUS
 62
     7
 10
92.539384
 20
218.28151
 30
0.0
 40
2.5
 50
82.775247
 51
90.0
  0
ARC
  5
601
  8
0
  6
CONTINUOUS
 62
     7
 10
92.539384
 20
218.28151
 30
0.0
 40
2.5
 50
277.224753
 51
82.775247
  0
ARC
  5
602
  8
0
  6
CONTINUOUS
 62
     7
 10
92.539384
 20
218.28151
 30
0.0
 40
2.5
 50
270.0
 51
277.224753
  0
ARC
  5
603
  8
0
  6
CONTINUOUS
 62
     7
 10
92.539384
 20
218.28151
 30
0.0
 40
2.5
 50
262.775247
 51
270.0
  0
ARC
  5
604
  8
0
  6
CONTINUOUS
 62
     7
 10
92.539384
 20
218.28151
 30
0.0
 40
2.5
 50
97.224753
 51
262.775247
  0
ARC
  5
605
  8
0
  6
CONTINUOUS
 62
     7
 10
92.539384
 20
218.28151
 30
0.0
 40
2.5
 50
90.0
 51
97.224753
  0
ARC
  5
606
  8
0
  6
CONTINUOUS
 62
     7
 10
84.539384
 20
218.28151
 30
0.0
 40
15.8
 50
90.0
 51
94.11411
  0
ARC
  5
607
  8
0
  6
CONTINUOUS
 62
     7
 10
84.539384
 20
218.28151
 30
0.0
 40
15.8
 50
94.11411
 51
128.571429
  0
ARC
  5
608
  8
0
  6
CONTINUOUS
 62
     7
 10
84.539384
 20
218.28151
 30
0.0
 40
15.8
 50
128.571429
 51
128.906579
  0
ARC
  5
609
  8
0
  6
CONTINUOUS
 62
     7
 10
84.539384
 20
218.28151
 30
0.0
 40
15.8
 50
128.906579
 51
129.23816
  0
ARC
  5
60A
  8
0
  6
CONTINUOUS
 62
     7
 10
84.539384
 20
218.28151
 30
0.0
 40
15.8
 50
129.23816
 51
129.276596
  0
ARC
  5
60B
  8
0
  6
CONTINUOUS
 62
     7
 10
84.539384
 20
218.28151
 30
0.0
 40
15.8
 50
140.723404
 51
140.768379
  0
ARC
  5
60C
  8
0
  6
CONTINUOUS
 62
     7
 10
84.539384
 20
218.28151
 30
0.0
 40
15.8
 50
140.768379
 51
141.087325
  0
ARC
  5
60D
  8
0
  6
CONTINUOUS
 62
     7
 10
84.539384
 20
218.28151
 30
0.0
 40
15.8
 50
141.087325
 51
141.428571
  0
ARC
  5
60E
  8
0
  6
CONTINUOUS
 62
     7
 10
84.539384
 20
218.28151
 30
0.0
 40
15.8
 50
141.428571
 51
265.833761
  0
ARC
  5
60F
  8
0
  6
CONTINUOUS
 62
     7
 10
84.539384
 20
218.28151
 30
0.0
 40
15.8
 50
265.833761
 51
270.0
  0
ARC
  5
610
  8
0
  6
CONTINUOUS
 62
     7
 10
84.539384
 20
218.28151
 30
0.0
 40
15.8
 50
270.0
 51
274.190607
  0
ARC
  5
611
  8
0
  6
CONTINUOUS
 62
     7
 10
84.539384
 20
218.28151
 30
0.0
 40
15.8
 50
274.190607
 51
85.809393
  0
ARC
  5
612
  8
0
  6
CONTINUOUS
 62
     7
 10
84.539384
 20
218.28151
 30
0.0
 40
15.8
 50
85.809393
 51
90.0
  0
LINE
  5
613
  8
0
  6
CONTINUOUS
 62
     7
 10
81.526884
 20
206.666609
 30
0.0
 11
81.589384
 21
206.858098
 31
0.0
  0
LINE
  5
614
  8
0
  6
CONTINUOUS
 62
     7
 10
81.589384
 20
206.858098
 30
0.0
 11
81.589384
 21
207.113417
 31
0.0
  0
LINE
  5
615
  8
0
  6
CONTINUOUS
 62
     7
 10
81.589384
 20
207.113417
 30
0.0
 11
81.526884
 21
207.368737
 31
0.0
  0
LINE
  5
616
  8
0
  6
CONTINUOUS
 62
     7
 10
81.526884
 20
207.368737
 30
0.0
 11
81.401884
 21
207.560226
 31
0.0
  0
LINE
  5
617
  8
0
  6
CONTINUOUS
 62
     7
 10
92.207514
 20
226.131525
 30
0.0
 11
91.979753
 21
225.28151
 31
0.0
  0
LINE
  5
618
  8
0
  6
CONTINUOUS
 62
     7
 10
91.979753
 20
225.28151
 30
0.0
 11
91.151532
 21
225.28151
 31
0.0
  0
LINE
  5
619
  8
0
  6
CONTINUOUS
 62
     7
 10
91.151532
 20
225.28151
 30
0.0
 11
91.68743
 21
227.28151
 31
0.0
  0
LINE
  5
61A
  8
0
  6
CONTINUOUS
 62
     7
 10
91.68743
 20
227.28151
 30
0.0
 11
92.515651
 21
227.28151
 31
0.0
  0
LINE
  5
61B
  8
0
  6
CONTINUOUS
 62
     7
 10
92.515651
 20
227.28151
 30
0.0
 11
92.308596
 21
226.508769
 31
0.0
  0
LINE
  5
61C
  8
0
  6
CONTINUOUS
 62
     7
 10
92.308596
 20
226.508769
 30
0.0
 11
93.307089
 21
227.28151
 31
0.0
  0
LINE
  5
61D
  8
0
  6
CONTINUOUS
 62
     7
 10
93.307089
 20
227.28151
 30
0.0
 11
94.28743
 21
227.28151
 31
0.0
  0
LINE
  5
61E
  8
0
  6
CONTINUOUS
 62
     7
 10
94.28743
 20
227.28151
 30
0.0
 11
92.923126
 21
226.225665
 31
0.0
  0
LINE
  5
61F
  8
0
  6
CONTINUOUS
 62
     7
 10
92.923126
 20
226.225665
 30
0.0
 11
93.751532
 21
225.28151
 31
0.0
  0
LINE
  5
620
  8
0
  6
CONTINUOUS
 62
     7
 10
93.751532
 20
225.28151
 30
0.0
 11
92.95332
 21
225.28151
 31
0.0
  0
LINE
  5
621
  8
0
  6
CONTINUOUS
 62
     7
 10
92.95332
 20
225.28151
 30
0.0
 11
92.207514
 21
226.131525
 31
0.0
  0
LINE
  5
622
  8
0
  6
CONTINUOUS
 62
     7
 10
91.190498
 20
227.28151
 30
0.0
 11
90.654599
 21
225.28151
 31
0.0
  0
LINE
  5
623
  8
0
  6
CONTINUOUS
 62
     7
 10
90.654599
 20
225.28151
 30
0.0
 11
89.826378
 21
225.28151
 31
0.0
  0
LINE
  5
624
  8
0
  6
CONTINUOUS
 62
     7
 10
89.826378
 20
225.28151
 30
0.0
 11
90.362277
 21
227.28151
 31
0.0
  0
LINE
  5
625
  8
0
  6
CONTINUOUS
 62
     7
 10
90.362277
 20
227.28151
 30
0.0
 11
91.190498
 21
227.28151
 31
0.0
  0
LINE
  5
626
  8
0
  6
CONTINUOUS
 62
     7
 10
87.424538
 20
225.28151
 30
0.0
 11
86.596317
 21
225.28151
 31
0.0
  0
LINE
  5
627
  8
0
  6
CONTINUOUS
 62
     7
 10
86.596317
 20
225.28151
 30
0.0
 11
87.132215
 21
227.28151
 31
0.0
  0
LINE
  5
628
  8
0
  6
CONTINUOUS
 62
     7
 10
87.132215
 20
227.28151
 30
0.0
 11
89.132215
 21
227.28151
 31
0.0
  0
POLYLINE
  8
0
  5
B88
  62
7
  66
     1
 10
0.000000
 20
0.000000
 30
0.000000
  70
     8
  0
VERTEX
  8
0
  5
B89
 10
89.1322
 20
227.282
 30
0.000000
  70
    32
  0
VERTEX
  8
0
  5
B8A
 10
89.1385
 20
227.282
 30
0.000000
  70
    32
  0
VERTEX
  8
0
  5
B8B
 10
89.1447
 20
227.283
 30
0.000000
  70
    32
  0
VERTEX
  8
0
  5
B8C
 10
89.1510
 20
227.283
 30
0.000000
  70
    32
  0
VERTEX
  8
0
  5
B8D
 10
89.1573
 20
227.284
 30
0.000000
  70
    32
  0
VERTEX
  8
0
  5
B8E
 10
89.1636
 20
227.284
 30
0.000000
  70
    32
  0
VERTEX
  8
0
  5
B8F
 10
89.1699
 20
227.284
 30
0.000000
  70
    32
  0
VERTEX
  8
0
  5
B90
 10
89.1763
 20
227.284
 30
0.000000
  70
    32
  0
VERTEX
  8
0
  5
B91
 10
89.1826
 20
227.284
 30
0.000000
  70
    32
  0
VERTEX
  8
0
  5
B92
 10
89.1889
 20
227.284
 30
0.000000
  70
    32
  0
VERTEX
  8
0
  5
B93
 10
89.1952
 20
227.284
 30
0.000000
  70
    32
  0
VERTEX
  8
0
  5
B94
 10
89.2015
 20
227.283
 30
0.000000
  70
    32
  0
VERTEX
  8
0
  5
B95
 10
89.2079
 20
227.283
 30
0.000000
  70
    32
  0
VERTEX
  8
0
  5
B96
 10
89.2142
 20
227.282
 30
0.000000
  70
    32
  0
VERTEX
  8
0
  5
B97
 10
89.2205
 20
227.281
 30
0.000000
  70
    32
  0
VERTEX
  8
0
  5
B98
 10
89.2268
 20
227.280
 30
0.000000
  70
    32
  0
VERTEX
  8
0
  5
B99
 10
89.2331
 20
227.279
 30
0.000000
  70
    32
  0
VERTEX
  8
0
  5
B9A
 10
89.2394
 20
227.278
 30
0.000000
  70
    32
  0
VERTEX
  8
0
  5
B9B
 10
89.2456
 20
227.277
 30
0.000000
  70
    32
  0
VERTEX
  8
0
  5
B9C
 10
89.2519
 20
227.276
 30
0.000000
  70
    32
  0
VERTEX
  8
0
  5
B9D
 10
89.2581
 20
227.274
 30
0.000000
  70
    32
  0
VERTEX
  8
0
  5
B9E
 10
89.2643
 20
227.273
 30
0.000000
  70
    32
  0
VERTEX
  8
0
  5
B9F
 10
89.2705
 20
227.271
 30
0.000000
  70
    32
  0
VERTEX
  8
0
  5
BA0
 10
89.2767
 20
227.269
 30
0.000000
  70
    32
  0
VERTEX
  8
0
  5
BA1
 10
89.2828
 20
227.268
 30
0.000000
  70
    32
  0
VERTEX
  8
0
  5
BA2
 10
89.2890
 20
227.266
 30
0.000000
  70
    32
  0
VERTEX
  8
0
  5
BA3
 10
89.2951
 20
227.263
 30
0.000000
  70
    32
  0
VERTEX
  8
0
  5
BA4
 10
89.3011
 20
227.261
 30
0.000000
  70
    32
  0
VERTEX
  8
0
  5
BA5
 10
89.3072
 20
227.259
 30
0.000000
  70
    32
  0
VERTEX
  8
0
  5
BA6
 10
89.3132
 20
227.257
 30
0.000000
  70
    32
  0
VERTEX
  8
0
  5
BA7
 10
89.3191
 20
227.254
 30
0.000000
  70
    32
  0
VERTEX
  8
0
  5
BA8
 10
89.3251
 20
227.252
 30
0.000000
  70
    32
  0
VERTEX
  8
0
  5
BA9
 10
89.3310
 20
227.249
 30
0.000000
  70
    32
  0
VERTEX
  8
0
  5
BAA
 10
89.3368
 20
227.246
 30
0.000000
  70
    32
  0
VERTEX
  8
0
  5
BAB
 10
89.3426
 20
227.243
 30
0.000000
  70
    32
  0
VERTEX
  8
0
  5
BAC
 10
89.3484
 20
227.240
 30
0.000000
  70
    32
  0
VERTEX
  8
0
  5
BAD
 10
89.3541
 20
227.237
 30
0.000000
  70
    32
  0
VERTEX
  8
0
  5
BAE
 10
89.3597
 20
227.234
 30
0.000000
  70
    32
  0
VERTEX
  8
0
  5
BAF
 10
89.3653
 20
227.231
 30
0.000000
  70
    32
  0
VERTEX
  8
0
  5
BB0
 10
89.3709
 20
227.227
 30
0.000000
  70
    32
  0
VERTEX
  8
0
  5
BB1
 10
89.3764
 20
227.224
 30
0.000000
  70
    32
  0
VERTEX
  8
0
  5
BB2
 10
89.3818
 20
227.220
 30
0.000000
  70
    32
  0
VERTEX
  8
0
  5
BB3
 10
89.3872
 20
227.217
 30
0.000000
  70
    32
  0
VERTEX
  8
0
  5
BB4
 10
89.3925
 20
227.213
 30
0.000000
  70
    32
  0
VERTEX
  8
0
  5
BB5
 10
89.3978
 20
227.209
 30
0.000000
  70
    32
  0
VERTEX
  8
0
  5
BB6
 10
89.4029
 20
227.205
 30
0.000000
  70
    32
  0
VERTEX
  8
0
  5
BB7
 10
89.4080
 20
227.201
 30
0.000000
  70
    32
  0
VERTEX
  8
0
  5
BB8
 10
89.4131
 20
227.197
 30
0.000000
  70
    32
  0
VERTEX
  8
0
  5
BB9
 10
89.4181
 20
227.193
 30
0.000000
  70
    32
  0
VERTEX
  8
0
  5
BBA
 10
89.4230
 20
227.189
 30
0.000000
  70
    32
  0
VERTEX
  8
0
  5
BBB
 10
89.4278
 20
227.185
 30
0.000000
  70
    32
  0
VERTEX
  8
0
  5
BBC
 10
89.4325
 20
227.180
 30
0.000000
  70
    32
  0
VERTEX
  8
0
  5
BBD
 10
89.4372
 20
227.176
 30
0.000000
  70
    32
  0
VERTEX
  8
0
  5
BBE
 10
89.4417
 20
227.171
 30
0.000000
  70
    32
  0
VERTEX
  8
0
  5
BBF
 10
89.4462
 20
227.167
 30
0.000000
  70
    32
  0
VERTEX
  8
0
  5
BC0
 10
89.4506
 20
227.162
 30
0.000000
  70
    32
  0
VERTEX
  8
0
  5
BC1
 10
89.4550
 20
227.157
 30
0.000000
  70
    32
  0
VERTEX
  8
0
  5
BC2
 10
89.4592
 20
227.152
 30
0.000000
  70
    32
  0
VERTEX
  8
0
  5
BC3
 10
89.4633
 20
227.148
 30
0.000000
  70
    32
  0
VERTEX
  8
0
  5
BC4
 10
89.4673
 20
227.143
 30
0.000000
  70
    32
  0
VERTEX
  8
0
  5
BC5
 10
89.4713
 20
227.138
 30
0.000000
  70
    32
  0
VERTEX
  8
0
  5
BC6
 10
89.4751
 20
227.133
 30
0.000000
  70
    32
  0
VERTEX
  8
0
  5
BC7
 10
89.4788
 20
227.127
 30
0.000000
  70
    32
  0
VERTEX
  8
0
  5
BC8
 10
89.4825
 20
227.122
 30
0.000000
  70
    32
  0
VERTEX
  8
0
  5
BC9
 10
89.4860
 20
227.117
 30
0.000000
  70
    32
  0
VERTEX
  8
0
  5
BCA
 10
89.4894
 20
227.111
 30
0.000000
  70
    32
  0
VERTEX
  8
0
  5
BCB
 10
89.4927
 20
227.106
 30
0.000000
  70
    32
  0
VERTEX
  8
0
  5
BCC
 10
89.4959
 20
227.101
 30
0.000000
  70
    32
  0
VERTEX
  8
0
  5
BCD
 10
89.4990
 20
227.095
 30
0.000000
  70
    32
  0
VERTEX
  8
0
  5
BCE
 10
89.5019
 20
227.089
 30
0.000000
  70
    32
  0
VERTEX
  8
0
  5
BCF
 10
89.5048
 20
227.084
 30
0.000000
  70
    32
  0
VERTEX
  8
0
  5
BD0
 10
89.5075
 20
227.078
 30
0.000000
  70
    32
  0
VERTEX
  8
0
  5
BD1
 10
89.5102
 20
227.072
 30
0.000000
  70
    32
  0
VERTEX
  8
0
  5
BD2
 10
89.5127
 20
227.066
 30
0.000000
  70
    32
  0
VERTEX
  8
0
  5
BD3
 10
89.5151
 20
227.061
 30
0.000000
  70
    32
  0
VERTEX
  8
0
  5
BD4
 10
89.5174
 20
227.055
 30
0.000000
  70
    32
  0
VERTEX
  8
0
  5
BD5
 10
89.5196
 20
227.049
 30
0.000000
  70
    32
  0
VERTEX
  8
0
  5
BD6
 10
89.5217
 20
227.043
 30
0.000000
  70
    32
  0
VERTEX
  8
0
  5
BD7
 10
89.5236
 20
227.037
 30
0.000000
  70
    32
  0
VERTEX
  8
0
  5
BD8
 10
89.5255
 20
227.031
 30
0.000000
  70
    32
  0
VERTEX
  8
0
  5
BD9
 10
89.5273
 20
227.024
 30
0.000000
  70
    32
  0
VERTEX
  8
0
  5
BDA
 10
89.5289
 20
227.018
 30
0.000000
  70
    32
  0
VERTEX
  8
0
  5
BDB
 10
89.5305
 20
227.012
 30
0.000000
  70
    32
  0
VERTEX
  8
0
  5
BDC
 10
89.5320
 20
227.006
 30
0.000000
  70
    32
  0
VERTEX
  8
0
  5
BDD
 10
89.5333
 20
227.000
 30
0.000000
  70
    32
  0
VERTEX
  8
0
  5
BDE
 10
89.5346
 20
226.993
 30
0.000000
  70
    32
  0
VERTEX
  8
0
  5
BDF
 10
89.5357
 20
226.987
 30
0.000000
  70
    32
  0
VERTEX
  8
0
  5
BE0
 10
89.5368
 20
226.981
 30
0.000000
  70
    32
  0
VERTEX
  8
0
  5
BE1
 10
89.5378
 20
226.974
 30
0.000000
  70
    32
  0
VERTEX
  8
0
  5
BE2
 10
89.5386
 20
226.968
 30
0.000000
  70
    32
  0
VERTEX
  8
0
  5
BE3
 10
89.5394
 20
226.962
 30
0.000000
  70
    32
  0
VERTEX
  8
0
  5
BE4
 10
89.5401
 20
226.955
 30
0.000000
  70
    32
  0
VERTEX
  8
0
  5
BE5
 10
89.5406
 20
226.949
 30
0.000000
  70
    32
  0
VERTEX
  8
0
  5
BE6
 10
89.5411
 20
226.942
 30
0.000000
  70
    32
  0
VERTEX
  8
0
  5
BE7
 10
89.5415
 20
226.936
 30
0.000000
  70
    32
  0
VERTEX
  8
0
  5
BE8
 10
89.5418
 20
226.929
 30
0.000000
  70
    32
  0
VERTEX
  8
0
  5
BE9
 10
89.5420
 20
226.923
 30
0.000000
  70
    32
  0
VERTEX
  8
0
  5
BEA
 10
89.5421
 20
226.916
 30
0.000000
  70
    32
  0
VERTEX
  8
0
  5
BEB
 10
89.5422
 20
226.910
 30
0.000000
  70
    32
  0
VERTEX
  8
0
  5
BEC
 10
89.5421
 20
226.903
 30
0.000000
  70
    32
  0
VERTEX
  8
0
  5
BED
 10
89.5420
 20
226.897
 30
0.000000
  70
    32
  0
VERTEX
  8
0
  5
BEE
 10
89.5417
 20
226.890
 30
0.000000
  70
    32
  0
VERTEX
  8
0
  5
BEF
 10
89.5414
 20
226.884
 30
0.000000
  70
    32
  0
VERTEX
  8
0
  5
BF0
 10
89.5410
 20
226.878
 30
0.000000
  70
    32
  0
VERTEX
  8
0
  5
BF1
 10
89.5405
 20
226.871
 30
0.000000
  70
    32
  0
VERTEX
  8
0
  5
BF2
 10
89.5399
 20
226.865
 30
0.000000
  70
    32
  0
VERTEX
  8
0
  5
BF3
 10
89.5393
 20
226.858
 30
0.000000
  70
    32
  0
VERTEX
  8
0
  5
BF4
 10
89.5385
 20
226.852
 30
0.000000
  70
    32
  0
VERTEX
  8
0
  5
BF5
 10
89.5377
 20
226.845
 30
0.000000
  70
    32
  0
VERTEX
  8
0
  5
BF6
 10
89.5368
 20
226.839
 30
0.000000
  70
    32
  0
VERTEX
  8
0
  5
BF7
 10
89.5358
 20
226.833
 30
0.000000
  70
    32
  0
VERTEX
  8
0
  5
BF8
 10
89.5348
 20
226.826
 30
0.000000
  70
    32
  0
VERTEX
  8
0
  5
BF9
 10
89.5336
 20
226.820
 30
0.000000
  70
    32
  0
VERTEX
  8
0
  5
BFA
 10
89.5324
 20
226.814
 30
0.000000
  70
    32
  0
VERTEX
  8
0
  5
BFB
 10
89.5311
 20
226.807
 30
0.000000
  70
    32
  0
VERTEX
  8
0
  5
BFC
 10
89.5298
 20
226.801
 30
0.000000
  70
    32
  0
VERTEX
  8
0
  5
BFD
 10
89.5283
 20
226.795
 30
0.000000
  70
    32
  0
VERTEX
  8
0
  5
BFE
 10
89.5268
 20
226.789
 30
0.000000
  70
    32
  0
VERTEX
  8
0
  5
BFF
 10
89.5252
 20
226.782
 30
0.000000
  70
    32
  0
VERTEX
  8
0
  5
C00
 10
89.5235
 20
226.776
 30
0.000000
  70
    32
  0
VERTEX
  8
0
  5
C01
 10
89.5218
 20
226.770
 30
0.000000
  70
    32
  0
VERTEX
  8
0
  5
C02
 10
89.5200
 20
226.764
 30
0.000000
  70
    32
  0
VERTEX
  8
0
  5
C03
 10
89.5181
 20
226.758
 30
0.000000
  70
    32
  0
VERTEX
  8
0
  5
C04
 10
89.5161
 20
226.752
 30
0.000000
  70
    32
  0
VERTEX
  8
0
  5
C05
 10
89.5141
 20
226.746
 30
0.000000
  70
    32
  0
VERTEX
  8
0
  5
C06
 10
89.5120
 20
226.740
 30
0.000000
  70
    32
  0
VERTEX
  8
0
  5
C07
 10
89.5098
 20
226.734
 30
0.000000
  70
    32
  0
VERTEX
  8
0
  5
C08
 10
89.5076
 20
226.728
 30
0.000000
  70
    32
  0
VERTEX
  8
0
  5
C09
 10
89.5053
 20
226.722
 30
0.000000
  70
    32
  0
VERTEX
  8
0
  5
C0A
 10
89.5029
 20
226.716
 30
0.000000
  70
    32
  0
VERTEX
  8
0
  5
C0B
 10
89.5005
 20
226.710
 30
0.000000
  70
    32
  0
VERTEX
  8
0
  5
C0C
 10
89.4979
 20
226.705
 30
0.000000
  70
    32
  0
VERTEX
  8
0
  5
C0D
 10
89.4954
 20
226.699
 30
0.000000
  70
    32
  0
VERTEX
  8
0
  5
C0E
 10
89.4927
 20
226.693
 30
0.000000
  70
    32
  0
VERTEX
  8
0
  5
C0F
 10
89.4900
 20
226.687
 30
0.000000
  70
    32
  0
VERTEX
  8
0
  5
C10
 10
89.4872
 20
226.682
 30
0.000000
  70
    32
  0
VERTEX
  8
0
  5
C11
 10
89.4844
 20
226.676
 30
0.000000
  70
    32
  0
VERTEX
  8
0
  5
C12
 10
89.4815
 20
226.671
 30
0.000000
  70
    32
  0
VERTEX
  8
0
  5
C13
 10
89.4785
 20
226.665
 30
0.000000
  70
    32
  0
VERTEX
  8
0
  5
C14
 10
89.4755
 20
226.660
 30
0.000000
  70
    32
  0
VERTEX
  8
0
  5
C15
 10
89.4724
 20
226.654
 30
0.000000
  70
    32
  0
VERTEX
  8
0
  5
C16
 10
89.4692
 20
226.649
 30
0.000000
  70
    32
  0
VERTEX
  8
0
  5
C17
 10
89.4660
 20
226.643
 30
0.000000
  70
    32
  0
VERTEX
  8
0
  5
C18
 10
89.4627
 20
226.638
 30
0.000000
  70
    32
  0
VERTEX
  8
0
  5
C19
 10
89.4594
 20
226.633
 30
0.000000
  70
    32
  0
VERTEX
  8
0
  5
C1A
 10
89.4560
 20
226.627
 30
0.000000
  70
    32
  0
VERTEX
  8
0
  5
C1B
 10
89.4525
 20
226.622
 30
0.000000
  70
    32
  0
VERTEX
  8
0
  5
C1C
 10
89.4490
 20
226.617
 30
0.000000
  70
    32
  0
VERTEX
  8
0
  5
C1D
 10
89.4455
 20
226.612
 30
0.000000
  70
    32
  0
VERTEX
  8
0
  5
C1E
 10
89.4418
 20
226.607
 30
0.000000
  70
    32
  0
VERTEX
  8
0
  5
C1F
 10
89.4382
 20
226.602
 30
0.000000
  70
    32
  0
VERTEX
  8
0
  5
C20
 10
89.4344
 20
226.597
 30
0.000000
  70
    32
  0
VERTEX
  8
0
  5
C21
 10
89.4306
 20
226.592
 30
0.000000
  70
    32
  0
VERTEX
  8
0
  5
C22
 10
89.4268
 20
226.587
 30
0.000000
  70
    32
  0
VERTEX
  8
0
  5
C23
 10
89.4229
 20
226.582
 30
0.000000
  70
    32
  0
VERTEX
  8
0
  5
C24
 10
89.4190
 20
226.577
 30
0.000000
  70
    32
  0
VERTEX
  8
0
  5
C25
 10
89.4150
 20
226.572
 30
0.000000
  70
    32
  0
VERTEX
  8
0
  5
C26
 10
89.4109
 20
226.567
 30
0.000000
  70
    32
  0
VERTEX
  8
0
  5
C27
 10
89.4068
 20
226.563
 30
0.000000
  70
    32
  0
VERTEX
  8
0
  5
C28
 10
89.4027
 20
226.558
 30
0.000000
  70
    32
  0
VERTEX
  8
0
  5
C29
 10
89.3985
 20
226.553
 30
0.000000
  70
    32
  0
VERTEX
  8
0
  5
C2A
 10
89.3943
 20
226.549
 30
0.000000
  70
    32
  0
VERTEX
  8
0
  5
C2B
 10
89.3900
 20
226.544
 30
0.000000
  70
    32
  0
VERTEX
  8
0
  5
C2C
 10
89.3856
 20
226.539
 30
0.000000
  70
    32
  0
VERTEX
  8
0
  5
C2D
 10
89.3813
 20
226.535
 30
0.000000
  70
    32
  0
VERTEX
  8
0
  5
C2E
 10
89.3769
 20
226.530
 30
0.000000
  70
    32
  0
VERTEX
  8
0
  5
C2F
 10
89.3724
 20
226.526
 30
0.000000
  70
    32
  0
VERTEX
  8
0
  5
C30
 10
89.3679
 20
226.522
 30
0.000000
  70
    32
  0
VERTEX
  8
0
  5
C31
 10
89.3633
 20
226.517
 30
0.000000
  70
    32
  0
VERTEX
  8
0
  5
C32
 10
89.3588
 20
226.513
 30
0.000000
  70
    32
  0
VERTEX
  8
0
  5
C33
 10
89.3541
 20
226.509
 30
0.000000
  70
    32
  0
VERTEX
  8
0
  5
C34
 10
89.3495
 20
226.504
 30
0.000000
  70
    32
  0
VERTEX
  8
0
  5
C35
 10
89.3448
 20
226.500
 30
0.000000
  70
    32
  0
VERTEX
  8
0
  5
C36
 10
89.3400
 20
226.496
 30
0.000000
  70
    32
  0
VERTEX
  8
0
  5
C37
 10
89.3353
 20
226.492
 30
0.000000
  70
    32
  0
VERTEX
  8
0
  5
C38
 10
89.3304
 20
226.487
 30
0.000000
  70
    32
  0
VERTEX
  8
0
  5
C39
 10
89.3256
 20
226.483
 30
0.000000
  70
    32
  0
VERTEX
  8
0
  5
C3A
 10
89.3207
 20
226.479
 30
0.000000
  70
    32
  0
VERTEX
  8
0
  5
C3B
 10
89.3158
 20
226.475
 30
0.000000
  70
    32
  0
VERTEX
  8
0
  5
C3C
 10
89.3108
 20
226.471
 30
0.000000
  70
    32
  0
VERTEX
  8
0
  5
C3D
 10
89.3059
 20
226.467
 30
0.000000
  70
    32
  0
VERTEX
  8
0
  5
C3E
 10
89.3009
 20
226.463
 30
0.000000
  70
    32
  0
VERTEX
  8
0
  5
C3F
 10
89.2958
 20
226.459
 30
0.000000
  70
    32
  0
VERTEX
  8
0
  5
C40
 10
89.2907
 20
226.455
 30
0.000000
  70
    32
  0
VERTEX
  8
0
  5
C41
 10
89.2856
 20
226.451
 30
0.000000
  70
    32
  0
VERTEX
  8
0
  5
C42
 10
89.2805
 20
226.448
 30
0.000000
  70
    32
  0
VERTEX
  8
0
  5
C43
 10
89.2753
 20
226.444
 30
0.000000
  70
    32
  0
VERTEX
  8
0
  5
C44
 10
89.2702
 20
226.440
 30
0.000000
  70
    32
  0
VERTEX
  8
0
  5
C45
 10
89.2649
 20
226.436
 30
0.000000
  70
    32
  0
VERTEX
  8
0
  5
C46
 10
89.2597
 20
226.432
 30
0.000000
  70
    32
  0
VERTEX
  8
0
  5
C47
 10
89.2544
 20
226.429
 30
0.000000
  70
    32
  0
VERTEX
  8
0
  5
C48
 10
89.2491
 20
226.425
 30
0.000000
  70
    32
  0
VERTEX
  8
0
  5
C49
 10
89.2438
 20
226.421
 30
0.000000
  70
    32
  0
VERTEX
  8
0
  5
C4A
 10
89.2385
 20
226.418
 30
0.000000
  70
    32
  0
VERTEX
  8
0
  5
C4B
 10
89.2331
 20
226.414
 30
0.000000
  70
    32
  0
VERTEX
  8
0
  5
C4C
 10
89.2278
 20
226.411
 30
0.000000
  70
    32
  0
VERTEX
  8
0
  5
C4D
 10
89.2224
 20
226.407
 30
0.000000
  70
    32
  0
VERTEX
  8
0
  5
C4E
 10
89.2170
 20
226.403
 30
0.000000
  70
    32
  0
VERTEX
  8
0
  5
C4F
 10
89.2115
 20
226.400
 30
0.000000
  70
    32
  0
VERTEX
  8
0
  5
C50
 10
89.2061
 20
226.396
 30
0.000000
  70
    32
  0
VERTEX
  8
0
  5
C51
 10
89.2006
 20
226.393
 30
0.000000
  70
    32
  0
VERTEX
  8
0
  5
C52
 10
89.1951
 20
226.390
 30
0.000000
  70
    32
  0
VERTEX
  8
0
  5
C53
 10
89.1896
 20
226.386
 30
0.000000
  70
    32
  0
VERTEX
  8
0
  5
C54
 10
89.1841
 20
226.383
 30
0.000000
  70
    32
  0
VERTEX
  8
0
  5
C55
 10
89.1786
 20
226.379
 30
0.000000
  70
    32
  0
VERTEX
  8
0
  5
C56
 10
89.1730
 20
226.376
 30
0.000000
  70
    32
  0
VERTEX
  8
0
  5
C57
 10
89.1675
 20
226.373
 30
0.000000
  70
    32
  0
VERTEX
  8
0
  5
C58
 10
89.1619
 20
226.369
 30
0.000000
  70
    32
  0
VERTEX
  8
0
  5
C59
 10
89.1563
 20
226.366
 30
0.000000
  70
    32
  0
VERTEX
  8
0
  5
C5A
 10
89.1507
 20
226.363
 30
0.000000
  70
    32
  0
VERTEX
  8
0
  5
C5B
 10
89.1451
 20
226.360
 30
0.000000
  70
    32
  0
VERTEX
  8
0
  5
C5C
 10
89.1395
 20
226.356
 30
0.000000
  70
    32
  0
VERTEX
  8
0
  5
C5D
 10
89.1339
 20
226.353
 30
0.000000
  70
    32
  0
VERTEX
  8
0
  5
C5E
 10
89.1283
 20
226.350
 30
0.000000
  70
    32
  0
VERTEX
  8
0
  5
C5F
 10
89.1226
 20
226.347
 30
0.000000
  70
    32
  0
VERTEX
  8
0
  5
C60
 10
89.1170
 20
226.344
 30
0.000000
  70
    32
  0
VERTEX
  8
0
  5
C61
 10
89.1114
 20
226.341
 30
0.000000
  70
    32
  0
VERTEX
  8
0
  5
C62
 10
89.1057
 20
226.338
 30
0.000000
  70
    32
  0
VERTEX
  8
0
  5
C63
 10
89.1001
 20
226.335
 30
0.000000
  70
    32
  0
VERTEX
  8
0
  5
C64
 10
89.0944
 20
226.332
 30
0.000000
  70
    32
  0
VERTEX
  8
0
  5
C65
 10
89.0888
 20
226.329
 30
0.000000
  70
    32
  0
VERTEX
  8
0
  5
C66
 10
89.0831
 20
226.325
 30
0.000000
  70
    32
  0
VERTEX
  8
0
  5
C67
 10
89.0775
 20
226.322
 30
0.000000
  70
    32
  0
VERTEX
  8
0
  5
C68
 10
89.0718
 20
226.320
 30
0.000000
  70
    32
  0
VERTEX
  8
0
  5
C69
 10
89.0661
 20
226.317
 30
0.000000
  70
    32
  0
VERTEX
  8
0
  5
C6A
 10
89.0605
 20
226.314
 30
0.000000
  70
    32
  0
VERTEX
  8
0
  5
C6B
 10
89.0548
 20
226.311
 30
0.000000
  70
    32
  0
VERTEX
  8
0
  5
C6C
 10
89.0492
 20
226.308
 30
0.000000
  70
    32
  0
VERTEX
  8
0
  5
C6D
 10
89.0435
 20
226.305
 30
0.000000
  70
    32
  0
VERTEX
  8
0
  5
C6E
 10
89.0378
 20
226.302
 30
0.000000
  70
    32
  0
VERTEX
  8
0
  5
C6F
 10
89.0322
 20
226.299
 30
0.000000
  70
    32
  0
VERTEX
  8
0
  5
C70
 10
89.0265
 20
226.296
 30
0.000000
  70
    32
  0
VERTEX
  8
0
  5
C71
 10
89.0208
 20
226.293
 30
0.000000
  70
    32
  0
VERTEX
  8
0
  5
C72
 10
89.0152
 20
226.290
 30
0.000000
  70
    32
  0
VERTEX
  8
0
  5
C73
 10
89.0095
 20
226.288
 30
0.000000
  70
    32
  0
VERTEX
  8
0
  5
C74
 10
89.0038
 20
226.285
 30
0.000000
  70
    32
  0
VERTEX
  8
0
  5
C75
 10
88.9982
 20
226.282
 30
0.000000
  70
    32
  0
VERTEX
  8
0
  5
C76
 10
88.9925
 20
226.279
 30
0.000000
  70
    32
  0
VERTEX
  8
0
  5
C77
 10
88.9869
 20
226.276
 30
0.000000
  70
    32
  0
VERTEX
  8
0
  5
C78
 10
88.9812
 20
226.273
 30
0.000000
  70
    32
  0
VERTEX
  8
0
  5
C79
 10
88.9755
 20
226.271
 30
0.000000
  70
    32
  0
VERTEX
  8
0
  5
C7A
 10
88.9699
 20
226.268
 30
0.000000
  70
    32
  0
VERTEX
  8
0
  5
C7B
 10
88.9642
 20
226.265
 30
0.000000
  70
    32
  0
VERTEX
  8
0
  5
C7C
 10
88.9586
 20
226.262
 30
0.000000
  70
    32
  0
VERTEX
  8
0
  5
C7D
 10
88.9529
 20
226.259
 30
0.000000
  70
    32
  0
VERTEX
  8
0
  5
C7E
 10
88.9473
 20
226.257
 30
0.000000
  70
    32
  0
VERTEX
  8
0
  5
C7F
 10
88.9417
 20
226.254
 30
0.000000
  70
    32
  0
VERTEX
  8
0
  5
C80
 10
88.9360
 20
226.251
 30
0.000000
  70
    32
  0
VERTEX
  8
0
  5
C81
 10
88.9304
 20
226.248
 30
0.000000
  70
    32
  0
VERTEX
  8
0
  5
C82
 10
88.9248
 20
226.245
 30
0.000000
  70
    32
  0
VERTEX
  8
0
  5
C83
 10
88.9191
 20
226.243
 30
0.000000
  70
    32
  0
VERTEX
  8
0
  5
C84
 10
88.9135
 20
226.240
 30
0.000000
  70
    32
  0
VERTEX
  8
0
  5
C85
 10
88.9079
 20
226.237
 30
0.000000
  70
    32
  0
VERTEX
  8
0
  5
C86
 10
88.9023
 20
226.234
 30
0.000000
  70
    32
  0
VERTEX
  8
0
  5
C87
 10
88.8967
 20
226.231
 30
0.000000
  70
    32
  0
VERTEX
  8
0
  5
C88
 10
88.8911
 20
226.229
 30
0.000000
  70
    32
  0
VERTEX
  8
0
  5
C89
 10
88.8855
 20
226.226
 30
0.000000
  70
    32
  0
VERTEX
  8
0
  5
C8A
 10
88.8799
 20
226.223
 30
0.000000
  70
    32
  0
VERTEX
  8
0
  5
C8B
 10
88.8743
 20
226.220
 30
0.000000
  70
    32
  0
VERTEX
  8
0
  5
C8C
 10
88.8687
 20
226.217
 30
0.000000
  70
    32
  0
VERTEX
  8
0
  5
C8D
 10
88.8631
 20
226.214
 30
0.000000
  70
    32
  0
VERTEX
  8
0
  5
C8E
 10
88.8576
 20
226.211
 30
0.000000
  70
    32
  0
VERTEX
  8
0
  5
C8F
 10
88.8520
 20
226.209
 30
0.000000
  70
    32
  0
VERTEX
  8
0
  5
C90
 10
88.8464
 20
226.206
 30
0.000000
  70
    32
  0
VERTEX
  8
0
  5
C91
 10
88.8409
 20
226.203
 30
0.000000
  70
    32
  0
VERTEX
  8
0
  5
C92
 10
88.8353
 20
226.200
 30
0.000000
  70
    32
  0
VERTEX
  8
0
  5
C93
 10
88.8298
 20
226.197
 30
0.000000
  70
    32
  0
VERTEX
  8
0
  5
C94
 10
88.8243
 20
226.194
 30
0.000000
  70
    32
  0
VERTEX
  8
0
  5
C95
 10
88.8187
 20
226.191
 30
0.000000
  70
    32
  0
VERTEX
  8
0
  5
C96
 10
88.8132
 20
226.188
 30
0.000000
  70
    32
  0
VERTEX
  8
0
  5
C97
 10
88.8077
 20
226.185
 30
0.000000
  70
    32
  0
VERTEX
  8
0
  5
C98
 10
88.8022
 20
226.182
 30
0.000000
  70
    32
  0
VERTEX
  8
0
  5
C99
 10
88.7967
 20
226.179
 30
0.000000
  70
    32
  0
VERTEX
  8
0
  5
C9A
 10
88.7912
 20
226.176
 30
0.000000
  70
    32
  0
VERTEX
  8
0
  5
C9B
 10
88.7858
 20
226.173
 30
0.000000
  70
    32
  0
VERTEX
  8
0
  5
C9C
 10
88.7803
 20
226.170
 30
0.000000
  70
    32
  0
VERTEX
  8
0
  5
C9D
 10
88.7748
 20
226.167
 30
0.000000
  70
    32
  0
VERTEX
  8
0
  5
C9E
 10
88.7694
 20
226.164
 30
0.000000
  70
    32
  0
VERTEX
  8
0
  5
C9F
 10
88.7640
 20
226.161
 30
0.000000
  70
    32
  0
VERTEX
  8
0
  5
CA0
 10
88.7585
 20
226.158
 30
0.000000
  70
    32
  0
VERTEX
  8
0
  5
CA1
 10
88.7531
 20
226.154
 30
0.000000
  70
    32
  0
VERTEX
  8
0
  5
CA2
 10
88.7477
 20
226.151
 30
0.000000
  70
    32
  0
VERTEX
  8
0
  5
CA3
 10
88.7423
 20
226.148
 30
0.000000
  70
    32
  0
VERTEX
  8
0
  5
CA4
 10
88.7369
 20
226.145
 30
0.000000
  70
    32
  0
VERTEX
  8
0
  5
CA5
 10
88.7315
 20
226.141
 30
0.000000
  70
    32
  0
VERTEX
  8
0
  5
CA6
 10
88.7262
 20
226.138
 30
0.000000
  70
    32
  0
VERTEX
  8
0
  5
CA7
 10
88.7208
 20
226.135
 30
0.000000
  70
    32
  0
VERTEX
  8
0
  5
CA8
 10
88.7155
 20
226.132
 30
0.000000
  70
    32
  0
SEQEND
  8
0
  5
CA9
  0
LINE
  5
62A
  8
0
  6
CONTINUOUS
 62
     7
 10
88.715471
 20
226.131525
 30
0.0
 11
89.45949
 21
225.28151
 31
0.0
  0
LINE
  5
62B
  8
0
  6
CONTINUOUS
 62
     7
 10
89.45949
 20
225.28151
 30
0.0
 11
88.396317
 21
225.28151
 31
0.0
  0
LINE
  5
62C
  8
0
  6
CONTINUOUS
 62
     7
 10
88.396317
 20
225.28151
 30
0.0
 11
87.652298
 21
226.131525
 31
0.0
  0
LINE
  5
62D
  8
0
  6
CONTINUOUS
 62
     7
 10
87.652298
 20
226.131525
 30
0.0
 11
87.424538
 21
225.28151
 31
0.0
  0
LINE
  5
62E
  8
0
  6
CONTINUOUS
 62
     7
 10
84.106667
 20
226.80151
 30
0.0
 11
84.235283
 21
227.28151
 31
0.0
  0
LINE
  5
62F
  8
0
  6
CONTINUOUS
 62
     7
 10
84.235283
 20
227.28151
 30
0.0
 11
86.635283
 21
227.28151
 31
0.0
  0
LINE
  5
630
  8
0
  6
CONTINUOUS
 62
     7
 10
86.635283
 20
227.28151
 30
0.0
 11
86.506667
 21
226.80151
 31
0.0
  0
LINE
  5
631
  8
0
  6
CONTINUOUS
 62
     7
 10
86.506667
 20
226.80151
 30
0.0
 11
85.774888
 21
226.80151
 31
0.0
  0
LINE
  5
632
  8
0
  6
CONTINUOUS
 62
     7
 10
85.774888
 20
226.80151
 30
0.0
 11
85.367605
 21
225.28151
 31
0.0
  0
LINE
  5
633
  8
0
  6
CONTINUOUS
 62
     7
 10
85.367605
 20
225.28151
 30
0.0
 11
84.539384
 21
225.28151
 31
0.0
  0
LINE
  5
634
  8
0
  6
CONTINUOUS
 62
     7
 10
84.539384
 20
225.28151
 30
0.0
 11
84.946667
 21
226.80151
 31
0.0
  0
LINE
  5
635
  8
0
  6
CONTINUOUS
 62
     7
 10
84.946667
 20
226.80151
 30
0.0
 11
84.106667
 21
226.80151
 31
0.0
  0
LINE
  5
636
  8
0
  6
CONTINUOUS
 62
     7
 10
88.674692
 20
226.96151
 30
0.0
 11
87.874692
 21
226.96151
 31
0.0
  0
LINE
  5
637
  8
0
  6
CONTINUOUS
 62
     7
 10
87.874692
 20
226.96151
 30
0.0
 11
87.746077
 21
226.48151
 31
0.0
  0
LINE
  5
638
  8
0
  6
CONTINUOUS
 62
     7
 10
87.746077
 20
226.48151
 30
0.0
 11
88.346077
 21
226.48151
 31
0.0
  0
POLYLINE
  8
0
  5
CAA
  62
7
  66
     1
 10
0.000000
 20
0.000000
 30
0.000000
  70
     8
  0
VERTEX
  8
0
  5
CAB
 10
88.3461
 20
226.482
 30
0.000000
  70
    32
  0
VERTEX
  8
0
  5
CAC
 10
88.3486
 20
226.482
 30
0.000000
  70
    32
  0
VERTEX
  8
0
  5
CAD
 10
88.3512
 20
226.482
 30
0.000000
  70
    32
  0
VERTEX
  8
0
  5
CAE
 10
88.3537
 20
226.483
 30
0.000000
  70
    32
  0
VERTEX
  8
0
  5
CAF
 10
88.3563
 20
226.483
 30
0.000000
  70
    32
  0
VERTEX
  8
0
  5
CB0
 10
88.3588
 20
226.483
 30
0.000000
  70
    32
  0
VERTEX
  8
0
  5
CB1
 10
88.3614
 20
226.483
 30
0.000000
  70
    32
  0
VERTEX
  8
0
  5
CB2
 10
88.3639
 20
226.484
 30
0.000000
  70
    32
  0
VERTEX
  8
0
  5
CB3
 10
88.3665
 20
226.484
 30
0.000000
  70
    32
  0
VERTEX
  8
0
  5
CB4
 10
88.3690
 20
226.484
 30
0.000000
  70
    32
  0
VERTEX
  8
0
  5
CB5
 10
88.3716
 20
226.485
 30
0.000000
  70
    32
  0
VERTEX
  8
0
  5
CB6
 10
88.3741
 20
226.485
 30
0.000000
  70
    32
  0
VERTEX
  8
0
  5
CB7
 10
88.3767
 20
226.485
 30
0.000000
  70
    32
  0
VERTEX
  8
0
  5
CB8
 10
88.3792
 20
226.486
 30
0.000000
  70
    32
  0
VERTEX
  8
0
  5
CB9
 10
88.3818
 20
226.486
 30
0.000000
  70
    32
  0
VERTEX
  8
0
  5
CBA
 10
88.3843
 20
226.486
 30
0.000000
  70
    32
  0
VERTEX
  8
0
  5
CBB
 10
88.3869
 20
226.487
 30
0.000000
  70
    32
  0
VERTEX
  8
0
  5
CBC
 10
88.3894
 20
226.487
 30
0.000000
  70
    32
  0
VERTEX
  8
0
  5
CBD
 10
88.3919
 20
226.487
 30
0.000000
  70
    32
  0
VERTEX
  8
0
  5
CBE
 10
88.3945
 20
226.488
 30
0.000000
  70
    32
  0
VERTEX
  8
0
  5
CBF
 10
88.3970
 20
226.488
 30
0.000000
  70
    32
  0
VERTEX
  8
0
  5
CC0
 10
88.3996
 20
226.488
 30
0.000000
  70
    32
  0
VERTEX
  8
0
  5
CC1
 10
88.4021
 20
226.489
 30
0.000000
  70
    32
  0
VERTEX
  8
0
  5
CC2
 10
88.4047
 20
226.489
 30
0.000000
  70
    32
  0
VERTEX
  8
0
  5
CC3
 10
88.4072
 20
226.489
 30
0.000000
  70
    32
  0
VERTEX
  8
0
  5
CC4
 10
88.4098
 20
226.490
 30
0.000000
  70
    32
  0
VERTEX
  8
0
  5
CC5
 10
88.4123
 20
226.490
 30
0.000000
  70
    32
  0
VERTEX
  8
0
  5
CC6
 10
88.4149
 20
226.490
 30
0.000000
  70
    32
  0
VERTEX
  8
0
  5
CC7
 10
88.4175
 20
226.491
 30
0.000000
  70
    32
  0
VERTEX
  8
0
  5
CC8
 10
88.4200
 20
226.491
 30
0.000000
  70
    32
  0
VERTEX
  8
0
  5
CC9
 10
88.4226
 20
226.492
 30
0.000000
  70
    32
  0
VERTEX
  8
0
  5
CCA
 10
88.4252
 20
226.492
 30
0.000000
  70
    32
  0
VERTEX
  8
0
  5
CCB
 10
88.4277
 20
226.492
 30
0.000000
  70
    32
  0
VERTEX
  8
0
  5
CCC
 10
88.4303
 20
226.493
 30
0.000000
  70
    32
  0
VERTEX
  8
0
  5
CCD
 10
88.4329
 20
226.493
 30
0.000000
  70
    32
  0
VERTEX
  8
0
  5
CCE
 10
88.4354
 20
226.494
 30
0.000000
  70
    32
  0
VERTEX
  8
0
  5
CCF
 10
88.4380
 20
226.494
 30
0.000000
  70
    32
  0
VERTEX
  8
0
  5
CD0
 10
88.4406
 20
226.494
 30
0.000000
  70
    32
  0
VERTEX
  8
0
  5
CD1
 10
88.4432
 20
226.495
 30
0.000000
  70
    32
  0
VERTEX
  8
0
  5
CD2
 10
88.4458
 20
226.495
 30
0.000000
  70
    32
  0
VERTEX
  8
0
  5
CD3
 10
88.4484
 20
226.496
 30
0.000000
  70
    32
  0
VERTEX
  8
0
  5
CD4
 10
88.4510
 20
226.496
 30
0.000000
  70
    32
  0
VERTEX
  8
0
  5
CD5
 10
88.4536
 20
226.497
 30
0.000000
  70
    32
  0
VERTEX
  8
0
  5
CD6
 10
88.4562
 20
226.497
 30
0.000000
  70
    32
  0
VERTEX
  8
0
  5
CD7
 10
88.4588
 20
226.497
 30
0.000000
  70
    32
  0
VERTEX
  8
0
  5
CD8
 10
88.4614
 20
226.498
 30
0.000000
  70
    32
  0
VERTEX
  8
0
  5
CD9
 10
88.4640
 20
226.498
 30
0.000000
  70
    32
  0
VERTEX
  8
0
  5
CDA
 10
88.4666
 20
226.499
 30
0.000000
  70
    32
  0
VERTEX
  8
0
  5
CDB
 10
88.4692
 20
226.499
 30
0.000000
  70
    32
  0
VERTEX
  8
0
  5
CDC
 10
88.4718
 20
226.500
 30
0.000000
  70
    32
  0
VERTEX
  8
0
  5
CDD
 10
88.4744
 20
226.501
 30
0.000000
  70
    32
  0
VERTEX
  8
0
  5
CDE
 10
88.4770
 20
226.501
 30
0.000000
  70
    32
  0
VERTEX
  8
0
  5
CDF
 10
88.4796
 20
226.502
 30
0.000000
  70
    32
  0
VERTEX
  8
0
  5
CE0
 10
88.4822
 20
226.502
 30
0.000000
  70
    32
  0
VERTEX
  8
0
  5
CE1
 10
88.4848
 20
226.503
 30
0.000000
  70
    32
  0
VERTEX
  8
0
  5
CE2
 10
88.4874
 20
226.503
 30
0.000000
  70
    32
  0
VERTEX
  8
0
  5
CE3
 10
88.4900
 20
226.504
 30
0.000000
  70
    32
  0
VERTEX
  8
0
  5
CE4
 10
88.4926
 20
226.504
 30
0.000000
  70
    32
  0
VERTEX
  8
0
  5
CE5
 10
88.4952
 20
226.505
 30
0.000000
  70
    32
  0
VERTEX
  8
0
  5
CE6
 10
88.4978
 20
226.506
 30
0.000000
  70
    32
  0
VERTEX
  8
0
  5
CE7
 10
88.5004
 20
226.506
 30
0.000000
  70
    32
  0
VERTEX
  8
0
  5
CE8
 10
88.5029
 20
226.507
 30
0.000000
  70
    32
  0
VERTEX
  8
0
  5
CE9
 10
88.5055
 20
226.508
 30
0.000000
  70
    32
  0
VERTEX
  8
0
  5
CEA
 10
88.5081
 20
226.508
 30
0.000000
  70
    32
  0
VERTEX
  8
0
  5
CEB
 10
88.5107
 20
226.509
 30
0.000000
  70
    32
  0
VERTEX
  8
0
  5
CEC
 10
88.5132
 20
226.510
 30
0.000000
  70
    32
  0
VERTEX
  8
0
  5
CED
 10
88.5158
 20
226.510
 30
0.000000
  70
    32
  0
VERTEX
  8
0
  5
CEE
 10
88.5184
 20
226.511
 30
0.000000
  70
    32
  0
VERTEX
  8
0
  5
CEF
 10
88.5209
 20
226.512
 30
0.000000
  70
    32
  0
VERTEX
  8
0
  5
CF0
 10
88.5235
 20
226.513
 30
0.000000
  70
    32
  0
VERTEX
  8
0
  5
CF1
 10
88.5260
 20
226.513
 30
0.000000
  70
    32
  0
VERTEX
  8
0
  5
CF2
 10
88.5285
 20
226.514
 30
0.000000
  70
    32
  0
VERTEX
  8
0
  5
CF3
 10
88.5311
 20
226.515
 30
0.000000
  70
    32
  0
VERTEX
  8
0
  5
CF4
 10
88.5336
 20
226.516
 30
0.000000
  70
    32
  0
VERTEX
  8
0
  5
CF5
 10
88.5361
 20
226.517
 30
0.000000
  70
    32
  0
VERTEX
  8
0
  5
CF6
 10
88.5386
 20
226.518
 30
0.000000
  70
    32
  0
VERTEX
  8
0
  5
CF7
 10
88.5411
 20
226.518
 30
0.000000
  70
    32
  0
VERTEX
  8
0
  5
CF8
 10
88.5436
 20
226.519
 30
0.000000
  70
    32
  0
VERTEX
  8
0
  5
CF9
 10
88.5460
 20
226.520
 30
0.000000
  70
    32
  0
VERTEX
  8
0
  5
CFA
 10
88.5485
 20
226.521
 30
0.000000
  70
    32
  0
VERTEX
  8
0
  5
CFB
 10
88.5510
 20
226.522
 30
0.000000
  70
    32
  0
VERTEX
  8
0
  5
CFC
 10
88.5534
 20
226.523
 30
0.000000
  70
    32
  0
VERTEX
  8
0
  5
CFD
 10
88.5559
 20
226.524
 30
0.000000
  70
    32
  0
VERTEX
  8
0
  5
CFE
 10
88.5583
 20
226.525
 30
0.000000
  70
    32
  0
VERTEX
  8
0
  5
CFF
 10
88.5607
 20
226.526
 30
0.000000
  70
    32
  0
VERTEX
  8
0
  5
D00
 10
88.5631
 20
226.527
 30
0.000000
  70
    32
  0
VERTEX
  8
0
  5
D01
 10
88.5655
 20
226.528
 30
0.000000
  70
    32
  0
VERTEX
  8
0
  5
D02
 10
88.5679
 20
226.529
 30
0.000000
  70
    32
  0
VERTEX
  8
0
  5
D03
 10
88.5703
 20
226.530
 30
0.000000
  70
    32
  0
VERTEX
  8
0
  5
D04
 10
88.5727
 20
226.531
 30
0.000000
  70
    32
  0
VERTEX
  8
0
  5
D05
 10
88.5750
 20
226.532
 30
0.000000
  70
    32
  0
VERTEX
  8
0
  5
D06
 10
88.5773
 20
226.533
 30
0.000000
  70
    32
  0
VERTEX
  8
0
  5
D07
 10
88.5797
 20
226.534
 30
0.000000
  70
    32
  0
VERTEX
  8
0
  5
D08
 10
88.5820
 20
226.536
 30
0.000000
  70
    32
  0
VERTEX
  8
0
  5
D09
 10
88.5843
 20
226.537
 30
0.000000
  70
    32
  0
VERTEX
  8
0
  5
D0A
 10
88.5866
 20
226.538
 30
0.000000
  70
    32
  0
VERTEX
  8
0
  5
D0B
 10
88.5888
 20
226.539
 30
0.000000
  70
    32
  0
VERTEX
  8
0
  5
D0C
 10
88.5911
 20
226.540
 30
0.000000
  70
    32
  0
VERTEX
  8
0
  5
D0D
 10
88.5933
 20
226.542
 30
0.000000
  70
    32
  0
VERTEX
  8
0
  5
D0E
 10
88.5956
 20
226.543
 30
0.000000
  70
    32
  0
VERTEX
  8
0
  5
D0F
 10
88.5978
 20
226.544
 30
0.000000
  70
    32
  0
VERTEX
  8
0
  5
D10
 10
88.6000
 20
226.546
 30
0.000000
  70
    32
  0
VERTEX
  8
0
  5
D11
 10
88.6021
 20
226.547
 30
0.000000
  70
    32
  0
VERTEX
  8
0
  5
D12
 10
88.6043
 20
226.548
 30
0.000000
  70
    32
  0
VERTEX
  8
0
  5
D13
 10
88.6064
 20
226.550
 30
0.000000
  70
    32
  0
VERTEX
  8
0
  5
D14
 10
88.6086
 20
226.551
 30
0.000000
  70
    32
  0
VERTEX
  8
0
  5
D15
 10
88.6107
 20
226.552
 30
0.000000
  70
    32
  0
VERTEX
  8
0
  5
D16
 10
88.6128
 20
226.554
 30
0.000000
  70
    32
  0
VERTEX
  8
0
  5
D17
 10
88.6149
 20
226.555
 30
0.000000
  70
    32
  0
VERTEX
  8
0
  5
D18
 10
88.6169
 20
226.557
 30
0.000000
  70
    32
  0
VERTEX
  8
0
  5
D19
 10
88.6190
 20
226.558
 30
0.000000
  70
    32
  0
VERTEX
  8
0
  5
D1A
 10
88.6210
 20
226.560
 30
0.000000
  70
    32
  0
VERTEX
  8
0
  5
D1B
 10
88.6230
 20
226.561
 30
0.000000
  70
    32
  0
VERTEX
  8
0
  5
D1C
 10
88.6250
 20
226.563
 30
0.000000
  70
    32
  0
VERTEX
  8
0
  5
D1D
 10
88.6269
 20
226.565
 30
0.000000
  70
    32
  0
VERTEX
  8
0
  5
D1E
 10
88.6289
 20
226.566
 30
0.000000
  70
    32
  0
VERTEX
  8
0
  5
D1F
 10
88.6308
 20
226.568
 30
0.000000
  70
    32
  0
VERTEX
  8
0
  5
D20
 10
88.6327
 20
226.570
 30
0.000000
  70
    32
  0
VERTEX
  8
0
  5
D21
 10
88.6346
 20
226.571
 30
0.000000
  70
    32
  0
VERTEX
  8
0
  5
D22
 10
88.6364
 20
226.573
 30
0.000000
  70
    32
  0
VERTEX
  8
0
  5
D23
 10
88.6383
 20
226.575
 30
0.000000
  70
    32
  0
VERTEX
  8
0
  5
D24
 10
88.6401
 20
226.576
 30
0.000000
  70
    32
  0
VERTEX
  8
0
  5
D25
 10
88.6419
 20
226.578
 30
0.000000
  70
    32
  0
VERTEX
  8
0
  5
D26
 10
88.6437
 20
226.580
 30
0.000000
  70
    32
  0
VERTEX
  8
0
  5
D27
 10
88.6454
 20
226.582
 30
0.000000
  70
    32
  0
VERTEX
  8
0
  5
D28
 10
88.6472
 20
226.584
 30
0.000000
  70
    32
  0
VERTEX
  8
0
  5
D29
 10
88.6489
 20
226.586
 30
0.000000
  70
    32
  0
VERTEX
  8
0
  5
D2A
 10
88.6506
 20
226.588
 30
0.000000
  70
    32
  0
VERTEX
  8
0
  5
D2B
 10
88.6523
 20
226.589
 30
0.000000
  70
    32
  0
VERTEX
  8
0
  5
D2C
 10
88.6539
 20
226.591
 30
0.000000
  70
    32
  0
VERTEX
  8
0
  5
D2D
 10
88.6556
 20
226.593
 30
0.000000
  70
    32
  0
VERTEX
  8
0
  5
D2E
 10
88.6572
 20
226.595
 30
0.000000
  70
    32
  0
VERTEX
  8
0
  5
D2F
 10
88.6588
 20
226.597
 30
0.000000
  70
    32
  0
VERTEX
  8
0
  5
D30
 10
88.6604
 20
226.599
 30
0.000000
  70
    32
  0
VERTEX
  8
0
  5
D31
 10
88.6620
 20
226.601
 30
0.000000
  70
    32
  0
VERTEX
  8
0
  5
D32
 10
88.6635
 20
226.603
 30
0.000000
  70
    32
  0
VERTEX
  8
0
  5
D33
 10
88.6651
 20
226.605
 30
0.000000
  70
    32
  0
VERTEX
  8
0
  5
D34
 10
88.6666
 20
226.608
 30
0.000000
  70
    32
  0
VERTEX
  8
0
  5
D35
 10
88.6681
 20
226.610
 30
0.000000
  70
    32
  0
VERTEX
  8
0
  5
D36
 10
88.6696
 20
226.612
 30
0.000000
  70
    32
  0
VERTEX
  8
0
  5
D37
 10
88.6711
 20
226.614
 30
0.000000
  70
    32
  0
VERTEX
  8
0
  5
D38
 10
88.6726
 20
226.616
 30
0.000000
  70
    32
  0
VERTEX
  8
0
  5
D39
 10
88.6740
 20
226.618
 30
0.000000
  70
    32
  0
VERTEX
  8
0
  5
D3A
 10
88.6755
 20
226.620
 30
0.000000
  70
    32
  0
VERTEX
  8
0
  5
D3B
 10
88.6769
 20
226.623
 30
0.000000
  70
    32
  0
VERTEX
  8
0
  5
D3C
 10
88.6783
 20
226.625
 30
0.000000
  70
    32
  0
VERTEX
  8
0
  5
D3D
 10
88.6797
 20
226.627
 30
0.000000
  70
    32
  0
VERTEX
  8
0
  5
D3E
 10
88.6811
 20
226.629
 30
0.000000
  70
    32
  0
VERTEX
  8
0
  5
D3F
 10
88.6824
 20
226.631
 30
0.000000
  70
    32
  0
VERTEX
  8
0
  5
D40
 10
88.6838
 20
226.634
 30
0.000000
  70
    32
  0
VERTEX
  8
0
  5
D41
 10
88.6851
 20
226.636
 30
0.000000
  70
    32
  0
VERTEX
  8
0
  5
D42
 10
88.6864
 20
226.638
 30
0.000000
  70
    32
  0
VERTEX
  8
0
  5
D43
 10
88.6877
 20
226.641
 30
0.000000
  70
    32
  0
VERTEX
  8
0
  5
D44
 10
88.6890
 20
226.643
 30
0.000000
  70
    32
  0
VERTEX
  8
0
  5
D45
 10
88.6903
 20
226.645
 30
0.000000
  70
    32
  0
VERTEX
  8
0
  5
D46
 10
88.6916
 20
226.647
 30
0.000000
  70
    32
  0
VERTEX
  8
0
  5
D47
 10
88.6929
 20
226.650
 30
0.000000
  70
    32
  0
VERTEX
  8
0
  5
D48
 10
88.6941
 20
226.652
 30
0.000000
  70
    32
  0
VERTEX
  8
0
  5
D49
 10
88.6953
 20
226.654
 30
0.000000
  70
    32
  0
VERTEX
  8
0
  5
D4A
 10
88.6966
 20
226.657
 30
0.000000
  70
    32
  0
VERTEX
  8
0
  5
D4B
 10
88.6978
 20
226.659
 30
0.000000
  70
    32
  0
VERTEX
  8
0
  5
D4C
 10
88.6990
 20
226.661
 30
0.000000
  70
    32
  0
VERTEX
  8
0
  5
D4D
 10
88.7002
 20
226.664
 30
0.000000
  70
    32
  0
VERTEX
  8
0
  5
D4E
 10
88.7014
 20
226.666
 30
0.000000
  70
    32
  0
VERTEX
  8
0
  5
D4F
 10
88.7026
 20
226.669
 30
0.000000
  70
    32
  0
VERTEX
  8
0
  5
D50
 10
88.7037
 20
226.671
 30
0.000000
  70
    32
  0
VERTEX
  8
0
  5
D51
 10
88.7049
 20
226.673
 30
0.000000
  70
    32
  0
VERTEX
  8
0
  5
D52
 10
88.7060
 20
226.676
 30
0.000000
  70
    32
  0
VERTEX
  8
0
  5
D53
 10
88.7072
 20
226.678
 30
0.000000
  70
    32
  0
VERTEX
  8
0
  5
D54
 10
88.7083
 20
226.680
 30
0.000000
  70
    32
  0
VERTEX
  8
0
  5
D55
 10
88.7094
 20
226.683
 30
0.000000
  70
    32
  0
VERTEX
  8
0
  5
D56
 10
88.7105
 20
226.685
 30
0.000000
  70
    32
  0
VERTEX
  8
0
  5
D57
 10
88.7116
 20
226.688
 30
0.000000
  70
    32
  0
VERTEX
  8
0
  5
D58
 10
88.7127
 20
226.690
 30
0.000000
  70
    32
  0
VERTEX
  8
0
  5
D59
 10
88.7138
 20
226.693
 30
0.000000
  70
    32
  0
VERTEX
  8
0
  5
D5A
 10
88.7148
 20
226.695
 30
0.000000
  70
    32
  0
VERTEX
  8
0
  5
D5B
 10
88.7159
 20
226.697
 30
0.000000
  70
    32
  0
VERTEX
  8
0
  5
D5C
 10
88.7169
 20
226.700
 30
0.000000
  70
    32
  0
VERTEX
  8
0
  5
D5D
 10
88.7179
 20
226.702
 30
0.000000
  70
    32
  0
VERTEX
  8
0
  5
D5E
 10
88.7189
 20
226.705
 30
0.000000
  70
    32
  0
VERTEX
  8
0
  5
D5F
 10
88.7199
 20
226.707
 30
0.000000
  70
    32
  0
VERTEX
  8
0
  5
D60
 10
88.7209
 20
226.710
 30
0.000000
  70
    32
  0
VERTEX
  8
0
  5
D61
 10
88.7219
 20
226.712
 30
0.000000
  70
    32
  0
VERTEX
  8
0
  5
D62
 10
88.7228
 20
226.715
 30
0.000000
  70
    32
  0
VERTEX
  8
0
  5
D63
 10
88.7237
 20
226.717
 30
0.000000
  70
    32
  0
VERTEX
  8
0
  5
D64
 10
88.7247
 20
226.719
 30
0.000000
  70
    32
  0
VERTEX
  8
0
  5
D65
 10
88.7256
 20
226.722
 30
0.000000
  70
    32
  0
VERTEX
  8
0
  5
D66
 10
88.7264
 20
226.724
 30
0.000000
  70
    32
  0
VERTEX
  8
0
  5
D67
 10
88.7273
 20
226.727
 30
0.000000
  70
    32
  0
VERTEX
  8
0
  5
D68
 10
88.7282
 20
226.729
 30
0.000000
  70
    32
  0
VERTEX
  8
0
  5
D69
 10
88.7290
 20
226.732
 30
0.000000
  70
    32
  0
VERTEX
  8
0
  5
D6A
 10
88.7298
 20
226.734
 30
0.000000
  70
    32
  0
VERTEX
  8
0
  5
D6B
 10
88.7306
 20
226.737
 30
0.000000
  70
    32
  0
VERTEX
  8
0
  5
D6C
 10
88.7314
 20
226.739
 30
0.000000
  70
    32
  0
VERTEX
  8
0
  5
D6D
 10
88.7321
 20
226.742
 30
0.000000
  70
    32
  0
VERTEX
  8
0
  5
D6E
 10
88.7329
 20
226.744
 30
0.000000
  70
    32
  0
VERTEX
  8
0
  5
D6F
 10
88.7336
 20
226.747
 30
0.000000
  70
    32
  0
VERTEX
  8
0
  5
D70
 10
88.7343
 20
226.749
 30
0.000000
  70
    32
  0
VERTEX
  8
0
  5
D71
 10
88.7350
 20
226.752
 30
0.000000
  70
    32
  0
VERTEX
  8
0
  5
D72
 10
88.7357
 20
226.754
 30
0.000000
  70
    32
  0
VERTEX
  8
0
  5
D73
 10
88.7363
 20
226.757
 30
0.000000
  70
    32
  0
VERTEX
  8
0
  5
D74
 10
88.7369
 20
226.759
 30
0.000000
  70
    32
  0
VERTEX
  8
0
  5
D75
 10
88.7375
 20
226.762
 30
0.000000
  70
    32
  0
VERTEX
  8
0
  5
D76
 10
88.7381
 20
226.765
 30
0.000000
  70
    32
  0
VERTEX
  8
0
  5
D77
 10
88.7386
 20
226.767
 30
0.000000
  70
    32
  0
VERTEX
  8
0
  5
D78
 10
88.7392
 20
226.770
 30
0.000000
  70
    32
  0
VERTEX
  8
0
  5
D79
 10
88.7397
 20
226.772
 30
0.000000
  70
    32
  0
VERTEX
  8
0
  5
D7A
 10
88.7402
 20
226.775
 30
0.000000
  70
    32
  0
VERTEX
  8
0
  5
D7B
 10
88.7406
 20
226.777
 30
0.000000
  70
    32
  0
VERTEX
  8
0
  5
D7C
 10
88.7411
 20
226.780
 30
0.000000
  70
    32
  0
VERTEX
  8
0
  5
D7D
 10
88.7415
 20
226.782
 30
0.000000
  70
    32
  0
VERTEX
  8
0
  5
D7E
 10
88.7419
 20
226.785
 30
0.000000
  70
    32
  0
VERTEX
  8
0
  5
D7F
 10
88.7422
 20
226.787
 30
0.000000
  70
    32
  0
VERTEX
  8
0
  5
D80
 10
88.7426
 20
226.790
 30
0.000000
  70
    32
  0
VERTEX
  8
0
  5
D81
 10
88.7429
 20
226.793
 30
0.000000
  70
    32
  0
VERTEX
  8
0
  5
D82
 10
88.7431
 20
226.795
 30
0.000000
  70
    32
  0
VERTEX
  8
0
  5
D83
 10
88.7434
 20
226.798
 30
0.000000
  70
    32
  0
VERTEX
  8
0
  5
D84
 10
88.7436
 20
226.800
 30
0.000000
  70
    32
  0
VERTEX
  8
0
  5
D85
 10
88.7438
 20
226.803
 30
0.000000
  70
    32
  0
VERTEX
  8
0
  5
D86
 10
88.7440
 20
226.806
 30
0.000000
  70
    32
  0
VERTEX
  8
0
  5
D87
 10
88.7442
 20
226.808
 30
0.000000
  70
    32
  0
VERTEX
  8
0
  5
D88
 10
88.7443
 20
226.811
 30
0.000000
  70
    32
  0
VERTEX
  8
0
  5
D89
 10
88.7444
 20
226.813
 30
0.000000
  70
    32
  0
VERTEX
  8
0
  5
D8A
 10
88.7444
 20
226.816
 30
0.000000
  70
    32
  0
VERTEX
  8
0
  5
D8B
 10
88.7445
 20
226.819
 30
0.000000
  70
    32
  0
VERTEX
  8
0
  5
D8C
 10
88.7445
 20
226.821
 30
0.000000
  70
    32
  0
VERTEX
  8
0
  5
D8D
 10
88.7445
 20
226.824
 30
0.000000
  70
    32
  0
VERTEX
  8
0
  5
D8E
 10
88.7444
 20
226.826
 30
0.000000
  70
    32
  0
VERTEX
  8
0
  5
D8F
 10
88.7443
 20
226.829
 30
0.000000
  70
    32
  0
VERTEX
  8
0
  5
D90
 10
88.7442
 20
226.832
 30
0.000000
  70
    32
  0
VERTEX
  8
0
  5
D91
 10
88.7440
 20
226.834
 30
0.000000
  70
    32
  0
VERTEX
  8
0
  5
D92
 10
88.7439
 20
226.837
 30
0.000000
  70
    32
  0
VERTEX
  8
0
  5
D93
 10
88.7436
 20
226.840
 30
0.000000
  70
    32
  0
VERTEX
  8
0
  5
D94
 10
88.7434
 20
226.842
 30
0.000000
  70
    32
  0
VERTEX
  8
0
  5
D95
 10
88.7431
 20
226.845
 30
0.000000
  70
    32
  0
VERTEX
  8
0
  5
D96
 10
88.7428
 20
226.848
 30
0.000000
  70
    32
  0
VERTEX
  8
0
  5
D97
 10
88.7425
 20
226.850
 30
0.000000
  70
    32
  0
VERTEX
  8
0
  5
D98
 10
88.7421
 20
226.853
 30
0.000000
  70
    32
  0
VERTEX
  8
0
  5
D99
 10
88.7417
 20
226.855
 30
0.000000
  70
    32
  0
VERTEX
  8
0
  5
D9A
 10
88.7412
 20
226.858
 30
0.000000
  70
    32
  0
VERTEX
  8
0
  5
D9B
 10
88.7407
 20
226.861
 30
0.000000
  70
    32
  0
VERTEX
  8
0
  5
D9C
 10
88.7402
 20
226.863
 30
0.000000
  70
    32
  0
VERTEX
  8
0
  5
D9D
 10
88.7397
 20
226.866
 30
0.000000
  70
    32
  0
VERTEX
  8
0
  5
D9E
 10
88.7391
 20
226.869
 30
0.000000
  70
    32
  0
VERTEX
  8
0
  5
D9F
 10
88.7385
 20
226.871
 30
0.000000
  70
    32
  0
VERTEX
  8
0
  5
DA0
 10
88.7378
 20
226.874
 30
0.000000
  70
    32
  0
VERTEX
  8
0
  5
DA1
 10
88.7371
 20
226.877
 30
0.000000
  70
    32
  0
VERTEX
  8
0
  5
DA2
 10
88.7364
 20
226.879
 30
0.000000
  70
    32
  0
VERTEX
  8
0
  5
DA3
 10
88.7356
 20
226.882
 30
0.000000
  70
    32
  0
VERTEX
  8
0
  5
DA4
 10
88.7348
 20
226.885
 30
0.000000
  70
    32
  0
VERTEX
  8
0
  5
DA5
 10
88.7339
 20
226.887
 30
0.000000
  70
    32
  0
VERTEX
  8
0
  5
DA6
 10
88.7331
 20
226.890
 30
0.000000
  70
    32
  0
VERTEX
  8
0
  5
DA7
 10
88.7321
 20
226.893
 30
0.000000
  70
    32
  0
VERTEX
  8
0
  5
DA8
 10
88.7312
 20
226.895
 30
0.000000
  70
    32
  0
VERTEX
  8
0
  5
DA9
 10
88.7302
 20
226.898
 30
0.000000
  70
    32
  0
VERTEX
  8
0
  5
DAA
 10
88.7292
 20
226.900
 30
0.000000
  70
    32
  0
VERTEX
  8
0
  5
DAB
 10
88.7281
 20
226.903
 30
0.000000
  70
    32
  0
VERTEX
  8
0
  5
DAC
 10
88.7270
 20
226.905
 30
0.000000
  70
    32
  0
VERTEX
  8
0
  5
DAD
 10
88.7258
 20
226.908
 30
0.000000
  70
    32
  0
VERTEX
  8
0
  5
DAE
 10
88.7246
 20
226.910
 30
0.000000
  70
    32
  0
VERTEX
  8
0
  5
DAF
 10
88.7234
 20
226.913
 30
0.000000
  70
    32
  0
VERTEX
  8
0
  5
DB0
 10
88.7221
 20
226.915
 30
0.000000
  70
    32
  0
VERTEX
  8
0
  5
DB1
 10
88.7208
 20
226.917
 30
0.000000
  70
    32
  0
VERTEX
  8
0
  5
DB2
 10
88.7195
 20
226.920
 30
0.000000
  70
    32
  0
VERTEX
  8
0
  5
DB3
 10
88.7181
 20
226.922
 30
0.000000
  70
    32
  0
VERTEX
  8
0
  5
DB4
 10
88.7167
 20
226.924
 30
0.000000
  70
    32
  0
VERTEX
  8
0
  5
DB5
 10
88.7152
 20
226.926
 30
0.000000
  70
    32
  0
VERTEX
  8
0
  5
DB6
 10
88.7137
 20
226.929
 30
0.000000
  70
    32
  0
VERTEX
  8
0
  5
DB7
 10
88.7122
 20
226.931
 30
0.000000
  70
    32
  0
VERTEX
  8
0
  5
DB8
 10
88.7106
 20
226.933
 30
0.000000
  70
    32
  0
VERTEX
  8
0
  5
DB9
 10
88.7089
 20
226.935
 30
0.000000
  70
    32
  0
VERTEX
  8
0
  5
DBA
 10
88.7073
 20
226.937
 30
0.000000
  70
    32
  0
VERTEX
  8
0
  5
DBB
 10
88.7056
 20
226.939
 30
0.000000
  70
    32
  0
VERTEX
  8
0
  5
DBC
 10
88.7038
 20
226.941
 30
0.000000
  70
    32
  0
VERTEX
  8
0
  5
DBD
 10
88.7020
 20
226.943
 30
0.000000
  70
    32
  0
VERTEX
  8
0
  5
DBE
 10
88.7002
 20
226.944
 30
0.000000
  70
    32
  0
VERTEX
  8
0
  5
DBF
 10
88.6983
 20
226.946
 30
0.000000
  70
    32
  0
VERTEX
  8
0
  5
DC0
 10
88.6963
 20
226.948
 30
0.000000
  70
    32
  0
VERTEX
  8
0
  5
DC1
 10
88.6944
 20
226.950
 30
0.000000
  70
    32
  0
VERTEX
  8
0
  5
DC2
 10
88.6924
 20
226.951
 30
0.000000
  70
    32
  0
VERTEX
  8
0
  5
DC3
 10
88.6903
 20
226.953
 30
0.000000
  70
    32
  0
VERTEX
  8
0
  5
DC4
 10
88.6882
 20
226.954
 30
0.000000
  70
    32
  0
VERTEX
  8
0
  5
DC5
 10
88.6861
 20
226.956
 30
0.000000
  70
    32
  0
VERTEX
  8
0
  5
DC6
 10
88.6839
 20
226.957
 30
0.000000
  70
    32
  0
VERTEX
  8
0
  5
DC7
 10
88.6816
 20
226.958
 30
0.000000
  70
    32
  0
VERTEX
  8
0
  5
DC8
 10
88.6794
 20
226.959
 30
0.000000
  70
    32
  0
VERTEX
  8
0
  5
DC9
 10
88.6771
 20
226.960
 30
0.000000
  70
    32
  0
VERTEX
  8
0
  5
DCA
 10
88.6747
 20
226.962
 30
0.000000
  70
    32
  0
SEQEND
  8
0
  5
DCB
  0
LINE
  5
63A
  8
0
  6
CONTINUOUS
 62
     7
 10
82.582286
 20
226.057982
 30
0.0
 11
82.910129
 21
227.28151
 31
0.0
  0
LINE
  5
63B
  8
0
  6
CONTINUOUS
 62
     7
 10
82.910129
 20
227.28151
 30
0.0
 11
83.73835
 21
227.28151
 31
0.0
  0
LINE
  5
63C
  8
0
  6
CONTINUOUS
 62
     7
 10
83.73835
 20
227.28151
 30
0.0
 11
83.40105
 21
226.022691
 31
0.0
  0
ARC
  5
63D
  8
0
  6
CONTINUOUS
 62
     7
 10
82.435125
 20
226.28151
 30
0.0
 40
1.0
 50
270.0
 51
345.0
  0
LINE
  5
63E
  8
0
  6
CONTINUOUS
 62
     7
 10
82.435125
 20
225.28151
 30
0.0
 11
81.525032
 21
225.28151
 31
0.0
  0
ARC
  5
63F
  8
0
  6
CONTINUOUS
 62
     7
 10
81.525032
 20
226.08151
 30
0.0
 40
0.8
 50
165.0
 51
270.0
  0
LINE
  5
640
  8
0
  6
CONTINUOUS
 62
     7
 10
80.752291
 20
226.288565
 30
0.0
 11
81.01835
 21
227.28151
 31
0.0
  0
LINE
  5
641
  8
0
  6
CONTINUOUS
 62
     7
 10
81.01835
 20
227.28151
 30
0.0
 11
81.846571
 21
227.28151
 31
0.0
  0
LINE
  5
642
  8
0
  6
CONTINUOUS
 62
     7
 10
81.846571
 20
227.28151
 30
0.0
 11
81.547224
 21
226.164332
 31
0.0
  0
ARC
  5
643
  8
0
  6
CONTINUOUS
 62
     7
 10
81.85632
 20
226.08151
 30
0.0
 40
0.32
 50
165.0
 51
270.0
  0
LINE
  5
644
  8
0
  6
CONTINUOUS
 62
     7
 10
81.85632
 20
225.76151
 30
0.0
 11
82.195915
 21
225.76151
 31
0.0
  0
ARC
  5
645
  8
0
  6
CONTINUOUS
 62
     7
 10
82.195915
 20
226.16151
 30
0.0
 40
0.4
 50
270.0
 51
345.0
  0
LINE
  5
646
  8
0
  6
CONTINUOUS
 62
     7
 10
77.585519
 20
225.28151
 30
0.0
 11
78.121417
 21
227.28151
 31
0.0
  0
LINE
  5
647
  8
0
  6
CONTINUOUS
 62
     7
 10
78.121417
 20
227.28151
 30
0.0
 11
80.521417
 21
227.28151
 31
0.0
  0
LINE
  5
648
  8
0
  6
CONTINUOUS
 62
     7
 10
80.521417
 20
227.28151
 30
0.0
 11
80.392802
 21
226.80151
 31
0.0
  0
LINE
  5
649
  8
0
  6
CONTINUOUS
 62
     7
 10
80.392802
 20
226.80151
 30
0.0
 11
78.821023
 21
226.80151
 31
0.0
  0
LINE
  5
64A
  8
0
  6
CONTINUOUS
 62
     7
 10
78.821023
 20
226.80151
 30
0.0
 11
78.745997
 21
226.52151
 31
0.0
  0
LINE
  5
64B
  8
0
  6
CONTINUOUS
 62
     7
 10
78.745997
 20
226.52151
 30
0.0
 11
79.945997
 21
226.52151
 31
0.0
  0
LINE
  5
64C
  8
0
  6
CONTINUOUS
 62
     7
 10
79.945997
 20
226.52151
 30
0.0
 11
79.817381
 21
226.04151
 31
0.0
  0
LINE
  5
64D
  8
0
  6
CONTINUOUS
 62
     7
 10
79.817381
 20
226.04151
 30
0.0
 11
78.617381
 21
226.04151
 31
0.0
  0
LINE
  5
64E
  8
0
  6
CONTINUOUS
 62
     7
 10
78.617381
 20
226.04151
 30
0.0
 11
78.542356
 21
225.76151
 31
0.0
  0
LINE
  5
64F
  8
0
  6
CONTINUOUS
 62
     7
 10
78.542356
 20
225.76151
 30
0.0
 11
80.114135
 21
225.76151
 31
0.0
  0
LINE
  5
650
  8
0
  6
CONTINUOUS
 62
     7
 10
80.114135
 20
225.76151
 30
0.0
 11
79.985519
 21
225.28151
 31
0.0
  0
LINE
  5
651
  8
0
  6
CONTINUOUS
 62
     7
 10
79.985519
 20
225.28151
 30
0.0
 11
77.585519
 21
225.28151
 31
0.0
  0
LINE
  5
652
  8
0
  6
CONTINUOUS
 62
     7
 10
76.52981
 20
226.287091
 30
0.0
 11
76.796264
 21
227.28151
 31
0.0
  0
LINE
  5
653
  8
0
  6
CONTINUOUS
 62
     7
 10
76.796264
 20
227.28151
 30
0.0
 11
77.624485
 21
227.28151
 31
0.0
  0
LINE
  5
654
  8
0
  6
CONTINUOUS
 62
     7
 10
77.624485
 20
227.28151
 30
0.0
 11
77.088586
 21
225.28151
 31
0.0
  0
LINE
  5
655
  8
0
  6
CONTINUOUS
 62
     7
 10
77.088586
 20
225.28151
 30
0.0
 11
76.288586
 21
225.28151
 31
0.0
  0
LINE
  5
656
  8
0
  6
CONTINUOUS
 62
     7
 10
76.288586
 20
225.28151
 30
0.0
 11
75.534059
 21
226.275928
 31
0.0
  0
LINE
  5
657
  8
0
  6
CONTINUOUS
 62
     7
 10
75.534059
 20
226.275928
 30
0.0
 11
75.267605
 21
225.28151
 31
0.0
  0
LINE
  5
658
  8
0
  6
CONTINUOUS
 62
     7
 10
75.267605
 20
225.28151
 30
0.0
 11
74.439384
 21
225.28151
 31
0.0
  0
LINE
  5
659
  8
0
  6
CONTINUOUS
 62
     7
 10
74.439384
 20
225.28151
 30
0.0
 11
74.975283
 21
227.28151
 31
0.0
  0
LINE
  5
65A
  8
0
  6
CONTINUOUS
 62
     7
 10
74.975283
 20
227.28151
 30
0.0
 11
75.775283
 21
227.28151
 31
0.0
  0
LINE
  5
65B
  8
0
  6
CONTINUOUS
 62
     7
 10
75.775283
 20
227.28151
 30
0.0
 11
76.52981
 21
226.287091
 31
0.0
  0
LINE
  5
65C
  8
0
  6
CONTINUOUS
 62
     7
 10
81.401884
 20
207.560226
 30
0.0
 11
81.089384
 21
207.687886
 31
0.0
  0
LINE
  5
65D
  8
0
  6
CONTINUOUS
 62
     7
 10
81.089384
 20
207.687886
 30
0.0
 11
81.339384
 21
207.879375
 31
0.0
  0
LINE
  5
65E
  8
0
  6
CONTINUOUS
 62
     7
 10
81.339384
 20
207.879375
 30
0.0
 11
81.464384
 21
208.070864
 31
0.0
  0
LINE
  5
65F
  8
0
  6
CONTINUOUS
 62
     7
 10
81.464384
 20
208.070864
 30
0.0
 11
81.526884
 21
208.326183
 31
0.0
  0
LINE
  5
660
  8
0
  6
CONTINUOUS
 62
     7
 10
81.526884
 20
208.326183
 30
0.0
 11
81.526884
 21
208.453843
 31
0.0
  0
LINE
  5
661
  8
0
  6
CONTINUOUS
 62
     7
 10
81.526884
 20
208.453843
 30
0.0
 11
81.464384
 21
208.709162
 31
0.0
  0
LINE
  5
662
  8
0
  6
CONTINUOUS
 62
     7
 10
81.464384
 20
208.709162
 30
0.0
 11
81.214384
 21
208.964481
 31
0.0
  0
LINE
  5
663
  8
0
  6
CONTINUOUS
 62
     7
 10
81.214384
 20
208.964481
 30
0.0
 11
80.964384
 21
209.092141
 31
0.0
  0
LINE
  5
664
  8
0
  6
CONTINUOUS
 62
     7
 10
80.964384
 20
209.092141
 30
0.0
 11
80.526884
 21
209.155971
 31
0.0
  0
LINE
  5
665
  8
0
  6
CONTINUOUS
 62
     7
 10
80.526884
 20
209.155971
 30
0.0
 11
80.401884
 21
209.155971
 31
0.0
  0
LINE
  5
666
  8
0
  6
CONTINUOUS
 62
     7
 10
80.401884
 20
209.155971
 30
0.0
 11
79.964384
 21
209.092141
 31
0.0
  0
LINE
  5
667
  8
0
  6
CONTINUOUS
 62
     7
 10
79.964384
 20
209.092141
 30
0.0
 11
79.714384
 21
208.964481
 31
0.0
  0
LINE
  5
668
  8
0
  6
CONTINUOUS
 62
     7
 10
79.714384
 20
208.964481
 30
0.0
 11
79.464384
 21
208.709162
 31
0.0
  0
LINE
  5
669
  8
0
  6
CONTINUOUS
 62
     7
 10
79.464384
 20
208.709162
 30
0.0
 11
79.401884
 21
208.453843
 31
0.0
  0
LINE
  5
66A
  8
0
  6
CONTINUOUS
 62
     7
 10
79.401884
 20
208.453843
 30
0.0
 11
79.714384
 21
208.453843
 31
0.0
  0
LINE
  5
66B
  8
0
  6
CONTINUOUS
 62
     7
 10
79.714384
 20
208.453843
 30
0.0
 11
79.839384
 21
208.645332
 31
0.0
  0
LINE
  5
66C
  8
0
  6
CONTINUOUS
 62
     7
 10
79.839384
 20
208.645332
 30
0.0
 11
80.026884
 21
208.772992
 31
0.0
  0
LINE
  5
66D
  8
0
  6
CONTINUOUS
 62
     7
 10
80.026884
 20
208.772992
 30
0.0
 11
80.339384
 21
208.836822
 31
0.0
  0
LINE
  5
66E
  8
0
  6
CONTINUOUS
 62
     7
 10
80.339384
 20
208.836822
 30
0.0
 11
80.589384
 21
208.836822
 31
0.0
  0
LINE
  5
66F
  8
0
  6
CONTINUOUS
 62
     7
 10
80.589384
 20
208.836822
 30
0.0
 11
80.901884
 21
208.772992
 31
0.0
  0
LINE
  5
670
  8
0
  6
CONTINUOUS
 62
     7
 10
80.901884
 20
208.772992
 30
0.0
 11
81.089384
 21
208.645332
 31
0.0
  0
LINE
  5
671
  8
0
  6
CONTINUOUS
 62
     7
 10
81.089384
 20
208.645332
 30
0.0
 11
81.214384
 21
208.453843
 31
0.0
  0
LINE
  5
672
  8
0
  6
CONTINUOUS
 62
     7
 10
81.214384
 20
208.453843
 30
0.0
 11
81.214384
 21
208.326183
 31
0.0
  0
LINE
  5
673
  8
0
  6
CONTINUOUS
 62
     7
 10
81.214384
 20
208.326183
 30
0.0
 11
81.089384
 21
208.070864
 31
0.0
  0
LINE
  5
674
  8
0
  6
CONTINUOUS
 62
     7
 10
81.089384
 20
208.070864
 30
0.0
 11
80.964384
 21
207.943205
 31
0.0
  0
LINE
  5
675
  8
0
  6
CONTINUOUS
 62
     7
 10
80.964384
 20
207.943205
 30
0.0
 11
80.589384
 21
207.815545
 31
0.0
  0
LINE
  5
676
  8
0
  6
CONTINUOUS
 62
     7
 10
80.589384
 20
207.815545
 30
0.0
 11
80.339384
 21
207.815545
 31
0.0
  0
LINE
  5
677
  8
0
  6
CONTINUOUS
 62
     7
 10
80.339384
 20
207.815545
 30
0.0
 11
80.339384
 21
207.560226
 31
0.0
  0
LINE
  5
678
  8
0
  6
CONTINUOUS
 62
     7
 10
80.339384
 20
207.560226
 30
0.0
 11
80.589384
 21
207.560226
 31
0.0
  0
LINE
  5
679
  8
0
  6
CONTINUOUS
 62
     7
 10
80.589384
 20
207.560226
 30
0.0
 11
80.964384
 21
207.496396
 31
0.0
  0
LINE
  5
67A
  8
0
  6
CONTINUOUS
 62
     7
 10
80.964384
 20
207.496396
 30
0.0
 11
81.151884
 21
207.368737
 31
0.0
  0
LINE
  5
67B
  8
0
  6
CONTINUOUS
 62
     7
 10
81.151884
 20
207.368737
 30
0.0
 11
81.276884
 21
207.113417
 31
0.0
  0
LINE
  5
67C
  8
0
  6
CONTINUOUS
 62
     7
 10
81.276884
 20
207.113417
 30
0.0
 11
81.276884
 21
206.858098
 31
0.0
  0
LINE
  5
67D
  8
0
  6
CONTINUOUS
 62
     7
 10
81.276884
 20
206.858098
 30
0.0
 11
81.214384
 21
206.730439
 31
0.0
  0
LINE
  5
67E
  8
0
  6
CONTINUOUS
 62
     7
 10
81.214384
 20
206.730439
 30
0.0
 11
81.089384
 21
206.602779
 31
0.0
  0
LINE
  5
67F
  8
0
  6
CONTINUOUS
 62
     7
 10
81.089384
 20
206.602779
 30
0.0
 11
80.964384
 21
206.538949
 31
0.0
  0
LINE
  5
680
  8
0
  6
CONTINUOUS
 62
     7
 10
80.964384
 20
206.538949
 30
0.0
 11
80.651884
 21
206.47512
 31
0.0
  0
LINE
  5
681
  8
0
  6
CONTINUOUS
 62
     7
 10
80.651884
 20
206.47512
 30
0.0
 11
80.276884
 21
206.47512
 31
0.0
  0
LINE
  5
682
  8
0
  6
CONTINUOUS
 62
     7
 10
80.276884
 20
206.47512
 30
0.0
 11
79.964384
 21
206.538949
 31
0.0
  0
LINE
  5
683
  8
0
  6
CONTINUOUS
 62
     7
 10
79.964384
 20
206.538949
 30
0.0
 11
79.839384
 21
206.602779
 31
0.0
  0
LINE
  5
684
  8
0
  6
CONTINUOUS
 62
     7
 10
79.839384
 20
206.602779
 30
0.0
 11
79.714384
 21
206.730439
 31
0.0
  0
LINE
  5
685
  8
0
  6
CONTINUOUS
 62
     7
 10
79.714384
 20
206.730439
 30
0.0
 11
79.651884
 21
206.858098
 31
0.0
  0
LINE
  5
686
  8
0
  6
CONTINUOUS
 62
     7
 10
79.651884
 20
206.858098
 30
0.0
 11
79.339384
 21
206.858098
 31
0.0
  0
LINE
  5
687
  8
0
  6
CONTINUOUS
 62
     7
 10
79.339384
 20
206.858098
 30
0.0
 11
79.401884
 21
206.666609
 31
0.0
  0
LINE
  5
688
  8
0
  6
CONTINUOUS
 62
     7
 10
79.401884
 20
206.666609
 30
0.0
 11
79.526884
 21
206.47512
 31
0.0
  0
LINE
  5
689
  8
0
  6
CONTINUOUS
 62
     7
 10
79.526884
 20
206.47512
 30
0.0
 11
79.714384
 21
206.34746
 31
0.0
  0
LINE
  5
68A
  8
0
  6
CONTINUOUS
 62
     7
 10
79.714384
 20
206.34746
 30
0.0
 11
79.964384
 21
206.2198
 31
0.0
  0
LINE
  5
68B
  8
0
  6
CONTINUOUS
 62
     7
 10
79.964384
 20
206.2198
 30
0.0
 11
80.214384
 21
206.155971
 31
0.0
  0
LINE
  5
68C
  8
0
  6
CONTINUOUS
 62
     7
 10
80.214384
 20
206.155971
 30
0.0
 11
80.714384
 21
206.155971
 31
0.0
  0
LINE
  5
68D
  8
0
  6
CONTINUOUS
 62
     7
 10
80.714384
 20
206.155971
 30
0.0
 11
80.964384
 21
206.2198
 31
0.0
  0
LINE
  5
68E
  8
0
  6
CONTINUOUS
 62
     7
 10
80.964384
 20
206.2198
 30
0.0
 11
81.214384
 21
206.34746
 31
0.0
  0
LINE
  5
68F
  8
0
  6
CONTINUOUS
 62
     7
 10
81.214384
 20
206.34746
 30
0.0
 11
81.401884
 21
206.47512
 31
0.0
  0
LINE
  5
690
  8
0
  6
CONTINUOUS
 62
     7
 10
81.401884
 20
206.47512
 30
0.0
 11
81.526884
 21
206.666609
 31
0.0
  0
LINE
  5
691
  8
0
  6
CONTINUOUS
 62
     7
 10
73.339384
 20
211.28151
 30
0.0
 11
75.589384
 21
211.28151
 31
0.0
  0
LINE
  5
692
  8
0
  6
CONTINUOUS
 62
     7
 10
75.589384
 20
211.28151
 30
0.0
 11
75.589384
 21
211.600659
 31
0.0
  0
LINE
  5
693
  8
0
  6
CONTINUOUS
 62
     7
 10
75.589384
 20
211.600659
 30
0.0
 11
73.839384
 21
211.600659
 31
0.0
  0
LINE
  5
694
  8
0
  6
CONTINUOUS
 62
     7
 10
73.839384
 20
211.600659
 30
0.0
 11
75.401884
 21
213.004914
 31
0.0
  0
LINE
  5
695
  8
0
  6
CONTINUOUS
 62
     7
 10
75.401884
 20
213.004914
 30
0.0
 11
75.526884
 21
213.196403
 31
0.0
  0
LINE
  5
696
  8
0
  6
CONTINUOUS
 62
     7
 10
75.526884
 20
213.196403
 30
0.0
 11
75.589384
 21
213.451722
 31
0.0
  0
LINE
  5
697
  8
0
  6
CONTINUOUS
 62
     7
 10
75.589384
 20
213.451722
 30
0.0
 11
75.589384
 21
213.579382
 31
0.0
  0
LINE
  5
698
  8
0
  6
CONTINUOUS
 62
     7
 10
75.589384
 20
213.579382
 30
0.0
 11
75.526884
 21
213.834701
 31
0.0
  0
LINE
  5
699
  8
0
  6
CONTINUOUS
 62
     7
 10
75.526884
 20
213.834701
 30
0.0
 11
75.276884
 21
214.09002
 31
0.0
  0
LINE
  5
69A
  8
0
  6
CONTINUOUS
 62
     7
 10
75.276884
 20
214.09002
 30
0.0
 11
75.026884
 21
214.21768
 31
0.0
  0
LINE
  5
69B
  8
0
  6
CONTINUOUS
 62
     7
 10
75.026884
 20
214.21768
 30
0.0
 11
74.651884
 21
214.28151
 31
0.0
  0
LINE
  5
69C
  8
0
  6
CONTINUOUS
 62
     7
 10
74.651884
 20
214.28151
 30
0.0
 11
74.401884
 21
214.28151
 31
0.0
  0
LINE
  5
69D
  8
0
  6
CONTINUOUS
 62
     7
 10
74.401884
 20
214.28151
 30
0.0
 11
73.964384
 21
214.21768
 31
0.0
  0
LINE
  5
69E
  8
0
  6
CONTINUOUS
 62
     7
 10
73.964384
 20
214.21768
 30
0.0
 11
73.714384
 21
214.09002
 31
0.0
  0
LINE
  5
69F
  8
0
  6
CONTINUOUS
 62
     7
 10
73.714384
 20
214.09002
 30
0.0
 11
73.464384
 21
213.834701
 31
0.0
  0
LINE
  5
6A0
  8
0
  6
CONTINUOUS
 62
     7
 10
73.464384
 20
213.834701
 30
0.0
 11
73.401884
 21
213.579382
 31
0.0
  0
LINE
  5
6A1
  8
0
  6
CONTINUOUS
 62
     7
 10
73.401884
 20
213.579382
 30
0.0
 11
73.714384
 21
213.579382
 31
0.0
  0
LINE
  5
6A2
  8
0
  6
CONTINUOUS
 62
     7
 10
73.714384
 20
213.579382
 30
0.0
 11
73.839384
 21
213.770872
 31
0.0
  0
LINE
  5
6A3
  8
0
  6
CONTINUOUS
 62
     7
 10
73.839384
 20
213.770872
 30
0.0
 11
74.026884
 21
213.898531
 31
0.0
  0
LINE
  5
6A4
  8
0
  6
CONTINUOUS
 62
     7
 10
74.026884
 20
213.898531
 30
0.0
 11
74.339384
 21
213.962361
 31
0.0
  0
LINE
  5
6A5
  8
0
  6
CONTINUOUS
 62
     7
 10
74.339384
 20
213.962361
 30
0.0
 11
74.589384
 21
213.962361
 31
0.0
  0
LINE
  5
6A6
  8
0
  6
CONTINUOUS
 62
     7
 10
74.589384
 20
213.962361
 30
0.0
 11
74.901884
 21
213.898531
 31
0.0
  0
LINE
  5
6A7
  8
0
  6
CONTINUOUS
 62
     7
 10
74.901884
 20
213.898531
 30
0.0
 11
75.089384
 21
213.770872
 31
0.0
  0
LINE
  5
6A8
  8
0
  6
CONTINUOUS
 62
     7
 10
75.089384
 20
213.770872
 30
0.0
 11
75.214384
 21
213.579382
 31
0.0
  0
LINE
  5
6A9
  8
0
  6
CONTINUOUS
 62
     7
 10
75.214384
 20
213.579382
 30
0.0
 11
75.214384
 21
213.451722
 31
0.0
  0
LINE
  5
6AA
  8
0
  6
CONTINUOUS
 62
     7
 10
75.214384
 20
213.451722
 30
0.0
 11
75.089384
 21
213.196403
 31
0.0
  0
LINE
  5
6AB
  8
0
  6
CONTINUOUS
 62
     7
 10
75.089384
 20
213.196403
 30
0.0
 11
73.339384
 21
211.600659
 31
0.0
  0
LINE
  5
6AC
  8
0
  6
CONTINUOUS
 62
     7
 10
73.339384
 20
211.600659
 30
0.0
 11
73.339384
 21
211.28151
 31
0.0
  0
LINE
  5
6AD
  8
0
  6
CONTINUOUS
 62
     7
 10
94.889384
 20
214.28151
 30
0.0
 11
94.514384
 21
214.28151
 31
0.0
  0
LINE
  5
6AE
  8
0
  6
CONTINUOUS
 62
     7
 10
94.514384
 20
214.28151
 30
0.0
 11
94.139384
 21
213.834701
 31
0.0
  0
LINE
  5
6AF
  8
0
  6
CONTINUOUS
 62
     7
 10
94.139384
 20
213.834701
 30
0.0
 11
94.139384
 21
213.324063
 31
0.0
  0
LINE
  5
6B0
  8
0
  6
CONTINUOUS
 62
     7
 10
94.139384
 20
213.324063
 30
0.0
 11
94.514384
 21
213.770872
 31
0.0
  0
LINE
  5
6B1
  8
0
  6
CONTINUOUS
 62
     7
 10
94.514384
 20
213.770872
 30
0.0
 11
94.514384
 21
211.28151
 31
0.0
  0
LINE
  5
6B2
  8
0
  6
CONTINUOUS
 62
     7
 10
94.514384
 20
211.28151
 30
0.0
 11
94.889384
 21
211.28151
 31
0.0
  0
LINE
  5
6B3
  8
0
  6
CONTINUOUS
 62
     7
 10
94.889384
 20
211.28151
 30
0.0
 11
94.889384
 21
214.28151
 31
0.0
  0
LINE
  5
6B4
  8
0
  6
CONTINUOUS
 62
     7
 10
74.536319
 20
230.512941
 30
0.0
 11
74.571496
 21
230.488309
 31
0.0
  0
LINE
  5
6B5
  8
0
  6
CONTINUOUS
 62
     7
 10
72.307953
 20
228.284575
 30
0.0
 11
72.341906
 21
228.260801
 31
0.0
  0
ARC
  5
6B6
  8
0
  6
CONTINUOUS
 62
     7
 10
73.225676
 20
229.595218
 30
0.0
 40
1.6
 50
51.666667
 51
235.0
  0
LINE
  5
6B7
  8
0
  6
CONTINUOUS
 62
     7
 10
74.546527
 20
230.520088
 30
0.0
 11
74.541423
 21
230.516514
 31
0.0
  0
LINE
  5
6B8
  8
0
  6
CONTINUOUS
 62
     7
 10
74.541423
 20
230.516514
 30
0.0
 11
74.536319
 21
230.512941
 31
0.0
  0
LINE
  5
6B9
  8
0
  6
CONTINUOUS
 62
     7
 10
72.300806
 20
228.274367
 30
0.0
 11
72.30438
 21
228.279471
 31
0.0
  0
ARC
  5
6BA
  8
0
  6
CONTINUOUS
 62
     7
 10
84.539384
 20
218.28151
 30
0.0
 40
15.8
 50
129.231801
 51
129.276774
  0
ARC
  5
6BB
  8
0
  6
CONTINUOUS
 62
     7
 10
84.539384
 20
218.28151
 30
0.0
 40
19.5
 50
342.079787
 51
342.865164
  0
ARC
  5
6BC
  8
0
  6
CONTINUOUS
 62
     7
 10
84.539384
 20
218.28151
 30
0.0
 40
19.5
 50
342.865164
 51
343.921623
  0
ARC
  5
6BD
  8
0
  6
CONTINUOUS
 62
     7
 10
84.539384
 20
218.28151
 30
0.0
 40
19.5
 50
343.921623
 51
347.095656
  0
ARC
  5
6BE
  8
0
  6
CONTINUOUS
 62
     7
 10
84.539384
 20
218.28151
 30
0.0
 40
19.5
 50
347.095656
 51
347.825663
  0
ARC
  5
6BF
  8
0
  6
CONTINUOUS
 62
     7
 10
84.539384
 20
218.28151
 30
0.0
 40
19.5
 50
12.951437
 51
14.01356
  0
ARC
  5
6C0
  8
0
  6
CONTINUOUS
 62
     7
 10
84.539384
 20
218.28151
 30
0.0
 40
19.5
 50
14.01356
 51
17.631815
  0
ARC
  5
6C1
  8
0
  6
CONTINUOUS
 62
     7
 10
84.539384
 20
218.28151
 30
0.0
 40
19.5
 50
17.631815
 51
17.863857
  0
ARC
  5
6C2
  8
0
  6
CONTINUOUS
 62
     7
 10
84.539384
 20
218.28151
 30
0.0
 40
19.5
 50
17.863857
 51
17.920213
  0
ARC
  5
6C3
  8
0
  6
CONTINUOUS
 62
     7
 10
84.539384
 20
218.28151
 30
0.0
 40
19.5
 50
282.542232
 51
283.552479
  0
ARC
  5
6C4
  8
0
  6
CONTINUOUS
 62
     7
 10
84.539384
 20
218.28151
 30
0.0
 40
19.5
 50
283.552479
 51
286.639451
  0
ARC
  5
6C5
  8
0
  6
CONTINUOUS
 62
     7
 10
84.539384
 20
218.28151
 30
0.0
 40
19.5
 50
286.639451
 51
287.250067
  0
ARC
  5
6C6
  8
0
  6
CONTINUOUS
 62
     7
 10
84.539384
 20
218.28151
 30
0.0
 40
19.5
 50
287.250067
 51
287.514269
  0
ARC
  5
6C7
  8
0
  6
CONTINUOUS
 62
     7
 10
84.539384
 20
218.28151
 30
0.0
 40
19.5
 50
287.514269
 51
287.920213
  0
ARC
  5
6C8
  8
0
  6
CONTINUOUS
 62
     7
 10
84.539384
 20
218.28151
 30
0.0
 40
19.5
 50
252.079787
 51
252.484393
  0
ARC
  5
6C9
  8
0
  6
CONTINUOUS
 62
     7
 10
84.539384
 20
218.28151
 30
0.0
 40
19.5
 50
252.484393
 51
253.358024
  0
ARC
  5
6CA
  8
0
  6
CONTINUOUS
 62
     7
 10
84.539384
 20
218.28151
 30
0.0
 40
19.5
 50
253.358024
 51
256.445583
  0
ARC
  5
6CB
  8
0
  6
CONTINUOUS
 62
     7
 10
84.539384
 20
218.28151
 30
0.0
 40
19.5
 50
256.445583
 51
257.456345
  0
ARC
  5
6CC
  8
0
  6
CONTINUOUS
 62
     7
 10
84.539384
 20
218.28151
 30
0.0
 40
19.5
 50
192.173032
 51
192.90126
  0
ARC
  5
6CD
  8
0
  6
CONTINUOUS
 62
     7
 10
84.539384
 20
218.28151
 30
0.0
 40
19.5
 50
192.90126
 51
196.076614
  0
ARC
  5
6CE
  8
0
  6
CONTINUOUS
 62
     7
 10
84.539384
 20
218.28151
 30
0.0
 40
19.5
 50
196.076614
 51
197.133354
  0
ARC
  5
6CF
  8
0
  6
CONTINUOUS
 62
     7
 10
84.539384
 20
218.28151
 30
0.0
 40
19.5
 50
197.133354
 51
197.920213
  0
ARC
  5
6D0
  8
0
  6
CONTINUOUS
 62
     7
 10
84.539384
 20
218.28151
 30
0.0
 40
19.5
 50
162.079787
 51
162.134876
  0
ARC
  5
6D1
  8
0
  6
CONTINUOUS
 62
     7
 10
84.539384
 20
218.28151
 30
0.0
 40
19.5
 50
162.134876
 51
162.362419
  0
ARC
  5
6D2
  8
0
  6
CONTINUOUS
 62
     7
 10
84.539384
 20
218.28151
 30
0.0
 40
19.5
 50
162.362419
 51
165.984887
  0
ARC
  5
6D3
  8
0
  6
CONTINUOUS
 62
     7
 10
84.539384
 20
218.28151
 30
0.0
 40
19.5
 50
165.984887
 51
167.046908
  0
ARC
  5
6D4
  8
0
  6
CONTINUOUS
 62
     7
 10
84.539384
 20
210.28151
 30
0.0
 40
2.5
 50
90.0
 51
270.0
  0
ARC
  5
6D5
  8
0
  6
CONTINUOUS
 62
     7
 10
84.539384
 20
210.28151
 30
0.0
 40
2.5
 50
270.0
 51
90.0
  0
ARC
  5
6D6
  8
0
  6
CONTINUOUS
 62
     7
 10
76.539384
 20
218.28151
 30
0.0
 40
2.5
 50
270.0
 51
90.0
  0
ARC
  5
6D7
  8
0
  6
CONTINUOUS
 62
     7
 10
76.539384
 20
218.28151
 30
0.0
 40
2.5
 50
90.0
 51
270.0
  0
ARC
  5
6D8
  8
0
  6
CONTINUOUS
 62
     7
 10
92.539384
 20
218.28151
 30
0.0
 40
2.5
 50
270.0
 51
277.223408
  0
ARC
  5
6D9
  8
0
  6
CONTINUOUS
 62
     7
 10
92.539384
 20
218.28151
 30
0.0
 40
2.5
 50
277.223408
 51
82.776592
  0
ARC
  5
6DA
  8
0
  6
CONTINUOUS
 62
     7
 10
92.539384
 20
218.28151
 30
0.0
 40
2.5
 50
82.776592
 51
90.0
  0
ARC
  5
6DB
  8
0
  6
CONTINUOUS
 62
     7
 10
92.539384
 20
218.28151
 30
0.0
 40
2.5
 50
262.776592
 51
270.0
  0
ARC
  5
6DC
  8
0
  6
CONTINUOUS
 62
     7
 10
92.539384
 20
218.28151
 30
0.0
 40
2.5
 50
97.223408
 51
262.776592
  0
ARC
  5
6DD
  8
0
  6
CONTINUOUS
 62
     7
 10
92.539384
 20
218.28151
 30
0.0
 40
2.5
 50
90.0
 51
97.223408
  0
ARC
  5
6DE
  8
0
  6
CONTINUOUS
 62
     7
 10
84.539384
 20
218.28151
 30
0.0
 40
15.8
 50
129.22961
 51
129.277116
  0
ARC
  5
6DF
  8
0
  6
CONTINUOUS
 62
     7
 10
84.539384
 20
218.28151
 30
0.0
 40
15.8
 50
128.90588
 51
129.22961
  0
ARC
  5
6E0
  8
0
  6
CONTINUOUS
 62
     7
 10
84.539384
 20
218.28151
 30
0.0
 40
15.8
 50
94.114378
 51
128.90588
  0
ARC
  5
6E1
  8
0
  6
CONTINUOUS
 62
     7
 10
84.539384
 20
218.28151
 30
0.0
 40
15.8
 50
90.0
 51
94.114378
  0
ARC
  5
6E2
  8
0
  6
CONTINUOUS
 62
     7
 10
84.539384
 20
218.28151
 30
0.0
 40
15.8
 50
270.0
 51
274.190768
  0
ARC
  5
6E3
  8
0
  6
CONTINUOUS
 62
     7
 10
84.539384
 20
218.28151
 30
0.0
 40
15.8
 50
274.190768
 51
85.809232
  0
ARC
  5
6E4
  8
0
  6
CONTINUOUS
 62
     7
 10
84.539384
 20
218.28151
 30
0.0
 40
15.8
 50
85.809232
 51
90.0
  0
ARC
  5
6E5
  8
0
  6
CONTINUOUS
 62
     7
 10
84.539384
 20
218.28151
 30
0.0
 40
15.8
 50
265.833563
 51
270.0
  0
ARC
  5
6E7
  8
0
  6
CONTINUOUS
 62
     7
 10
84.539384
 20
218.28151
 30
0.0
 40
15.8
 50
140.768212
 51
141.08803
  0
ARC
  5
6E8
  8
0
  6
CONTINUOUS
 62
     7
 10
73.225676
 20
229.595218
 30
0.0
 40
1.6
 50
35.0
 51
51.666667
  0
POLYLINE
  8
0
  5
DCC
  62
7
  66
     1
 10
0.000000
 20
0.000000
 30
0.000000
  70
     8
  0
VERTEX
  8
0
  5
DCD
 10
75.0602
 20
228.311
 30
0.000000
  70
    32
  0
VERTEX
  8
0
  5
DCE
 10
75.0587
 20
228.318
 30
0.000000
  70
    32
  0
VERTEX
  8
0
  5
DCF
 10
75.0573
 20
228.326
 30
0.000000
  70
    32
  0
VERTEX
  8
0
  5
DD0
 10
75.0559
 20
228.334
 30
0.000000
  70
    32
  0
VERTEX
  8
0
  5
DD1
 10
75.0544
 20
228.341
 30
0.000000
  70
    32
  0
VERTEX
  8
0
  5
DD2
 10
75.0530
 20
228.349
 30
0.000000
  70
    32
  0
VERTEX
  8
0
  5
DD3
 10
75.0516
 20
228.357
 30
0.000000
  70
    32
  0
VERTEX
  8
0
  5
DD4
 10
75.0501
 20
228.364
 30
0.000000
  70
    32
  0
VERTEX
  8
0
  5
DD5
 10
75.0487
 20
228.372
 30
0.000000
  70
    32
  0
VERTEX
  8
0
  5
DD6
 10
75.0473
 20
228.380
 30
0.000000
  70
    32
  0
VERTEX
  8
0
  5
DD7
 10
75.0459
 20
228.387
 30
0.000000
  70
    32
  0
VERTEX
  8
0
  5
DD8
 10
75.0445
 20
228.395
 30
0.000000
  70
    32
  0
VERTEX
  8
0
  5
DD9
 10
75.0431
 20
228.403
 30
0.000000
  70
    32
  0
VERTEX
  8
0
  5
DDA
 10
75.0417
 20
228.411
 30
0.000000
  70
    32
  0
VERTEX
  8
0
  5
DDB
 10
75.0403
 20
228.418
 30
0.000000
  70
    32
  0
VERTEX
  8
0
  5
DDC
 10
75.0389
 20
228.426
 30
0.000000
  70
    32
  0
VERTEX
  8
0
  5
DDD
 10
75.0375
 20
228.434
 30
0.000000
  70
    32
  0
VERTEX
  8
0
  5
DDE
 10
75.0361
 20
228.441
 30
0.000000
  70
    32
  0
VERTEX
  8
0
  5
DDF
 10
75.0347
 20
228.449
 30
0.000000
  70
    32
  0
VERTEX
  8
0
  5
DE0
 10
75.0333
 20
228.457
 30
0.000000
  70
    32
  0
VERTEX
  8
0
  5
DE1
 10
75.0319
 20
228.464
 30
0.000000
  70
    32
  0
VERTEX
  8
0
  5
DE2
 10
75.0305
 20
228.472
 30
0.000000
  70
    32
  0
VERTEX
  8
0
  5
DE3
 10
75.0291
 20
228.480
 30
0.000000
  70
    32
  0
VERTEX
  8
0
  5
DE4
 10
75.0277
 20
228.487
 30
0.000000
  70
    32
  0
VERTEX
  8
0
  5
DE5
 10
75.0264
 20
228.495
 30
0.000000
  70
    32
  0
VERTEX
  8
0
  5
DE6
 10
75.0250
 20
228.503
 30
0.000000
  70
    32
  0
VERTEX
  8
0
  5
DE7
 10
75.0236
 20
228.510
 30
0.000000
  70
    32
  0
VERTEX
  8
0
  5
DE8
 10
75.0222
 20
228.518
 30
0.000000
  70
    32
  0
VERTEX
  8
0
  5
DE9
 10
75.0209
 20
228.526
 30
0.000000
  70
    32
  0
VERTEX
  8
0
  5
DEA
 10
75.0195
 20
228.534
 30
0.000000
  70
    32
  0
VERTEX
  8
0
  5
DEB
 10
75.0181
 20
228.541
 30
0.000000
  70
    32
  0
VERTEX
  8
0
  5
DEC
 10
75.0168
 20
228.549
 30
0.000000
  70
    32
  0
VERTEX
  8
0
  5
DED
 10
75.0154
 20
228.557
 30
0.000000
  70
    32
  0
VERTEX
  8
0
  5
DEE
 10
75.0140
 20
228.564
 30
0.000000
  70
    32
  0
VERTEX
  8
0
  5
DEF
 10
75.0127
 20
228.572
 30
0.000000
  70
    32
  0
VERTEX
  8
0
  5
DF0
 10
75.0113
 20
228.580
 30
0.000000
  70
    32
  0
VERTEX
  8
0
  5
DF1
 10
75.0099
 20
228.587
 30
0.000000
  70
    32
  0
VERTEX
  8
0
  5
DF2
 10
75.0086
 20
228.595
 30
0.000000
  70
    32
  0
VERTEX
  8
0
  5
DF3
 10
75.0072
 20
228.603
 30
0.000000
  70
    32
  0
VERTEX
  8
0
  5
DF4
 10
75.0059
 20
228.610
 30
0.000000
  70
    32
  0
VERTEX
  8
0
  5
DF5
 10
75.0045
 20
228.618
 30
0.000000
  70
    32
  0
VERTEX
  8
0
  5
DF6
 10
75.0032
 20
228.626
 30
0.000000
  70
    32
  0
VERTEX
  8
0
  5
DF7
 10
75.0018
 20
228.634
 30
0.000000
  70
    32
  0
VERTEX
  8
0
  5
DF8
 10
75.0005
 20
228.641
 30
0.000000
  70
    32
  0
VERTEX
  8
0
  5
DF9
 10
74.9991
 20
228.649
 30
0.000000
  70
    32
  0
VERTEX
  8
0
  5
DFA
 10
74.9978
 20
228.657
 30
0.000000
  70
    32
  0
VERTEX
  8
0
  5
DFB
 10
74.9964
 20
228.664
 30
0.000000
  70
    32
  0
VERTEX
  8
0
  5
DFC
 10
74.9951
 20
228.672
 30
0.000000
  70
    32
  0
VERTEX
  8
0
  5
DFD
 10
74.9937
 20
228.680
 30
0.000000
  70
    32
  0
VERTEX
  8
0
  5
DFE
 10
74.9924
 20
228.687
 30
0.000000
  70
    32
  0
VERTEX
  8
0
  5
DFF
 10
74.9910
 20
228.695
 30
0.000000
  70
    32
  0
VERTEX
  8
0
  5
E00
 10
74.9897
 20
228.703
 30
0.000000
  70
    32
  0
VERTEX
  8
0
  5
E01
 10
74.9884
 20
228.710
 30
0.000000
  70
    32
  0
VERTEX
  8
0
  5
E02
 10
74.9870
 20
228.718
 30
0.000000
  70
    32
  0
VERTEX
  8
0
  5
E03
 10
74.9857
 20
228.726
 30
0.000000
  70
    32
  0
VERTEX
  8
0
  5
E04
 10
74.9843
 20
228.734
 30
0.000000
  70
    32
  0
VERTEX
  8
0
  5
E05
 10
74.9830
 20
228.741
 30
0.000000
  70
    32
  0
VERTEX
  8
0
  5
E06
 10
74.9817
 20
228.749
 30
0.000000
  70
    32
  0
VERTEX
  8
0
  5
E07
 10
74.9803
 20
228.757
 30
0.000000
  70
    32
  0
VERTEX
  8
0
  5
E08
 10
74.9790
 20
228.764
 30
0.000000
  70
    32
  0
VERTEX
  8
0
  5
E09
 10
74.9776
 20
228.772
 30
0.000000
  70
    32
  0
VERTEX
  8
0
  5
E0A
 10
74.9763
 20
228.780
 30
0.000000
  70
    32
  0
VERTEX
  8
0
  5
E0B
 10
74.9750
 20
228.787
 30
0.000000
  70
    32
  0
VERTEX
  8
0
  5
E0C
 10
74.9736
 20
228.795
 30
0.000000
  70
    32
  0
VERTEX
  8
0
  5
E0D
 10
74.9723
 20
228.803
 30
0.000000
  70
    32
  0
VERTEX
  8
0
  5
E0E
 10
74.9710
 20
228.811
 30
0.000000
  70
    32
  0
VERTEX
  8
0
  5
E0F
 10
74.9696
 20
228.818
 30
0.000000
  70
    32
  0
VERTEX
  8
0
  5
E10
 10
74.9683
 20
228.826
 30
0.000000
  70
    32
  0
VERTEX
  8
0
  5
E11
 10
74.9669
 20
228.834
 30
0.000000
  70
    32
  0
VERTEX
  8
0
  5
E12
 10
74.9656
 20
228.841
 30
0.000000
  70
    32
  0
VERTEX
  8
0
  5
E13
 10
74.9643
 20
228.849
 30
0.000000
  70
    32
  0
VERTEX
  8
0
  5
E14
 10
74.9629
 20
228.857
 30
0.000000
  70
    32
  0
VERTEX
  8
0
  5
E15
 10
74.9616
 20
228.864
 30
0.000000
  70
    32
  0
VERTEX
  8
0
  5
E16
 10
74.9603
 20
228.872
 30
0.000000
  70
    32
  0
VERTEX
  8
0
  5
E17
 10
74.9589
 20
228.880
 30
0.000000
  70
    32
  0
VERTEX
  8
0
  5
E18
 10
74.9576
 20
228.888
 30
0.000000
  70
    32
  0
VERTEX
  8
0
  5
E19
 10
74.9562
 20
228.895
 30
0.000000
  70
    32
  0
VERTEX
  8
0
  5
E1A
 10
74.9549
 20
228.903
 30
0.000000
  70
    32
  0
VERTEX
  8
0
  5
E1B
 10
74.9536
 20
228.911
 30
0.000000
  70
    32
  0
VERTEX
  8
0
  5
E1C
 10
74.9522
 20
228.918
 30
0.000000
  70
    32
  0
VERTEX
  8
0
  5
E1D
 10
74.9509
 20
228.926
 30
0.000000
  70
    32
  0
VERTEX
  8
0
  5
E1E
 10
74.9495
 20
228.934
 30
0.000000
  70
    32
  0
VERTEX
  8
0
  5
E1F
 10
74.9482
 20
228.941
 30
0.000000
  70
    32
  0
VERTEX
  8
0
  5
E20
 10
74.9469
 20
228.949
 30
0.000000
  70
    32
  0
VERTEX
  8
0
  5
E21
 10
74.9455
 20
228.957
 30
0.000000
  70
    32
  0
VERTEX
  8
0
  5
E22
 10
74.9442
 20
228.965
 30
0.000000
  70
    32
  0
VERTEX
  8
0
  5
E23
 10
74.9428
 20
228.972
 30
0.000000
  70
    32
  0
VERTEX
  8
0
  5
E24
 10
74.9415
 20
228.980
 30
0.000000
  70
    32
  0
VERTEX
  8
0
  5
E25
 10
74.9401
 20
228.988
 30
0.000000
  70
    32
  0
VERTEX
  8
0
  5
E26
 10
74.9388
 20
228.995
 30
0.000000
  70
    32
  0
VERTEX
  8
0
  5
E27
 10
74.9374
 20
229.003
 30
0.000000
  70
    32
  0
VERTEX
  8
0
  5
E28
 10
74.9361
 20
229.011
 30
0.000000
  70
    32
  0
VERTEX
  8
0
  5
E29
 10
74.9347
 20
229.018
 30
0.000000
  70
    32
  0
VERTEX
  8
0
  5
E2A
 10
74.9334
 20
229.026
 30
0.000000
  70
    32
  0
VERTEX
  8
0
  5
E2B
 10
74.9320
 20
229.034
 30
0.000000
  70
    32
  0
VERTEX
  8
0
  5
E2C
 10
74.9307
 20
229.041
 30
0.000000
  70
    32
  0
VERTEX
  8
0
  5
E2D
 10
74.9293
 20
229.049
 30
0.000000
  70
    32
  0
VERTEX
  8
0
  5
E2E
 10
74.9280
 20
229.057
 30
0.000000
  70
    32
  0
VERTEX
  8
0
  5
E2F
 10
74.9266
 20
229.065
 30
0.000000
  70
    32
  0
VERTEX
  8
0
  5
E30
 10
74.9253
 20
229.072
 30
0.000000
  70
    32
  0
VERTEX
  8
0
  5
E31
 10
74.9239
 20
229.080
 30
0.000000
  70
    32
  0
VERTEX
  8
0
  5
E32
 10
74.9226
 20
229.088
 30
0.000000
  70
    32
  0
VERTEX
  8
0
  5
E33
 10
74.9212
 20
229.095
 30
0.000000
  70
    32
  0
VERTEX
  8
0
  5
E34
 10
74.9199
 20
229.103
 30
0.000000
  70
    32
  0
VERTEX
  8
0
  5
E35
 10
74.9185
 20
229.111
 30
0.000000
  70
    32
  0
VERTEX
  8
0
  5
E36
 10
74.9172
 20
229.118
 30
0.000000
  70
    32
  0
VERTEX
  8
0
  5
E37
 10
74.9158
 20
229.126
 30
0.000000
  70
    32
  0
VERTEX
  8
0
  5
E38
 10
74.9144
 20
229.134
 30
0.000000
  70
    32
  0
VERTEX
  8
0
  5
E39
 10
74.9131
 20
229.142
 30
0.000000
  70
    32
  0
VERTEX
  8
0
  5
E3A
 10
74.9117
 20
229.149
 30
0.000000
  70
    32
  0
VERTEX
  8
0
  5
E3B
 10
74.9104
 20
229.157
 30
0.000000
  70
    32
  0
VERTEX
  8
0
  5
E3C
 10
74.9090
 20
229.165
 30
0.000000
  70
    32
  0
VERTEX
  8
0
  5
E3D
 10
74.9076
 20
229.172
 30
0.000000
  70
    32
  0
VERTEX
  8
0
  5
E3E
 10
74.9063
 20
229.180
 30
0.000000
  70
    32
  0
VERTEX
  8
0
  5
E3F
 10
74.9049
 20
229.188
 30
0.000000
  70
    32
  0
VERTEX
  8
0
  5
E40
 10
74.9035
 20
229.195
 30
0.000000
  70
    32
  0
VERTEX
  8
0
  5
E41
 10
74.9022
 20
229.203
 30
0.000000
  70
    32
  0
VERTEX
  8
0
  5
E42
 10
74.9008
 20
229.211
 30
0.000000
  70
    32
  0
VERTEX
  8
0
  5
E43
 10
74.8994
 20
229.218
 30
0.000000
  70
    32
  0
VERTEX
  8
0
  5
E44
 10
74.8981
 20
229.226
 30
0.000000
  70
    32
  0
VERTEX
  8
0
  5
E45
 10
74.8967
 20
229.234
 30
0.000000
  70
    32
  0
VERTEX
  8
0
  5
E46
 10
74.8953
 20
229.242
 30
0.000000
  70
    32
  0
VERTEX
  8
0
  5
E47
 10
74.8940
 20
229.249
 30
0.000000
  70
    32
  0
VERTEX
  8
0
  5
E48
 10
74.8926
 20
229.257
 30
0.000000
  70
    32
  0
VERTEX
  8
0
  5
E49
 10
74.8912
 20
229.265
 30
0.000000
  70
    32
  0
VERTEX
  8
0
  5
E4A
 10
74.8898
 20
229.272
 30
0.000000
  70
    32
  0
VERTEX
  8
0
  5
E4B
 10
74.8885
 20
229.280
 30
0.000000
  70
    32
  0
VERTEX
  8
0
  5
E4C
 10
74.8871
 20
229.288
 30
0.000000
  70
    32
  0
VERTEX
  8
0
  5
E4D
 10
74.8857
 20
229.295
 30
0.000000
  70
    32
  0
VERTEX
  8
0
  5
E4E
 10
74.8843
 20
229.303
 30
0.000000
  70
    32
  0
VERTEX
  8
0
  5
E4F
 10
74.8829
 20
229.311
 30
0.000000
  70
    32
  0
VERTEX
  8
0
  5
E50
 10
74.8816
 20
229.318
 30
0.000000
  70
    32
  0
VERTEX
  8
0
  5
E51
 10
74.8802
 20
229.326
 30
0.000000
  70
    32
  0
VERTEX
  8
0
  5
E52
 10
74.8788
 20
229.334
 30
0.000000
  70
    32
  0
VERTEX
  8
0
  5
E53
 10
74.8774
 20
229.341
 30
0.000000
  70
    32
  0
VERTEX
  8
0
  5
E54
 10
74.8760
 20
229.349
 30
0.000000
  70
    32
  0
VERTEX
  8
0
  5
E55
 10
74.8746
 20
229.357
 30
0.000000
  70
    32
  0
VERTEX
  8
0
  5
E56
 10
74.8733
 20
229.365
 30
0.000000
  70
    32
  0
VERTEX
  8
0
  5
E57
 10
74.8719
 20
229.372
 30
0.000000
  70
    32
  0
VERTEX
  8
0
  5
E58
 10
74.8705
 20
229.380
 30
0.000000
  70
    32
  0
VERTEX
  8
0
  5
E59
 10
74.8691
 20
229.388
 30
0.000000
  70
    32
  0
VERTEX
  8
0
  5
E5A
 10
74.8677
 20
229.395
 30
0.000000
  70
    32
  0
VERTEX
  8
0
  5
E5B
 10
74.8663
 20
229.403
 30
0.000000
  70
    32
  0
VERTEX
  8
0
  5
E5C
 10
74.8649
 20
229.411
 30
0.000000
  70
    32
  0
VERTEX
  8
0
  5
E5D
 10
74.8635
 20
229.418
 30
0.000000
  70
    32
  0
VERTEX
  8
0
  5
E5E
 10
74.8621
 20
229.426
 30
0.000000
  70
    32
  0
VERTEX
  8
0
  5
E5F
 10
74.8607
 20
229.434
 30
0.000000
  70
    32
  0
VERTEX
  8
0
  5
E60
 10
74.8593
 20
229.441
 30
0.000000
  70
    32
  0
VERTEX
  8
0
  5
E61
 10
74.8579
 20
229.449
 30
0.000000
  70
    32
  0
VERTEX
  8
0
  5
E62
 10
74.8565
 20
229.457
 30
0.000000
  70
    32
  0
VERTEX
  8
0
  5
E63
 10
74.8551
 20
229.464
 30
0.000000
  70
    32
  0
VERTEX
  8
0
  5
E64
 10
74.8537
 20
229.472
 30
0.000000
  70
    32
  0
VERTEX
  8
0
  5
E65
 10
74.8523
 20
229.480
 30
0.000000
  70
    32
  0
VERTEX
  8
0
  5
E66
 10
74.8509
 20
229.487
 30
0.000000
  70
    32
  0
VERTEX
  8
0
  5
E67
 10
74.8495
 20
229.495
 30
0.000000
  70
    32
  0
VERTEX
  8
0
  5
E68
 10
74.8480
 20
229.503
 30
0.000000
  70
    32
  0
VERTEX
  8
0
  5
E69
 10
74.8466
 20
229.510
 30
0.000000
  70
    32
  0
VERTEX
  8
0
  5
E6A
 10
74.8452
 20
229.518
 30
0.000000
  70
    32
  0
VERTEX
  8
0
  5
E6B
 10
74.8438
 20
229.526
 30
0.000000
  70
    32
  0
VERTEX
  8
0
  5
E6C
 10
74.8424
 20
229.533
 30
0.000000
  70
    32
  0
VERTEX
  8
0
  5
E6D
 10
74.8409
 20
229.541
 30
0.000000
  70
    32
  0
VERTEX
  8
0
  5
E6E
 10
74.8395
 20
229.549
 30
0.000000
  70
    32
  0
VERTEX
  8
0
  5
E6F
 10
74.8381
 20
229.556
 30
0.000000
  70
    32
  0
VERTEX
  8
0
  5
E70
 10
74.8367
 20
229.564
 30
0.000000
  70
    32
  0
VERTEX
  8
0
  5
E71
 10
74.8352
 20
229.572
 30
0.000000
  70
    32
  0
VERTEX
  8
0
  5
E72
 10
74.8338
 20
229.579
 30
0.000000
  70
    32
  0
VERTEX
  8
0
  5
E73
 10
74.8323
 20
229.587
 30
0.000000
  70
    32
  0
VERTEX
  8
0
  5
E74
 10
74.8309
 20
229.595
 30
0.000000
  70
    32
  0
VERTEX
  8
0
  5
E75
 10
74.8295
 20
229.602
 30
0.000000
  70
    32
  0
VERTEX
  8
0
  5
E76
 10
74.8280
 20
229.610
 30
0.000000
  70
    32
  0
VERTEX
  8
0
  5
E77
 10
74.8266
 20
229.618
 30
0.000000
  70
    32
  0
VERTEX
  8
0
  5
E78
 10
74.8251
 20
229.625
 30
0.000000
  70
    32
  0
VERTEX
  8
0
  5
E79
 10
74.8237
 20
229.633
 30
0.000000
  70
    32
  0
VERTEX
  8
0
  5
E7A
 10
74.8222
 20
229.641
 30
0.000000
  70
    32
  0
VERTEX
  8
0
  5
E7B
 10
74.8207
 20
229.648
 30
0.000000
  70
    32
  0
VERTEX
  8
0
  5
E7C
 10
74.8193
 20
229.656
 30
0.000000
  70
    32
  0
VERTEX
  8
0
  5
E7D
 10
74.8178
 20
229.664
 30
0.000000
  70
    32
  0
VERTEX
  8
0
  5
E7E
 10
74.8163
 20
229.671
 30
0.000000
  70
    32
  0
VERTEX
  8
0
  5
E7F
 10
74.8149
 20
229.679
 30
0.000000
  70
    32
  0
VERTEX
  8
0
  5
E80
 10
74.8134
 20
229.687
 30
0.000000
  70
    32
  0
VERTEX
  8
0
  5
E81
 10
74.8119
 20
229.695
 30
0.000000
  70
    32
  0
VERTEX
  8
0
  5
E82
 10
74.8104
 20
229.702
 30
0.000000
  70
    32
  0
VERTEX
  8
0
  5
E83
 10
74.8089
 20
229.710
 30
0.000000
  70
    32
  0
VERTEX
  8
0
  5
E84
 10
74.8074
 20
229.718
 30
0.000000
  70
    32
  0
VERTEX
  8
0
  5
E85
 10
74.8060
 20
229.725
 30
0.000000
  70
    32
  0
VERTEX
  8
0
  5
E86
 10
74.8045
 20
229.733
 30
0.000000
  70
    32
  0
VERTEX
  8
0
  5
E87
 10
74.8030
 20
229.741
 30
0.000000
  70
    32
  0
VERTEX
  8
0
  5
E88
 10
74.8014
 20
229.748
 30
0.000000
  70
    32
  0
VERTEX
  8
0
  5
E89
 10
74.7999
 20
229.756
 30
0.000000
  70
    32
  0
VERTEX
  8
0
  5
E8A
 10
74.7984
 20
229.764
 30
0.000000
  70
    32
  0
VERTEX
  8
0
  5
E8B
 10
74.7969
 20
229.771
 30
0.000000
  70
    32
  0
VERTEX
  8
0
  5
E8C
 10
74.7954
 20
229.779
 30
0.000000
  70
    32
  0
VERTEX
  8
0
  5
E8D
 10
74.7939
 20
229.787
 30
0.000000
  70
    32
  0
VERTEX
  8
0
  5
E8E
 10
74.7923
 20
229.794
 30
0.000000
  70
    32
  0
VERTEX
  8
0
  5
E8F
 10
74.7908
 20
229.802
 30
0.000000
  70
    32
  0
VERTEX
  8
0
  5
E90
 10
74.7893
 20
229.810
 30
0.000000
  70
    32
  0
VERTEX
  8
0
  5
E91
 10
74.7877
 20
229.817
 30
0.000000
  70
    32
  0
VERTEX
  8
0
  5
E92
 10
74.7862
 20
229.825
 30
0.000000
  70
    32
  0
VERTEX
  8
0
  5
E93
 10
74.7846
 20
229.833
 30
0.000000
  70
    32
  0
VERTEX
  8
0
  5
E94
 10
74.7831
 20
229.840
 30
0.000000
  70
    32
  0
VERTEX
  8
0
  5
E95
 10
74.7815
 20
229.848
 30
0.000000
  70
    32
  0
VERTEX
  8
0
  5
E96
 10
74.7800
 20
229.856
 30
0.000000
  70
    32
  0
VERTEX
  8
0
  5
E97
 10
74.7784
 20
229.863
 30
0.000000
  70
    32
  0
VERTEX
  8
0
  5
E98
 10
74.7768
 20
229.871
 30
0.000000
  70
    32
  0
VERTEX
  8
0
  5
E99
 10
74.7752
 20
229.879
 30
0.000000
  70
    32
  0
VERTEX
  8
0
  5
E9A
 10
74.7737
 20
229.886
 30
0.000000
  70
    32
  0
VERTEX
  8
0
  5
E9B
 10
74.7721
 20
229.894
 30
0.000000
  70
    32
  0
VERTEX
  8
0
  5
E9C
 10
74.7705
 20
229.902
 30
0.000000
  70
    32
  0
VERTEX
  8
0
  5
E9D
 10
74.7689
 20
229.910
 30
0.000000
  70
    32
  0
VERTEX
  8
0
  5
E9E
 10
74.7673
 20
229.917
 30
0.000000
  70
    32
  0
VERTEX
  8
0
  5
E9F
 10
74.7657
 20
229.925
 30
0.000000
  70
    32
  0
VERTEX
  8
0
  5
EA0
 10
74.7640
 20
229.933
 30
0.000000
  70
    32
  0
VERTEX
  8
0
  5
EA1
 10
74.7624
 20
229.940
 30
0.000000
  70
    32
  0
VERTEX
  8
0
  5
EA2
 10
74.7608
 20
229.948
 30
0.000000
  70
    32
  0
VERTEX
  8
0
  5
EA3
 10
74.7591
 20
229.956
 30
0.000000
  70
    32
  0
VERTEX
  8
0
  5
EA4
 10
74.7575
 20
229.963
 30
0.000000
  70
    32
  0
VERTEX
  8
0
  5
EA5
 10
74.7558
 20
229.971
 30
0.000000
  70
    32
  0
VERTEX
  8
0
  5
EA6
 10
74.7541
 20
229.978
 30
0.000000
  70
    32
  0
VERTEX
  8
0
  5
EA7
 10
74.7524
 20
229.986
 30
0.000000
  70
    32
  0
VERTEX
  8
0
  5
EA8
 10
74.7508
 20
229.994
 30
0.000000
  70
    32
  0
VERTEX
  8
0
  5
EA9
 10
74.7491
 20
230.001
 30
0.000000
  70
    32
  0
VERTEX
  8
0
  5
EAA
 10
74.7474
 20
230.009
 30
0.000000
  70
    32
  0
VERTEX
  8
0
  5
EAB
 10
74.7456
 20
230.017
 30
0.000000
  70
    32
  0
VERTEX
  8
0
  5
EAC
 10
74.7439
 20
230.024
 30
0.000000
  70
    32
  0
VERTEX
  8
0
  5
EAD
 10
74.7422
 20
230.032
 30
0.000000
  70
    32
  0
VERTEX
  8
0
  5
EAE
 10
74.7404
 20
230.040
 30
0.000000
  70
    32
  0
VERTEX
  8
0
  5
EAF
 10
74.7387
 20
230.047
 30
0.000000
  70
    32
  0
VERTEX
  8
0
  5
EB0
 10
74.7369
 20
230.055
 30
0.000000
  70
    32
  0
VERTEX
  8
0
  5
EB1
 10
74.7351
 20
230.062
 30
0.000000
  70
    32
  0
VERTEX
  8
0
  5
EB2
 10
74.7333
 20
230.070
 30
0.000000
  70
    32
  0
VERTEX
  8
0
  5
EB3
 10
74.7315
 20
230.078
 30
0.000000
  70
    32
  0
VERTEX
  8
0
  5
EB4
 10
74.7297
 20
230.085
 30
0.000000
  70
    32
  0
VERTEX
  8
0
  5
EB5
 10
74.7279
 20
230.093
 30
0.000000
  70
    32
  0
VERTEX
  8
0
  5
EB6
 10
74.7261
 20
230.100
 30
0.000000
  70
    32
  0
VERTEX
  8
0
  5
EB7
 10
74.7242
 20
230.108
 30
0.000000
  70
    32
  0
VERTEX
  8
0
  5
EB8
 10
74.7224
 20
230.115
 30
0.000000
  70
    32
  0
VERTEX
  8
0
  5
EB9
 10
74.7205
 20
230.123
 30
0.000000
  70
    32
  0
VERTEX
  8
0
  5
EBA
 10
74.7186
 20
230.130
 30
0.000000
  70
    32
  0
VERTEX
  8
0
  5
EBB
 10
74.7167
 20
230.138
 30
0.000000
  70
    32
  0
VERTEX
  8
0
  5
EBC
 10
74.7148
 20
230.145
 30
0.000000
  70
    32
  0
VERTEX
  8
0
  5
EBD
 10
74.7128
 20
230.153
 30
0.000000
  70
    32
  0
VERTEX
  8
0
  5
EBE
 10
74.7109
 20
230.160
 30
0.000000
  70
    32
  0
VERTEX
  8
0
  5
EBF
 10
74.7090
 20
230.168
 30
0.000000
  70
    32
  0
VERTEX
  8
0
  5
EC0
 10
74.7070
 20
230.175
 30
0.000000
  70
    32
  0
VERTEX
  8
0
  5
EC1
 10
74.7050
 20
230.183
 30
0.000000
  70
    32
  0
VERTEX
  8
0
  5
EC2
 10
74.7030
 20
230.190
 30
0.000000
  70
    32
  0
VERTEX
  8
0
  5
EC3
 10
74.7010
 20
230.198
 30
0.000000
  70
    32
  0
VERTEX
  8
0
  5
EC4
 10
74.6989
 20
230.205
 30
0.000000
  70
    32
  0
VERTEX
  8
0
  5
EC5
 10
74.6969
 20
230.213
 30
0.000000
  70
    32
  0
VERTEX
  8
0
  5
EC6
 10
74.6948
 20
230.220
 30
0.000000
  70
    32
  0
VERTEX
  8
0
  5
EC7
 10
74.6927
 20
230.228
 30
0.000000
  70
    32
  0
VERTEX
  8
0
  5
EC8
 10
74.6905
 20
230.235
 30
0.000000
  70
    32
  0
VERTEX
  8
0
  5
EC9
 10
74.6883
 20
230.242
 30
0.000000
  70
    32
  0
VERTEX
  8
0
  5
ECA
 10
74.6861
 20
230.250
 30
0.000000
  70
    32
  0
VERTEX
  8
0
  5
ECB
 10
74.6839
 20
230.257
 30
0.000000
  70
    32
  0
VERTEX
  8
0
  5
ECC
 10
74.6817
 20
230.265
 30
0.000000
  70
    32
  0
VERTEX
  8
0
  5
ECD
 10
74.6794
 20
230.272
 30
0.000000
  70
    32
  0
VERTEX
  8
0
  5
ECE
 10
74.6770
 20
230.279
 30
0.000000
  70
    32
  0
VERTEX
  8
0
  5
ECF
 10
74.6747
 20
230.287
 30
0.000000
  70
    32
  0
VERTEX
  8
0
  5
ED0
 10
74.6722
 20
230.294
 30
0.000000
  70
    32
  0
VERTEX
  8
0
  5
ED1
 10
74.6698
 20
230.302
 30
0.000000
  70
    32
  0
VERTEX
  8
0
  5
ED2
 10
74.6673
 20
230.309
 30
0.000000
  70
    32
  0
VERTEX
  8
0
  5
ED3
 10
74.6648
 20
230.317
 30
0.000000
  70
    32
  0
VERTEX
  8
0
  5
ED4
 10
74.6622
 20
230.324
 30
0.000000
  70
    32
  0
VERTEX
  8
0
  5
ED5
 10
74.6596
 20
230.331
 30
0.000000
  70
    32
  0
VERTEX
  8
0
  5
ED6
 10
74.6569
 20
230.339
 30
0.000000
  70
    32
  0
VERTEX
  8
0
  5
ED7
 10
74.6542
 20
230.346
 30
0.000000
  70
    32
  0
VERTEX
  8
0
  5
ED8
 10
74.6514
 20
230.354
 30
0.000000
  70
    32
  0
VERTEX
  8
0
  5
ED9
 10
74.6486
 20
230.361
 30
0.000000
  70
    32
  0
VERTEX
  8
0
  5
EDA
 10
74.6457
 20
230.369
 30
0.000000
  70
    32
  0
VERTEX
  8
0
  5
EDB
 10
74.6428
 20
230.376
 30
0.000000
  70
    32
  0
VERTEX
  8
0
  5
EDC
 10
74.6398
 20
230.384
 30
0.000000
  70
    32
  0
VERTEX
  8
0
  5
EDD
 10
74.6367
 20
230.391
 30
0.000000
  70
    32
  0
VERTEX
  8
0
  5
EDE
 10
74.6336
 20
230.398
 30
0.000000
  70
    32
  0
VERTEX
  8
0
  5
EDF
 10
74.6304
 20
230.406
 30
0.000000
  70
    32
  0
VERTEX
  8
0
  5
EE0
 10
74.6271
 20
230.413
 30
0.000000
  70
    32
  0
VERTEX
  8
0
  5
EE1
 10
74.6237
 20
230.421
 30
0.000000
  70
    32
  0
VERTEX
  8
0
  5
EE2
 10
74.6201
 20
230.428
 30
0.000000
  70
    32
  0
VERTEX
  8
0
  5
EE3
 10
74.6163
 20
230.435
 30
0.000000
  70
    32
  0
VERTEX
  8
0
  5
EE4
 10
74.6124
 20
230.442
 30
0.000000
  70
    32
  0
VERTEX
  8
0
  5
EE5
 10
74.6082
 20
230.449
 30
0.000000
  70
    32
  0
VERTEX
  8
0
  5
EE6
 10
74.6038
 20
230.455
 30
0.000000
  70
    32
  0
VERTEX
  8
0
  5
EE7
 10
74.5992
 20
230.461
 30
0.000000
  70
    32
  0
VERTEX
  8
0
  5
EE8
 10
74.5943
 20
230.467
 30
0.000000
  70
    32
  0
VERTEX
  8
0
  5
EE9
 10
74.5891
 20
230.473
 30
0.000000
  70
    32
  0
VERTEX
  8
0
  5
EEA
 10
74.5836
 20
230.479
 30
0.000000
  70
    32
  0
VERTEX
  8
0
  5
EEB
 10
74.5777
 20
230.484
 30
0.000000
  70
    32
  0
VERTEX
  8
0
  5
EEC
 10
74.5715
 20
230.488
 30
0.000000
  70
    32
  0
SEQEND
  8
0
  5
EED
  0
POLYLINE
  8
0
  5
EEE
  62
7
  66
     1
 10
0.000000
 20
0.000000
 30
0.000000
  70
     8
  0
VERTEX
  8
0
  5
EEF
 10
72.3419
 20
228.261
 30
0.000000
  70
    32
  0
VERTEX
  8
0
  5
EF0
 10
72.3426
 20
228.260
 30
0.000000
  70
    32
  0
VERTEX
  8
0
  5
EF1
 10
72.3432
 20
228.260
 30
0.000000
  70
    32
  0
VERTEX
  8
0
  5
EF2
 10
72.3439
 20
228.259
 30
0.000000
  70
    32
  0
VERTEX
  8
0
  5
EF3
 10
72.3446
 20
228.259
 30
0.000000
  70
    32
  0
VERTEX
  8
0
  5
EF4
 10
72.3453
 20
228.259
 30
0.000000
  70
    32
  0
VERTEX
  8
0
  5
EF5
 10
72.3460
 20
228.258
 30
0.000000
  70
    32
  0
VERTEX
  8
0
  5
EF6
 10
72.3466
 20
228.258
 30
0.000000
  70
    32
  0
VERTEX
  8
0
  5
EF7
 10
72.3473
 20
228.257
 30
0.000000
  70
    32
  0
VERTEX
  8
0
  5
EF8
 10
72.3480
 20
228.257
 30
0.000000
  70
    32
  0
VERTEX
  8
0
  5
EF9
 10
72.3487
 20
228.256
 30
0.000000
  70
    32
  0
VERTEX
  8
0
  5
EFA
 10
72.3494
 20
228.256
 30
0.000000
  70
    32
  0
VERTEX
  8
0
  5
EFB
 10
72.3501
 20
228.256
 30
0.000000
  70
    32
  0
VERTEX
  8
0
  5
EFC
 10
72.3508
 20
228.255
 30
0.000000
  70
    32
  0
VERTEX
  8
0
  5
EFD
 10
72.3515
 20
228.255
 30
0.000000
  70
    32
  0
VERTEX
  8
0
  5
EFE
 10
72.3522
 20
228.254
 30
0.000000
  70
    32
  0
VERTEX
  8
0
  5
EFF
 10
72.3530
 20
228.254
 30
0.000000
  70
    32
  0
VERTEX
  8
0
  5
F00
 10
72.3537
 20
228.254
 30
0.000000
  70
    32
  0
VERTEX
  8
0
  5
F01
 10
72.3544
 20
228.253
 30
0.000000
  70
    32
  0
VERTEX
  8
0
  5
F02
 10
72.3551
 20
228.253
 30
0.000000
  70
    32
  0
VERTEX
  8
0
  5
F03
 10
72.3558
 20
228.252
 30
0.000000
  70
    32
  0
VERTEX
  8
0
  5
F04
 10
72.3566
 20
228.252
 30
0.000000
  70
    32
  0
VERTEX
  8
0
  5
F05
 10
72.3573
 20
228.252
 30
0.000000
  70
    32
  0
VERTEX
  8
0
  5
F06
 10
72.3580
 20
228.251
 30
0.000000
  70
    32
  0
VERTEX
  8
0
  5
F07
 10
72.3587
 20
228.251
 30
0.000000
  70
    32
  0
VERTEX
  8
0
  5
F08
 10
72.3595
 20
228.251
 30
0.000000
  70
    32
  0
VERTEX
  8
0
  5
F09
 10
72.3602
 20
228.250
 30
0.000000
  70
    32
  0
VERTEX
  8
0
  5
F0A
 10
72.3610
 20
228.250
 30
0.000000
  70
    32
  0
VERTEX
  8
0
  5
F0B
 10
72.3617
 20
228.250
 30
0.000000
  70
    32
  0
VERTEX
  8
0
  5
F0C
 10
72.3624
 20
228.249
 30
0.000000
  70
    32
  0
VERTEX
  8
0
  5
F0D
 10
72.3632
 20
228.249
 30
0.000000
  70
    32
  0
VERTEX
  8
0
  5
F0E
 10
72.3639
 20
228.249
 30
0.000000
  70
    32
  0
VERTEX
  8
0
  5
F0F
 10
72.3647
 20
228.248
 30
0.000000
  70
    32
  0
VERTEX
  8
0
  5
F10
 10
72.3654
 20
228.248
 30
0.000000
  70
    32
  0
VERTEX
  8
0
  5
F11
 10
72.3662
 20
228.248
 30
0.000000
  70
    32
  0
VERTEX
  8
0
  5
F12
 10
72.3669
 20
228.247
 30
0.000000
  70
    32
  0
VERTEX
  8
0
  5
F13
 10
72.3677
 20
228.247
 30
0.000000
  70
    32
  0
VERTEX
  8
0
  5
F14
 10
72.3685
 20
228.247
 30
0.000000
  70
    32
  0
VERTEX
  8
0
  5
F15
 10
72.3692
 20
228.247
 30
0.000000
  70
    32
  0
VERTEX
  8
0
  5
F16
 10
72.3700
 20
228.246
 30
0.000000
  70
    32
  0
VERTEX
  8
0
  5
F17
 10
72.3708
 20
228.246
 30
0.000000
  70
    32
  0
VERTEX
  8
0
  5
F18
 10
72.3715
 20
228.246
 30
0.000000
  70
    32
  0
VERTEX
  8
0
  5
F19
 10
72.3723
 20
228.245
 30
0.000000
  70
    32
  0
VERTEX
  8
0
  5
F1A
 10
72.3731
 20
228.245
 30
0.000000
  70
    32
  0
VERTEX
  8
0
  5
F1B
 10
72.3738
 20
228.245
 30
0.000000
  70
    32
  0
VERTEX
  8
0
  5
F1C
 10
72.3746
 20
228.245
 30
0.000000
  70
    32
  0
VERTEX
  8
0
  5
F1D
 10
72.3754
 20
228.244
 30
0.000000
  70
    32
  0
VERTEX
  8
0
  5
F1E
 10
72.3762
 20
228.244
 30
0.000000
  70
    32
  0
VERTEX
  8
0
  5
F1F
 10
72.3770
 20
228.244
 30
0.000000
  70
    32
  0
VERTEX
  8
0
  5
F20
 10
72.3777
 20
228.244
 30
0.000000
  70
    32
  0
VERTEX
  8
0
  5
F21
 10
72.3785
 20
228.243
 30
0.000000
  70
    32
  0
VERTEX
  8
0
  5
F22
 10
72.3793
 20
228.243
 30
0.000000
  70
    32
  0
VERTEX
  8
0
  5
F23
 10
72.3801
 20
228.243
 30
0.000000
  70
    32
  0
VERTEX
  8
0
  5
F24
 10
72.3809
 20
228.243
 30
0.000000
  70
    32
  0
VERTEX
  8
0
  5
F25
 10
72.3817
 20
228.242
 30
0.000000
  70
    32
  0
VERTEX
  8
0
  5
F26
 10
72.3825
 20
228.242
 30
0.000000
  70
    32
  0
VERTEX
  8
0
  5
F27
 10
72.3833
 20
228.242
 30
0.000000
  70
    32
  0
VERTEX
  8
0
  5
F28
 10
72.3841
 20
228.242
 30
0.000000
  70
    32
  0
VERTEX
  8
0
  5
F29
 10
72.3848
 20
228.241
 30
0.000000
  70
    32
  0
VERTEX
  8
0
  5
F2A
 10
72.3856
 20
228.241
 30
0.000000
  70
    32
  0
VERTEX
  8
0
  5
F2B
 10
72.3864
 20
228.241
 30
0.000000
  70
    32
  0
VERTEX
  8
0
  5
F2C
 10
72.3872
 20
228.241
 30
0.000000
  70
    32
  0
VERTEX
  8
0
  5
F2D
 10
72.3880
 20
228.241
 30
0.000000
  70
    32
  0
VERTEX
  8
0
  5
F2E
 10
72.3888
 20
228.240
 30
0.000000
  70
    32
  0
VERTEX
  8
0
  5
F2F
 10
72.3896
 20
228.240
 30
0.000000
  70
    32
  0
VERTEX
  8
0
  5
F30
 10
72.3904
 20
228.240
 30
0.000000
  70
    32
  0
VERTEX
  8
0
  5
F31
 10
72.3913
 20
228.240
 30
0.000000
  70
    32
  0
VERTEX
  8
0
  5
F32
 10
72.3921
 20
228.240
 30
0.000000
  70
    32
  0
VERTEX
  8
0
  5
F33
 10
72.3929
 20
228.239
 30
0.000000
  70
    32
  0
VERTEX
  8
0
  5
F34
 10
72.3937
 20
228.239
 30
0.000000
  70
    32
  0
VERTEX
  8
0
  5
F35
 10
72.3945
 20
228.239
 30
0.000000
  70
    32
  0
VERTEX
  8
0
  5
F36
 10
72.3953
 20
228.239
 30
0.000000
  70
    32
  0
VERTEX
  8
0
  5
F37
 10
72.3961
 20
228.239
 30
0.000000
  70
    32
  0
VERTEX
  8
0
  5
F38
 10
72.3969
 20
228.239
 30
0.000000
  70
    32
  0
VERTEX
  8
0
  5
F39
 10
72.3977
 20
228.238
 30
0.000000
  70
    32
  0
VERTEX
  8
0
  5
F3A
 10
72.3985
 20
228.238
 30
0.000000
  70
    32
  0
VERTEX
  8
0
  5
F3B
 10
72.3994
 20
228.238
 30
0.000000
  70
    32
  0
VERTEX
  8
0
  5
F3C
 10
72.4002
 20
228.238
 30
0.000000
  70
    32
  0
VERTEX
  8
0
  5
F3D
 10
72.4010
 20
228.238
 30
0.000000
  70
    32
  0
VERTEX
  8
0
  5
F3E
 10
72.4018
 20
228.238
 30
0.000000
  70
    32
  0
VERTEX
  8
0
  5
F3F
 10
72.4026
 20
228.237
 30
0.000000
  70
    32
  0
VERTEX
  8
0
  5
F40
 10
72.4034
 20
228.237
 30
0.000000
  70
    32
  0
VERTEX
  8
0
  5
F41
 10
72.4043
 20
228.237
 30
0.000000
  70
    32
  0
VERTEX
  8
0
  5
F42
 10
72.4051
 20
228.237
 30
0.000000
  70
    32
  0
VERTEX
  8
0
  5
F43
 10
72.4059
 20
228.237
 30
0.000000
  70
    32
  0
VERTEX
  8
0
  5
F44
 10
72.4067
 20
228.237
 30
0.000000
  70
    32
  0
VERTEX
  8
0
  5
F45
 10
72.4075
 20
228.236
 30
0.000000
  70
    32
  0
VERTEX
  8
0
  5
F46
 10
72.4083
 20
228.236
 30
0.000000
  70
    32
  0
VERTEX
  8
0
  5
F47
 10
72.4092
 20
228.236
 30
0.000000
  70
    32
  0
VERTEX
  8
0
  5
F48
 10
72.4100
 20
228.236
 30
0.000000
  70
    32
  0
VERTEX
  8
0
  5
F49
 10
72.4108
 20
228.236
 30
0.000000
  70
    32
  0
VERTEX
  8
0
  5
F4A
 10
72.4116
 20
228.236
 30
0.000000
  70
    32
  0
VERTEX
  8
0
  5
F4B
 10
72.4124
 20
228.236
 30
0.000000
  70
    32
  0
VERTEX
  8
0
  5
F4C
 10
72.4133
 20
228.235
 30
0.000000
  70
    32
  0
VERTEX
  8
0
  5
F4D
 10
72.4141
 20
228.235
 30
0.000000
  70
    32
  0
VERTEX
  8
0
  5
F4E
 10
72.4149
 20
228.235
 30
0.000000
  70
    32
  0
VERTEX
  8
0
  5
F4F
 10
72.4157
 20
228.235
 30
0.000000
  70
    32
  0
VERTEX
  8
0
  5
F50
 10
72.4166
 20
228.235
 30
0.000000
  70
    32
  0
VERTEX
  8
0
  5
F51
 10
72.4174
 20
228.235
 30
0.000000
  70
    32
  0
VERTEX
  8
0
  5
F52
 10
72.4182
 20
228.235
 30
0.000000
  70
    32
  0
VERTEX
  8
0
  5
F53
 10
72.4190
 20
228.235
 30
0.000000
  70
    32
  0
VERTEX
  8
0
  5
F54
 10
72.4198
 20
228.234
 30
0.000000
  70
    32
  0
VERTEX
  8
0
  5
F55
 10
72.4207
 20
228.234
 30
0.000000
  70
    32
  0
VERTEX
  8
0
  5
F56
 10
72.4215
 20
228.234
 30
0.000000
  70
    32
  0
VERTEX
  8
0
  5
F57
 10
72.4223
 20
228.234
 30
0.000000
  70
    32
  0
VERTEX
  8
0
  5
F58
 10
72.4231
 20
228.234
 30
0.000000
  70
    32
  0
VERTEX
  8
0
  5
F59
 10
72.4240
 20
228.234
 30
0.000000
  70
    32
  0
VERTEX
  8
0
  5
F5A
 10
72.4248
 20
228.234
 30
0.000000
  70
    32
  0
VERTEX
  8
0
  5
F5B
 10
72.4256
 20
228.234
 30
0.000000
  70
    32
  0
VERTEX
  8
0
  5
F5C
 10
72.4264
 20
228.234
 30
0.000000
  70
    32
  0
VERTEX
  8
0
  5
F5D
 10
72.4272
 20
228.233
 30
0.000000
  70
    32
  0
VERTEX
  8
0
  5
F5E
 10
72.4281
 20
228.233
 30
0.000000
  70
    32
  0
VERTEX
  8
0
  5
F5F
 10
72.4289
 20
228.233
 30
0.000000
  70
    32
  0
VERTEX
  8
0
  5
F60
 10
72.4297
 20
228.233
 30
0.000000
  70
    32
  0
VERTEX
  8
0
  5
F61
 10
72.4305
 20
228.233
 30
0.000000
  70
    32
  0
VERTEX
  8
0
  5
F62
 10
72.4313
 20
228.233
 30
0.000000
  70
    32
  0
VERTEX
  8
0
  5
F63
 10
72.4321
 20
228.233
 30
0.000000
  70
    32
  0
VERTEX
  8
0
  5
F64
 10
72.4330
 20
228.233
 30
0.000000
  70
    32
  0
VERTEX
  8
0
  5
F65
 10
72.4338
 20
228.233
 30
0.000000
  70
    32
  0
VERTEX
  8
0
  5
F66
 10
72.4346
 20
228.233
 30
0.000000
  70
    32
  0
VERTEX
  8
0
  5
F67
 10
72.4354
 20
228.232
 30
0.000000
  70
    32
  0
VERTEX
  8
0
  5
F68
 10
72.4362
 20
228.232
 30
0.000000
  70
    32
  0
VERTEX
  8
0
  5
F69
 10
72.4370
 20
228.232
 30
0.000000
  70
    32
  0
VERTEX
  8
0
  5
F6A
 10
72.4378
 20
228.232
 30
0.000000
  70
    32
  0
VERTEX
  8
0
  5
F6B
 10
72.4387
 20
228.232
 30
0.000000
  70
    32
  0
VERTEX
  8
0
  5
F6C
 10
72.4395
 20
228.232
 30
0.000000
  70
    32
  0
VERTEX
  8
0
  5
F6D
 10
72.4403
 20
228.232
 30
0.000000
  70
    32
  0
VERTEX
  8
0
  5
F6E
 10
72.4411
 20
228.232
 30
0.000000
  70
    32
  0
SEQEND
  8
0
  5
F6F
  0
POLYLINE
  8
0
  5
F70
  62
7
  66
     1
 10
0.000000
 20
0.000000
 30
0.000000
  70
     8
  0
VERTEX
  8
0
  5
F71
 10
72.4411
 20
228.232
 30
0.000000
  70
    32
  0
VERTEX
  8
0
  5
F72
 10
72.4502
 20
228.231
 30
0.000000
  70
    32
  0
VERTEX
  8
0
  5
F73
 10
72.4592
 20
228.230
 30
0.000000
  70
    32
  0
VERTEX
  8
0
  5
F74
 10
72.4683
 20
228.229
 30
0.000000
  70
    32
  0
VERTEX
  8
0
  5
F75
 10
72.4774
 20
228.228
 30
0.000000
  70
    32
  0
VERTEX
  8
0
  5
F76
 10
72.4865
 20
228.227
 30
0.000000
  70
    32
  0
VERTEX
  8
0
  5
F77
 10
72.4956
 20
228.226
 30
0.000000
  70
    32
  0
VERTEX
  8
0
  5
F78
 10
72.5047
 20
228.226
 30
0.000000
  70
    32
  0
VERTEX
  8
0
  5
F79
 10
72.5138
 20
228.225
 30
0.000000
  70
    32
  0
VERTEX
  8
0
  5
F7A
 10
72.5230
 20
228.224
 30
0.000000
  70
    32
  0
VERTEX
  8
0
  5
F7B
 10
72.5321
 20
228.224
 30
0.000000
  70
    32
  0
VERTEX
  8
0
  5
F7C
 10
72.5412
 20
228.223
 30
0.000000
  70
    32
  0
VERTEX
  8
0
  5
F7D
 10
72.5503
 20
228.223
 30
0.000000
  70
    32
  0
VERTEX
  8
0
  5
F7E
 10
72.5594
 20
228.222
 30
0.000000
  70
    32
  0
VERTEX
  8
0
  5
F7F
 10
72.5686
 20
228.222
 30
0.000000
  70
    32
  0
VERTEX
  8
0
  5
F80
 10
72.5777
 20
228.221
 30
0.000000
  70
    32
  0
VERTEX
  8
0
  5
F81
 10
72.5868
 20
228.221
 30
0.000000
  70
    32
  0
VERTEX
  8
0
  5
F82
 10
72.5960
 20
228.221
 30
0.000000
  70
    32
  0
VERTEX
  8
0
  5
F83
 10
72.6051
 20
228.220
 30
0.000000
  70
    32
  0
VERTEX
  8
0
  5
F84
 10
72.6142
 20
228.220
 30
0.000000
  70
    32
  0
VERTEX
  8
0
  5
F85
 10
72.6234
 20
228.220
 30
0.000000
  70
    32
  0
VERTEX
  8
0
  5
F86
 10
72.6325
 20
228.220
 30
0.000000
  70
    32
  0
VERTEX
  8
0
  5
F87
 10
72.6416
 20
228.219
 30
0.000000
  70
    32
  0
VERTEX
  8
0
  5
F88
 10
72.6508
 20
228.219
 30
0.000000
  70
    32
  0
VERTEX
  8
0
  5
F89
 10
72.6599
 20
228.219
 30
0.000000
  70
    32
  0
VERTEX
  8
0
  5
F8A
 10
72.6691
 20
228.219
 30
0.000000
  70
    32
  0
VERTEX
  8
0
  5
F8B
 10
72.6782
 20
228.219
 30
0.000000
  70
    32
  0
VERTEX
  8
0
  5
F8C
 10
72.6873
 20
228.219
 30
0.000000
  70
    32
  0
VERTEX
  8
0
  5
F8D
 10
72.6965
 20
228.219
 30
0.000000
  70
    32
  0
VERTEX
  8
0
  5
F8E
 10
72.7056
 20
228.219
 30
0.000000
  70
    32
  0
VERTEX
  8
0
  5
F8F
 10
72.7147
 20
228.219
 30
0.000000
  70
    32
  0
VERTEX
  8
0
  5
F90
 10
72.7239
 20
228.219
 30
0.000000
  70
    32
  0
VERTEX
  8
0
  5
F91
 10
72.7330
 20
228.219
 30
0.000000
  70
    32
  0
VERTEX
  8
0
  5
F92
 10
72.7421
 20
228.219
 30
0.000000
  70
    32
  0
VERTEX
  8
0
  5
F93
 10
72.7513
 20
228.219
 30
0.000000
  70
    32
  0
VERTEX
  8
0
  5
F94
 10
72.7604
 20
228.219
 30
0.000000
  70
    32
  0
VERTEX
  8
0
  5
F95
 10
72.7695
 20
228.219
 30
0.000000
  70
    32
  0
VERTEX
  8
0
  5
F96
 10
72.7787
 20
228.219
 30
0.000000
  70
    32
  0
VERTEX
  8
0
  5
F97
 10
72.7878
 20
228.219
 30
0.000000
  70
    32
  0
VERTEX
  8
0
  5
F98
 10
72.7969
 20
228.219
 30
0.000000
  70
    32
  0
VERTEX
  8
0
  5
F99
 10
72.8061
 20
228.219
 30
0.000000
  70
    32
  0
VERTEX
  8
0
  5
F9A
 10
72.8152
 20
228.219
 30
0.000000
  70
    32
  0
VERTEX
  8
0
  5
F9B
 10
72.8243
 20
228.220
 30
0.000000
  70
    32
  0
VERTEX
  8
0
  5
F9C
 10
72.8335
 20
228.220
 30
0.000000
  70
    32
  0
VERTEX
  8
0
  5
F9D
 10
72.8426
 20
228.220
 30
0.000000
  70
    32
  0
VERTEX
  8
0
  5
F9E
 10
72.8517
 20
228.220
 30
0.000000
  70
    32
  0
VERTEX
  8
0
  5
F9F
 10
72.8609
 20
228.220
 30
0.000000
  70
    32
  0
VERTEX
  8
0
  5
FA0
 10
72.8700
 20
228.221
 30
0.000000
  70
    32
  0
VERTEX
  8
0
  5
FA1
 10
72.8791
 20
228.221
 30
0.000000
  70
    32
  0
VERTEX
  8
0
  5
FA2
 10
72.8883
 20
228.221
 30
0.000000
  70
    32
  0
VERTEX
  8
0
  5
FA3
 10
72.8974
 20
228.221
 30
0.000000
  70
    32
  0
VERTEX
  8
0
  5
FA4
 10
72.9065
 20
228.222
 30
0.000000
  70
    32
  0
VERTEX
  8
0
  5
FA5
 10
72.9157
 20
228.222
 30
0.000000
  70
    32
  0
VERTEX
  8
0
  5
FA6
 10
72.9248
 20
228.222
 30
0.000000
  70
    32
  0
VERTEX
  8
0
  5
FA7
 10
72.9339
 20
228.222
 30
0.000000
  70
    32
  0
VERTEX
  8
0
  5
FA8
 10
72.9430
 20
228.223
 30
0.000000
  70
    32
  0
VERTEX
  8
0
  5
FA9
 10
72.9522
 20
228.223
 30
0.000000
  70
    32
  0
VERTEX
  8
0
  5
FAA
 10
72.9613
 20
228.223
 30
0.000000
  70
    32
  0
VERTEX
  8
0
  5
FAB
 10
72.9704
 20
228.224
 30
0.000000
  70
    32
  0
VERTEX
  8
0
  5
FAC
 10
72.9796
 20
228.224
 30
0.000000
  70
    32
  0
VERTEX
  8
0
  5
FAD
 10
72.9887
 20
228.224
 30
0.000000
  70
    32
  0
VERTEX
  8
0
  5
FAE
 10
72.9978
 20
228.225
 30
0.000000
  70
    32
  0
VERTEX
  8
0
  5
FAF
 10
73.0069
 20
228.225
 30
0.000000
  70
    32
  0
VERTEX
  8
0
  5
FB0
 10
73.0161
 20
228.225
 30
0.000000
  70
    32
  0
VERTEX
  8
0
  5
FB1
 10
73.0252
 20
228.225
 30
0.000000
  70
    32
  0
VERTEX
  8
0
  5
FB2
 10
73.0343
 20
228.226
 30
0.000000
  70
    32
  0
VERTEX
  8
0
  5
FB3
 10
73.0435
 20
228.226
 30
0.000000
  70
    32
  0
VERTEX
  8
0
  5
FB4
 10
73.0526
 20
228.226
 30
0.000000
  70
    32
  0
VERTEX
  8
0
  5
FB5
 10
73.0617
 20
228.227
 30
0.000000
  70
    32
  0
VERTEX
  8
0
  5
FB6
 10
73.0708
 20
228.227
 30
0.000000
  70
    32
  0
VERTEX
  8
0
  5
FB7
 10
73.0800
 20
228.227
 30
0.000000
  70
    32
  0
VERTEX
  8
0
  5
FB8
 10
73.0891
 20
228.228
 30
0.000000
  70
    32
  0
VERTEX
  8
0
  5
FB9
 10
73.0982
 20
228.228
 30
0.000000
  70
    32
  0
VERTEX
  8
0
  5
FBA
 10
73.1073
 20
228.229
 30
0.000000
  70
    32
  0
VERTEX
  8
0
  5
FBB
 10
73.1165
 20
228.229
 30
0.000000
  70
    32
  0
VERTEX
  8
0
  5
FBC
 10
73.1256
 20
228.229
 30
0.000000
  70
    32
  0
VERTEX
  8
0
  5
FBD
 10
73.1347
 20
228.230
 30
0.000000
  70
    32
  0
VERTEX
  8
0
  5
FBE
 10
73.1439
 20
228.230
 30
0.000000
  70
    32
  0
VERTEX
  8
0
  5
FBF
 10
73.1530
 20
228.230
 30
0.000000
  70
    32
  0
VERTEX
  8
0
  5
FC0
 10
73.1621
 20
228.231
 30
0.000000
  70
    32
  0
VERTEX
  8
0
  5
FC1
 10
73.1712
 20
228.231
 30
0.000000
  70
    32
  0
VERTEX
  8
0
  5
FC2
 10
73.1804
 20
228.231
 30
0.000000
  70
    32
  0
VERTEX
  8
0
  5
FC3
 10
73.1895
 20
228.232
 30
0.000000
  70
    32
  0
VERTEX
  8
0
  5
FC4
 10
73.1986
 20
228.232
 30
0.000000
  70
    32
  0
VERTEX
  8
0
  5
FC5
 10
73.2077
 20
228.233
 30
0.000000
  70
    32
  0
VERTEX
  8
0
  5
FC6
 10
73.2169
 20
228.233
 30
0.000000
  70
    32
  0
VERTEX
  8
0
  5
FC7
 10
73.2260
 20
228.233
 30
0.000000
  70
    32
  0
VERTEX
  8
0
  5
FC8
 10
73.2351
 20
228.234
 30
0.000000
  70
    32
  0
VERTEX
  8
0
  5
FC9
 10
73.2442
 20
228.234
 30
0.000000
  70
    32
  0
VERTEX
  8
0
  5
FCA
 10
73.2534
 20
228.235
 30
0.000000
  70
    32
  0
VERTEX
  8
0
  5
FCB
 10
73.2625
 20
228.235
 30
0.000000
  70
    32
  0
VERTEX
  8
0
  5
FCC
 10
73.2716
 20
228.235
 30
0.000000
  70
    32
  0
VERTEX
  8
0
  5
FCD
 10
73.2807
 20
228.236
 30
0.000000
  70
    32
  0
VERTEX
  8
0
  5
FCE
 10
73.2899
 20
228.236
 30
0.000000
  70
    32
  0
VERTEX
  8
0
  5
FCF
 10
73.2990
 20
228.236
 30
0.000000
  70
    32
  0
VERTEX
  8
0
  5
FD0
 10
73.3081
 20
228.237
 30
0.000000
  70
    32
  0
VERTEX
  8
0
  5
FD1
 10
73.3172
 20
228.237
 30
0.000000
  70
    32
  0
VERTEX
  8
0
  5
FD2
 10
73.3264
 20
228.238
 30
0.000000
  70
    32
  0
VERTEX
  8
0
  5
FD3
 10
73.3355
 20
228.238
 30
0.000000
  70
    32
  0
VERTEX
  8
0
  5
FD4
 10
73.3446
 20
228.239
 30
0.000000
  70
    32
  0
VERTEX
  8
0
  5
FD5
 10
73.3537
 20
228.239
 30
0.000000
  70
    32
  0
VERTEX
  8
0
  5
FD6
 10
73.3629
 20
228.239
 30
0.000000
  70
    32
  0
VERTEX
  8
0
  5
FD7
 10
73.3720
 20
228.240
 30
0.000000
  70
    32
  0
VERTEX
  8
0
  5
FD8
 10
73.3811
 20
228.240
 30
0.000000
  70
    32
  0
VERTEX
  8
0
  5
FD9
 10
73.3902
 20
228.241
 30
0.000000
  70
    32
  0
VERTEX
  8
0
  5
FDA
 10
73.3994
 20
228.241
 30
0.000000
  70
    32
  0
VERTEX
  8
0
  5
FDB
 10
73.4085
 20
228.241
 30
0.000000
  70
    32
  0
VERTEX
  8
0
  5
FDC
 10
73.4176
 20
228.242
 30
0.000000
  70
    32
  0
VERTEX
  8
0
  5
FDD
 10
73.4267
 20
228.242
 30
0.000000
  70
    32
  0
VERTEX
  8
0
  5
FDE
 10
73.4358
 20
228.243
 30
0.000000
  70
    32
  0
VERTEX
  8
0
  5
FDF
 10
73.4450
 20
228.243
 30
0.000000
  70
    32
  0
VERTEX
  8
0
  5
FE0
 10
73.4541
 20
228.244
 30
0.000000
  70
    32
  0
VERTEX
  8
0
  5
FE1
 10
73.4632
 20
228.244
 30
0.000000
  70
    32
  0
VERTEX
  8
0
  5
FE2
 10
73.4723
 20
228.244
 30
0.000000
  70
    32
  0
VERTEX
  8
0
  5
FE3
 10
73.4815
 20
228.245
 30
0.000000
  70
    32
  0
VERTEX
  8
0
  5
FE4
 10
73.4906
 20
228.245
 30
0.000000
  70
    32
  0
VERTEX
  8
0
  5
FE5
 10
73.4997
 20
228.246
 30
0.000000
  70
    32
  0
VERTEX
  8
0
  5
FE6
 10
73.5088
 20
228.246
 30
0.000000
  70
    32
  0
VERTEX
  8
0
  5
FE7
 10
73.5180
 20
228.247
 30
0.000000
  70
    32
  0
VERTEX
  8
0
  5
FE8
 10
73.5271
 20
228.247
 30
0.000000
  70
    32
  0
VERTEX
  8
0
  5
FE9
 10
73.5362
 20
228.247
 30
0.000000
  70
    32
  0
VERTEX
  8
0
  5
FEA
 10
73.5453
 20
228.248
 30
0.000000
  70
    32
  0
VERTEX
  8
0
  5
FEB
 10
73.5544
 20
228.248
 30
0.000000
  70
    32
  0
VERTEX
  8
0
  5
FEC
 10
73.5636
 20
228.249
 30
0.000000
  70
    32
  0
VERTEX
  8
0
  5
FED
 10
73.5727
 20
228.249
 30
0.000000
  70
    32
  0
VERTEX
  8
0
  5
FEE
 10
73.5818
 20
228.250
 30
0.000000
  70
    32
  0
VERTEX
  8
0
  5
FEF
 10
73.5909
 20
228.250
 30
0.000000
  70
    32
  0
VERTEX
  8
0
  5
FF0
 10
73.6001
 20
228.251
 30
0.000000
  70
    32
  0
VERTEX
  8
0
  5
FF1
 10
73.6092
 20
228.251
 30
0.000000
  70
    32
  0
VERTEX
  8
0
  5
FF2
 10
73.6183
 20
228.251
 30
0.000000
  70
    32
  0
VERTEX
  8
0
  5
FF3
 10
73.6274
 20
228.252
 30
0.000000
  70
    32
  0
VERTEX
  8
0
  5
FF4
 10
73.6366
 20
228.252
 30
0.000000
  70
    32
  0
VERTEX
  8
0
  5
FF5
 10
73.6457
 20
228.253
 30
0.000000
  70
    32
  0
VERTEX
  8
0
  5
FF6
 10
73.6548
 20
228.253
 30
0.000000
  70
    32
  0
VERTEX
  8
0
  5
FF7
 10
73.6639
 20
228.254
 30
0.000000
  70
    32
  0
VERTEX
  8
0
  5
FF8
 10
73.6730
 20
228.254
 30
0.000000
  70
    32
  0
VERTEX
  8
0
  5
FF9
 10
73.6822
 20
228.255
 30
0.000000
  70
    32
  0
VERTEX
  8
0
  5
FFA
 10
73.6913
 20
228.255
 30
0.000000
  70
    32
  0
VERTEX
  8
0
  5
FFB
 10
73.7004
 20
228.255
 30
0.000000
  70
    32
  0
VERTEX
  8
0
  5
FFC
 10
73.7095
 20
228.256
 30
0.000000
  70
    32
  0
VERTEX
  8
0
  5
FFD
 10
73.7187
 20
228.256
 30
0.000000
  70
    32
  0
VERTEX
  8
0
  5
FFE
 10
73.7278
 20
228.257
 30
0.000000
  70
    32
  0
VERTEX
  8
0
  5
FFF
 10
73.7369
 20
228.257
 30
0.000000
  70
    32
  0
VERTEX
  8
0
  5
1000
 10
73.7460
 20
228.258
 30
0.000000
  70
    32
  0
VERTEX
  8
0
  5
1001
 10
73.7552
 20
228.258
 30
0.000000
  70
    32
  0
VERTEX
  8
0
  5
1002
 10
73.7643
 20
228.259
 30
0.000000
  70
    32
  0
VERTEX
  8
0
  5
1003
 10
73.7734
 20
228.259
 30
0.000000
  70
    32
  0
VERTEX
  8
0
  5
1004
 10
73.7825
 20
228.259
 30
0.000000
  70
    32
  0
VERTEX
  8
0
  5
1005
 10
73.7916
 20
228.260
 30
0.000000
  70
    32
  0
VERTEX
  8
0
  5
1006
 10
73.8008
 20
228.260
 30
0.000000
  70
    32
  0
VERTEX
  8
0
  5
1007
 10
73.8099
 20
228.261
 30
0.000000
  70
    32
  0
VERTEX
  8
0
  5
1008
 10
73.8190
 20
228.261
 30
0.000000
  70
    32
  0
VERTEX
  8
0
  5
1009
 10
73.8281
 20
228.262
 30
0.000000
  70
    32
  0
VERTEX
  8
0
  5
100A
 10
73.8373
 20
228.262
 30
0.000000
  70
    32
  0
VERTEX
  8
0
  5
100B
 10
73.8464
 20
228.262
 30
0.000000
  70
    32
  0
VERTEX
  8
0
  5
100C
 10
73.8555
 20
228.263
 30
0.000000
  70
    32
  0
VERTEX
  8
0
  5
100D
 10
73.8646
 20
228.263
 30
0.000000
  70
    32
  0
VERTEX
  8
0
  5
100E
 10
73.8738
 20
228.264
 30
0.000000
  70
    32
  0
VERTEX
  8
0
  5
100F
 10
73.8829
 20
228.264
 30
0.000000
  70
    32
  0
VERTEX
  8
0
  5
1010
 10
73.8920
 20
228.265
 30
0.000000
  70
    32
  0
VERTEX
  8
0
  5
1011
 10
73.9011
 20
228.265
 30
0.000000
  70
    32
  0
VERTEX
  8
0
  5
1012
 10
73.9102
 20
228.266
 30
0.000000
  70
    32
  0
VERTEX
  8
0
  5
1013
 10
73.9194
 20
228.266
 30
0.000000
  70
    32
  0
VERTEX
  8
0
  5
1014
 10
73.9285
 20
228.266
 30
0.000000
  70
    32
  0
VERTEX
  8
0
  5
1015
 10
73.9376
 20
228.267
 30
0.000000
  70
    32
  0
VERTEX
  8
0
  5
1016
 10
73.9467
 20
228.267
 30
0.000000
  70
    32
  0
VERTEX
  8
0
  5
1017
 10
73.9559
 20
228.268
 30
0.000000
  70
    32
  0
VERTEX
  8
0
  5
1018
 10
73.9650
 20
228.268
 30
0.000000
  70
    32
  0
VERTEX
  8
0
  5
1019
 10
73.9741
 20
228.269
 30
0.000000
  70
    32
  0
VERTEX
  8
0
  5
101A
 10
73.9832
 20
228.269
 30
0.000000
  70
    32
  0
VERTEX
  8
0
  5
101B
 10
73.9924
 20
228.269
 30
0.000000
  70
    32
  0
VERTEX
  8
0
  5
101C
 10
74.0015
 20
228.270
 30
0.000000
  70
    32
  0
VERTEX
  8
0
  5
101D
 10
74.0106
 20
228.270
 30
0.000000
  70
    32
  0
VERTEX
  8
0
  5
101E
 10
74.0197
 20
228.271
 30
0.000000
  70
    32
  0
VERTEX
  8
0
  5
101F
 10
74.0288
 20
228.271
 30
0.000000
  70
    32
  0
VERTEX
  8
0
  5
1020
 10
74.0380
 20
228.272
 30
0.000000
  70
    32
  0
VERTEX
  8
0
  5
1021
 10
74.0471
 20
228.272
 30
0.000000
  70
    32
  0
VERTEX
  8
0
  5
1022
 10
74.0562
 20
228.272
 30
0.000000
  70
    32
  0
VERTEX
  8
0
  5
1023
 10
74.0653
 20
228.273
 30
0.000000
  70
    32
  0
VERTEX
  8
0
  5
1024
 10
74.0745
 20
228.273
 30
0.000000
  70
    32
  0
VERTEX
  8
0
  5
1025
 10
74.0836
 20
228.274
 30
0.000000
  70
    32
  0
VERTEX
  8
0
  5
1026
 10
74.0927
 20
228.274
 30
0.000000
  70
    32
  0
VERTEX
  8
0
  5
1027
 10
74.1018
 20
228.274
 30
0.000000
  70
    32
  0
VERTEX
  8
0
  5
1028
 10
74.1110
 20
228.275
 30
0.000000
  70
    32
  0
VERTEX
  8
0
  5
1029
 10
74.1201
 20
228.275
 30
0.000000
  70
    32
  0
VERTEX
  8
0
  5
102A
 10
74.1292
 20
228.276
 30
0.000000
  70
    32
  0
VERTEX
  8
0
  5
102B
 10
74.1383
 20
228.276
 30
0.000000
  70
    32
  0
VERTEX
  8
0
  5
102C
 10
74.1475
 20
228.277
 30
0.000000
  70
    32
  0
VERTEX
  8
0
  5
102D
 10
74.1566
 20
228.277
 30
0.000000
  70
    32
  0
VERTEX
  8
0
  5
102E
 10
74.1657
 20
228.277
 30
0.000000
  70
    32
  0
VERTEX
  8
0
  5
102F
 10
74.1748
 20
228.278
 30
0.000000
  70
    32
  0
VERTEX
  8
0
  5
1030
 10
74.1840
 20
228.278
 30
0.000000
  70
    32
  0
VERTEX
  8
0
  5
1031
 10
74.1931
 20
228.279
 30
0.000000
  70
    32
  0
VERTEX
  8
0
  5
1032
 10
74.2022
 20
228.279
 30
0.000000
  70
    32
  0
VERTEX
  8
0
  5
1033
 10
74.2113
 20
228.279
 30
0.000000
  70
    32
  0
VERTEX
  8
0
  5
1034
 10
74.2205
 20
228.280
 30
0.000000
  70
    32
  0
VERTEX
  8
0
  5
1035
 10
74.2296
 20
228.280
 30
0.000000
  70
    32
  0
VERTEX
  8
0
  5
1036
 10
74.2387
 20
228.281
 30
0.000000
  70
    32
  0
VERTEX
  8
0
  5
1037
 10
74.2478
 20
228.281
 30
0.000000
  70
    32
  0
VERTEX
  8
0
  5
1038
 10
74.2570
 20
228.281
 30
0.000000
  70
    32
  0
VERTEX
  8
0
  5
1039
 10
74.2661
 20
228.282
 30
0.000000
  70
    32
  0
VERTEX
  8
0
  5
103A
 10
74.2752
 20
228.282
 30
0.000000
  70
    32
  0
VERTEX
  8
0
  5
103B
 10
74.2843
 20
228.283
 30
0.000000
  70
    32
  0
VERTEX
  8
0
  5
103C
 10
74.2935
 20
228.283
 30
0.000000
  70
    32
  0
VERTEX
  8
0
  5
103D
 10
74.3026
 20
228.283
 30
0.000000
  70
    32
  0
VERTEX
  8
0
  5
103E
 10
74.3117
 20
228.284
 30
0.000000
  70
    32
  0
VERTEX
  8
0
  5
103F
 10
74.3208
 20
228.284
 30
0.000000
  70
    32
  0
VERTEX
  8
0
  5
1040
 10
74.3300
 20
228.285
 30
0.000000
  70
    32
  0
VERTEX
  8
0
  5
1041
 10
74.3391
 20
228.285
 30
0.000000
  70
    32
  0
VERTEX
  8
0
  5
1042
 10
74.3482
 20
228.285
 30
0.000000
  70
    32
  0
VERTEX
  8
0
  5
1043
 10
74.3573
 20
228.286
 30
0.000000
  70
    32
  0
VERTEX
  8
0
  5
1044
 10
74.3665
 20
228.286
 30
0.000000
  70
    32
  0
VERTEX
  8
0
  5
1045
 10
74.3756
 20
228.287
 30
0.000000
  70
    32
  0
VERTEX
  8
0
  5
1046
 10
74.3847
 20
228.287
 30
0.000000
  70
    32
  0
VERTEX
  8
0
  5
1047
 10
74.3938
 20
228.287
 30
0.000000
  70
    32
  0
VERTEX
  8
0
  5
1048
 10
74.4030
 20
228.288
 30
0.000000
  70
    32
  0
VERTEX
  8
0
  5
1049
 10
74.4121
 20
228.288
 30
0.000000
  70
    32
  0
VERTEX
  8
0
  5
104A
 10
74.4212
 20
228.288
 30
0.000000
  70
    32
  0
VERTEX
  8
0
  5
104B
 10
74.4303
 20
228.289
 30
0.000000
  70
    32
  0
VERTEX
  8
0
  5
104C
 10
74.4395
 20
228.289
 30
0.000000
  70
    32
  0
VERTEX
  8
0
  5
104D
 10
74.4486
 20
228.290
 30
0.000000
  70
    32
  0
VERTEX
  8
0
  5
104E
 10
74.4577
 20
228.290
 30
0.000000
  70
    32
  0
VERTEX
  8
0
  5
104F
 10
74.4668
 20
228.290
 30
0.000000
  70
    32
  0
VERTEX
  8
0
  5
1050
 10
74.4760
 20
228.291
 30
0.000000
  70
    32
  0
VERTEX
  8
0
  5
1051
 10
74.4851
 20
228.291
 30
0.000000
  70
    32
  0
VERTEX
  8
0
  5
1052
 10
74.4942
 20
228.291
 30
0.000000
  70
    32
  0
VERTEX
  8
0
  5
1053
 10
74.5033
 20
228.292
 30
0.000000
  70
    32
  0
VERTEX
  8
0
  5
1054
 10
74.5125
 20
228.292
 30
0.000000
  70
    32
  0
VERTEX
  8
0
  5
1055
 10
74.5216
 20
228.292
 30
0.000000
  70
    32
  0
VERTEX
  8
0
  5
1056
 10
74.5307
 20
228.293
 30
0.000000
  70
    32
  0
VERTEX
  8
0
  5
1057
 10
74.5399
 20
228.293
 30
0.000000
  70
    32
  0
VERTEX
  8
0
  5
1058
 10
74.5490
 20
228.294
 30
0.000000
  70
    32
  0
VERTEX
  8
0
  5
1059
 10
74.5581
 20
228.294
 30
0.000000
  70
    32
  0
VERTEX
  8
0
  5
105A
 10
74.5672
 20
228.294
 30
0.000000
  70
    32
  0
VERTEX
  8
0
  5
105B
 10
74.5764
 20
228.295
 30
0.000000
  70
    32
  0
VERTEX
  8
0
  5
105C
 10
74.5855
 20
228.295
 30
0.000000
  70
    32
  0
VERTEX
  8
0
  5
105D
 10
74.5946
 20
228.295
 30
0.000000
  70
    32
  0
VERTEX
  8
0
  5
105E
 10
74.6037
 20
228.296
 30
0.000000
  70
    32
  0
VERTEX
  8
0
  5
105F
 10
74.6129
 20
228.296
 30
0.000000
  70
    32
  0
VERTEX
  8
0
  5
1060
 10
74.6220
 20
228.296
 30
0.000000
  70
    32
  0
VERTEX
  8
0
  5
1061
 10
74.6311
 20
228.297
 30
0.000000
  70
    32
  0
VERTEX
  8
0
  5
1062
 10
74.6402
 20
228.297
 30
0.000000
  70
    32
  0
VERTEX
  8
0
  5
1063
 10
74.6494
 20
228.297
 30
0.000000
  70
    32
  0
VERTEX
  8
0
  5
1064
 10
74.6585
 20
228.298
 30
0.000000
  70
    32
  0
VERTEX
  8
0
  5
1065
 10
74.6676
 20
228.298
 30
0.000000
  70
    32
  0
VERTEX
  8
0
  5
1066
 10
74.6768
 20
228.298
 30
0.000000
  70
    32
  0
VERTEX
  8
0
  5
1067
 10
74.6859
 20
228.299
 30
0.000000
  70
    32
  0
VERTEX
  8
0
  5
1068
 10
74.6950
 20
228.299
 30
0.000000
  70
    32
  0
VERTEX
  8
0
  5
1069
 10
74.7041
 20
228.299
 30
0.000000
  70
    32
  0
VERTEX
  8
0
  5
106A
 10
74.7133
 20
228.300
 30
0.000000
  70
    32
  0
VERTEX
  8
0
  5
106B
 10
74.7224
 20
228.300
 30
0.000000
  70
    32
  0
VERTEX
  8
0
  5
106C
 10
74.7315
 20
228.300
 30
0.000000
  70
    32
  0
VERTEX
  8
0
  5
106D
 10
74.7407
 20
228.301
 30
0.000000
  70
    32
  0
VERTEX
  8
0
  5
106E
 10
74.7498
 20
228.301
 30
0.000000
  70
    32
  0
VERTEX
  8
0
  5
106F
 10
74.7589
 20
228.301
 30
0.000000
  70
    32
  0
VERTEX
  8
0
  5
1070
 10
74.7680
 20
228.302
 30
0.000000
  70
    32
  0
VERTEX
  8
0
  5
1071
 10
74.7772
 20
228.302
 30
0.000000
  70
    32
  0
VERTEX
  8
0
  5
1072
 10
74.7863
 20
228.302
 30
0.000000
  70
    32
  0
VERTEX
  8
0
  5
1073
 10
74.7954
 20
228.303
 30
0.000000
  70
    32
  0
VERTEX
  8
0
  5
1074
 10
74.8046
 20
228.303
 30
0.000000
  70
    32
  0
VERTEX
  8
0
  5
1075
 10
74.8137
 20
228.303
 30
0.000000
  70
    32
  0
VERTEX
  8
0
  5
1076
 10
74.8228
 20
228.303
 30
0.000000
  70
    32
  0
VERTEX
  8
0
  5
1077
 10
74.8319
 20
228.304
 30
0.000000
  70
    32
  0
VERTEX
  8
0
  5
1078
 10
74.8411
 20
228.304
 30
0.000000
  70
    32
  0
VERTEX
  8
0
  5
1079
 10
74.8502
 20
228.304
 30
0.000000
  70
    32
  0
VERTEX
  8
0
  5
107A
 10
74.8593
 20
228.305
 30
0.000000
  70
    32
  0
VERTEX
  8
0
  5
107B
 10
74.8685
 20
228.305
 30
0.000000
  70
    32
  0
VERTEX
  8
0
  5
107C
 10
74.8776
 20
228.305
 30
0.000000
  70
    32
  0
VERTEX
  8
0
  5
107D
 10
74.8867
 20
228.306
 30
0.000000
  70
    32
  0
VERTEX
  8
0
  5
107E
 10
74.8958
 20
228.306
 30
0.000000
  70
    32
  0
VERTEX
  8
0
  5
107F
 10
74.9050
 20
228.306
 30
0.000000
  70
    32
  0
VERTEX
  8
0
  5
1080
 10
74.9141
 20
228.306
 30
0.000000
  70
    32
  0
VERTEX
  8
0
  5
1081
 10
74.9232
 20
228.307
 30
0.000000
  70
    32
  0
VERTEX
  8
0
  5
1082
 10
74.9324
 20
228.307
 30
0.000000
  70
    32
  0
VERTEX
  8
0
  5
1083
 10
74.9415
 20
228.307
 30
0.000000
  70
    32
  0
VERTEX
  8
0
  5
1084
 10
74.9506
 20
228.308
 30
0.000000
  70
    32
  0
VERTEX
  8
0
  5
1085
 10
74.9597
 20
228.308
 30
0.000000
  70
    32
  0
VERTEX
  8
0
  5
1086
 10
74.9689
 20
228.308
 30
0.000000
  70
    32
  0
VERTEX
  8
0
  5
1087
 10
74.9780
 20
228.308
 30
0.000000
  70
    32
  0
VERTEX
  8
0
  5
1088
 10
74.9871
 20
228.309
 30
0.000000
  70
    32
  0
VERTEX
  8
0
  5
1089
 10
74.9963
 20
228.309
 30
0.000000
  70
    32
  0
VERTEX
  8
0
  5
108A
 10
75.0054
 20
228.309
 30
0.000000
  70
    32
  0
VERTEX
  8
0
  5
108B
 10
75.0145
 20
228.309
 30
0.000000
  70
    32
  0
VERTEX
  8
0
  5
108C
 10
75.0236
 20
228.310
 30
0.000000
  70
    32
  0
VERTEX
  8
0
  5
108D
 10
75.0328
 20
228.310
 30
0.000000
  70
    32
  0
VERTEX
  8
0
  5
108E
 10
75.0419
 20
228.310
 30
0.000000
  70
    32
  0
VERTEX
  8
0
  5
108F
 10
75.0510
 20
228.310
 30
0.000000
  70
    32
  0
VERTEX
  8
0
  5
1090
 10
75.0602
 20
228.311
 30
0.000000
  70
    32
  0
SEQEND
  8
0
  5
1091
  0
ARC
  5
6EC
  8
0
  6
CONTINUOUS
 62
     7
 10
103.539384
 20
194.28151
 30
0.0
 40
7.0
 50
270.0
 51
275.195554
  0
ARC
  5
6ED
  8
0
  6
CONTINUOUS
 62
     7
 10
103.539384
 20
194.28151
 30
0.0
 40
7.0
 50
275.195554
 51
354.798848
  0
ARC
  5
6EE
  8
0
  6
CONTINUOUS
 62
     7
 10
103.539384
 20
194.28151
 30
0.0
 40
7.0
 50
354.798848
 51
0.0
  0
ARC
  5
6EF
  8
0
  6
CONTINUOUS
 62
     7
 10
65.539384
 20
194.28151
 30
0.0
 40
7.0
 50
180.0
 51
185.195554
  0
ARC
  5
6F0
  8
0
  6
CONTINUOUS
 62
     7
 10
65.539384
 20
194.28151
 30
0.0
 40
7.0
 50
185.195554
 51
264.798848
  0
ARC
  5
6F1
  8
0
  6
CONTINUOUS
 62
     7
 10
65.539384
 20
194.28151
 30
0.0
 40
7.0
 50
264.798848
 51
270.0
  0
ARC
  5
6F2
  8
0
  6
CONTINUOUS
 62
     7
 10
65.539384
 20
242.28151
 30
0.0
 40
7.0
 50
90.0
 51
95.195554
  0
ARC
  5
6F3
  8
0
  6
CONTINUOUS
 62
     7
 10
65.539384
 20
242.28151
 30
0.0
 40
7.0
 50
95.195554
 51
174.798848
  0
ARC
  5
6F4
  8
0
  6
CONTINUOUS
 62
     7
 10
65.539384
 20
242.28151
 30
0.0
 40
7.0
 50
174.798848
 51
180.0
  0
ARC
  5
6F5
  8
0
  6
CONTINUOUS
 62
     7
 10
103.539384
 20
242.28151
 30
0.0
 40
7.0
 50
0.0
 51
5.195554
  0
ARC
  5
6F6
  8
0
  6
CONTINUOUS
 62
     7
 10
103.539384
 20
242.28151
 30
0.0
 40
7.0
 50
5.195554
 51
84.798848
  0
ARC
  5
6F7
  8
0
  6
CONTINUOUS
 62
     7
 10
103.539384
 20
242.28151
 30
0.0
 40
7.0
 50
84.798848
 51
90.0
  0
LINE
  5
6F8
  8
0
  6
CONTINUOUS
 62
     7
 10
89.839384
 20
239.08151
 30
0.0
 11
89.839384
 21
237.496088
 31
0.0
  0
ARC
  5
6F9
  8
0
  6
CONTINUOUS
 62
     7
 10
90.439384
 20
237.496088
 30
0.0
 40
0.6
 50
180.0
 51
216.722443
  0
ARC
  5
6FA
  8
0
  6
CONTINUOUS
 62
     7
 10
84.539384
 20
218.28151
 30
0.0
 40
19.5
 50
107.069551
 51
287.251641
  0
ARC
  5
6FB
  8
0
  6
CONTINUOUS
 62
     7
 10
78.639384
 20
237.496088
 30
0.0
 40
0.6
 50
323.277557
 51
0.0
  0
LINE
  5
6FC
  8
0
  6
CONTINUOUS
 62
     7
 10
79.239384
 20
237.496088
 30
0.0
 11
79.239384
 21
239.08151
 31
0.0
  0
ARC
  5
6FD
  8
0
  6
CONTINUOUS
 62
     7
 10
103.539384
 20
194.28151
 30
0.0
 40
7.0
 50
270.0
 51
275.190681
  0
ARC
  5
6FE
  8
0
  6
CONTINUOUS
 62
     7
 10
103.539384
 20
194.28151
 30
0.0
 40
7.0
 50
275.190681
 51
354.80353
  0
ARC
  5
6FF
  8
0
  6
CONTINUOUS
 62
     7
 10
103.539384
 20
194.28151
 30
0.0
 40
7.0
 50
354.80353
 51
0.0
  0
LINE
  5
700
  8
0
  6
CONTINUOUS
 62
     7
 10
65.539384
 20
187.28151
 30
0.0
 11
103.539384
 21
187.28151
 31
0.0
  0
ARC
  5
701
  8
0
  6
CONTINUOUS
 62
     7
 10
65.539384
 20
194.28151
 30
0.0
 40
7.0
 50
180.0
 51
185.190681
  0
ARC
  5
702
  8
0
  6
CONTINUOUS
 62
     7
 10
65.539384
 20
194.28151
 30
0.0
 40
7.0
 50
185.190681
 51
264.80353
  0
ARC
  5
703
  8
0
  6
CONTINUOUS
 62
     7
 10
65.539384
 20
194.28151
 30
0.0
 40
7.0
 50
264.80353
 51
270.0
  0
LINE
  5
704
  8
0
  6
CONTINUOUS
 62
     7
 10
58.539384
 20
242.28151
 30
0.0
 11
58.539384
 21
194.28151
 31
0.0
  0
ARC
  5
705
  8
0
  6
CONTINUOUS
 62
     7
 10
65.539384
 20
242.28151
 30
0.0
 40
7.0
 50
90.0
 51
95.190681
  0
ARC
  5
706
  8
0
  6
CONTINUOUS
 62
     7
 10
65.539384
 20
242.28151
 30
0.0
 40
7.0
 50
95.190681
 51
174.80353
  0
ARC
  5
707
  8
0
  6
CONTINUOUS
 62
     7
 10
65.539384
 20
242.28151
 30
0.0
 40
7.0
 50
174.80353
 51
180.0
  0
LINE
  5
708
  8
0
  6
CONTINUOUS
 62
     7
 10
103.539384
 20
249.28151
 30
0.0
 11
94.253567
 21
249.28151
 31
0.0
  0
LINE
  5
709
  8
0
  6
CONTINUOUS
 62
     7
 10
74.825201
 20
249.28151
 30
0.0
 11
65.539384
 21
249.28151
 31
0.0
  0
ARC
  5
70A
  8
0
  6
CONTINUOUS
 62
     7
 10
103.539384
 20
242.28151
 30
0.0
 40
7.0
 50
0.0
 51
5.190681
  0
ARC
  5
70B
  8
0
  6
CONTINUOUS
 62
     7
 10
103.539384
 20
242.28151
 30
0.0
 40
7.0
 50
5.190681
 51
84.80353
  0
ARC
  5
70C
  8
0
  6
CONTINUOUS
 62
     7
 10
103.539384
 20
242.28151
 30
0.0
 40
7.0
 50
84.80353
 51
90.0
  0
LINE
  5
70D
  8
0
  6
CONTINUOUS
 62
     7
 10
110.539384
 20
194.28151
 30
0.0
 11
110.539384
 21
242.28151
 31
0.0
  0
ARC
  5
70E
  8
0
  6
CONTINUOUS
 62
     7
 10
78.639384
 20
237.496088
 30
0.0
 40
0.6
 50
287.069551
 51
323.277557
  0
ARC
  5
70F
  8
0
  6
CONTINUOUS
 62
     7
 10
90.439384
 20
237.496088
 30
0.0
 40
0.6
 50
216.722443
 51
252.930449
  0
LINE
  5
710
  8
0
  6
CONTINUOUS
 62
     7
 10
79.239384
 20
239.48151
 30
0.0
 11
79.239384
 21
239.08151
 31
0.0
  0
ARC
  5
711
  8
0
  6
CONTINUOUS
 62
     7
 10
84.539384
 20
218.28151
 30
0.0
 40
23.6
 50
104.96009
 51
105.231036
  0
ARC
  5
712
  8
0
  6
CONTINUOUS
 62
     7
 10
84.539384
 20
218.28151
 30
0.0
 40
23.6
 50
74.768964
 51
75.03991
  0
LINE
  5
713
  8
0
  6
CONTINUOUS
 62
     7
 10
89.839384
 20
239.08151
 30
0.0
 11
89.839384
 21
239.48151
 31
0.0
  0
ARC
  5
714
  8
0
  6
CONTINUOUS
 62
     7
 10
84.539384
 20
218.28151
 30
0.0
 40
23.6
 50
71.602534
 51
74.768964
  0
ARC
  5
715
  8
0
  6
CONTINUOUS
 62
     7
 10
84.539384
 20
218.28151
 30
0.0
 40
23.6
 50
105.231036
 51
108.397466
  0
LINE
  5
716
  8
0
  6
CONTINUOUS
 62
     7
 10
78.339384
 20
241.08151
 30
0.0
 11
78.539384
 21
241.08151
 31
0.0
  0
LINE
  5
717
  8
0
  6
CONTINUOUS
 62
     7
 10
90.539384
 20
241.08151
 30
0.0
 11
90.739384
 21
241.08151
 31
0.0
  0
ARC
  5
718
  8
0
  6
CONTINUOUS
 62
     7
 10
84.539384
 20
218.28151
 30
0.0
 40
23.6
 50
69.11238
 51
71.602534
  0
ARC
  5
719
  8
0
  6
CONTINUOUS
 62
     7
 10
84.539384
 20
218.28151
 30
0.0
 40
23.6
 50
110.88762
 51
290.940098
  0
ARC
  5
71A
  8
0
  6
CONTINUOUS
 62
     7
 10
84.539384
 20
218.28151
 30
0.0
 40
23.6
 50
108.397466
 51
110.88762
  0
ARC
  5
71B
  8
0
  6
CONTINUOUS
 62
     7
 10
103.539384
 20
242.28151
 30
0.0
 40
5.0
 50
0.0
 51
180.0
  0
ARC
  5
71C
  8
0
  6
CONTINUOUS
 62
     7
 10
103.539384
 20
242.28151
 30
0.0
 40
5.0
 50
180.0
 51
0.0
  0
ARC
  5
71D
  8
0
  6
CONTINUOUS
 62
     7
 10
65.539384
 20
194.28151
 30
0.0
 40
5.0
 50
0.0
 51
180.0
  0
ARC
  5
71E
  8
0
  6
CONTINUOUS
 62
     7
 10
65.539384
 20
194.28151
 30
0.0
 40
5.0
 50
180.0
 51
0.0
  0
ARC
  5
71F
  8
0
  6
CONTINUOUS
 62
     7
 10
103.539384
 20
194.28151
 30
0.0
 40
6.0
 50
180.0
 51
0.0
  0
ARC
  5
720
  8
0
  6
CONTINUOUS
 62
     7
 10
103.539384
 20
194.28151
 30
0.0
 40
6.0
 50
0.0
 51
180.0
  0
ARC
  5
721
  8
0
  6
CONTINUOUS
 62
     7
 10
65.539384
 20
242.28151
 30
0.0
 40
6.0
 50
180.0
 51
0.0
  0
ARC
  5
722
  8
0
  6
CONTINUOUS
 62
     7
 10
65.539384
 20
242.28151
 30
0.0
 40
6.0
 50
0.0
 51
180.0
  0
LINE
  5
723
  8
0
  6
CONTINUOUS
 62
     7
 10
78.339384
 20
241.08151
 30
0.0
 11
78.339384
 21
241.052544
 31
0.0
  0
LINE
  5
724
  8
0
  6
CONTINUOUS
 62
     7
 10
90.739384
 20
241.052544
 30
0.0
 11
90.739384
 21
241.08151
 31
0.0
  0
ARC
  5
725
  8
0
  6
CONTINUOUS
 62
     7
 10
100.609332
 20
243.973176
 30
0.0
 40
0.483333
 50
60.0
 51
150.0
  0
ARC
  5
726
  8
0
  6
CONTINUOUS
 62
     7
 10
103.539384
 20
242.28151
 30
0.0
 40
3.866667
 50
150.0
 51
210.0
  0
ARC
  5
727
  8
0
  6
CONTINUOUS
 62
     7
 10
100.609332
 20
240.589843
 30
0.0
 40
0.483333
 50
210.0
 51
30.0
  0
ARC
  5
728
  8
0
  6
CONTINUOUS
 62
     7
 10
103.539384
 20
242.28151
 30
0.0
 40
2.9
 50
159.594068
 51
210.0
  0
LINE
  5
729
  8
0
  6
CONTINUOUS
 62
     7
 10
101.836496
 20
242.706567
 30
0.0
 11
100.821371
 21
243.29265
 31
0.0
  0
ARC
  5
72A
  8
0
  6
CONTINUOUS
 62
     7
 10
102.078163
 20
243.125146
 30
0.0
 40
0.483333
 50
240.0
 51
60.0
  0
LINE
  5
72B
  8
0
  6
CONTINUOUS
 62
     7
 10
100.850998
 20
244.391755
 30
0.0
 11
102.31983
 21
243.543725
 31
0.0
  0
LINE
  5
72C
  8
0
  6
CONTINUOUS
 62
     7
 10
103.056051
 20
238.898176
 30
0.0
 11
103.056051
 21
245.140948
 31
0.0
  0
ARC
  5
72D
  8
0
  6
CONTINUOUS
 62
     7
 10
103.539384
 20
238.898176
 30
0.0
 40
0.483333
 50
180.0
 51
0.0
  0
LINE
  5
72E
  8
0
  6
CONTINUOUS
 62
     7
 10
104.022717
 20
245.140948
 30
0.0
 11
104.022717
 21
238.898176
 31
0.0
  0
ARC
  5
72F
  8
0
  6
CONTINUOUS
 62
     7
 10
103.539384
 20
242.28151
 30
0.0
 40
2.9
 50
60.0
 51
80.405932
  0
ARC
  5
730
  8
0
  6
CONTINUOUS
 62
     7
 10
105.231051
 20
245.211562
 30
0.0
 40
0.483333
 50
240.0
 51
60.0
  0
ARC
  5
731
  8
0
  6
CONTINUOUS
 62
     7
 10
103.539384
 20
242.28151
 30
0.0
 40
3.866667
 50
60.0
 51
125.0
  0
ARC
  5
732
  8
0
  6
CONTINUOUS
 62
     7
 10
101.598784
 20
245.052974
 30
0.0
 40
0.483333
 50
125.0
 51
305.0
  0
ARC
  5
733
  8
0
  6
CONTINUOUS
 62
     7
 10
103.539384
 20
242.28151
 30
0.0
 40
2.9
 50
99.594068
 51
125.0
  0
LINE
  5
734
  8
0
  6
CONTINUOUS
 62
     7
 10
105.246108
 20
241.854238
 30
0.0
 11
106.257397
 21
241.270369
 31
0.0
  0
ARC
  5
735
  8
0
  6
CONTINUOUS
 62
     7
 10
105.004441
 20
241.435659
 30
0.0
 40
0.483333
 50
60.0
 51
240.0
  0
LINE
  5
736
  8
0
  6
CONTINUOUS
 62
     7
 10
106.22777
 20
240.171264
 30
0.0
 11
104.762774
 21
241.01708
 31
0.0
  0
ARC
  5
737
  8
0
  6
CONTINUOUS
 62
     7
 10
106.469437
 20
240.589843
 30
0.0
 40
0.483333
 50
240.0
 51
330.0
  0
ARC
  5
738
  8
0
  6
CONTINUOUS
 62
     7
 10
103.539384
 20
242.28151
 30
0.0
 40
3.866667
 50
330.0
 51
30.0
  0
ARC
  5
739
  8
0
  6
CONTINUOUS
 62
     7
 10
106.469437
 20
243.973176
 30
0.0
 40
0.483333
 50
30.0
 51
210.0
  0
ARC
  5
73A
  8
0
  6
CONTINUOUS
 62
     7
 10
103.539384
 20
242.28151
 30
0.0
 40
2.9
 50
339.594068
 51
30.0
  0
ARC
  5
73B
  8
0
  6
CONTINUOUS
 62
     7
 10
84.539384
 20
218.28151
 30
0.0
 40
19.5
 50
287.251641
 51
72.930449
  0
ARC
  5
73C
  8
0
  6
CONTINUOUS
 62
     7
 10
84.539384
 20
218.28151
 30
0.0
 40
23.6
 50
290.940098
 51
69.11238
  0
LINE
  5
740
  8
DEFAULT_1
  6
CENTER
 62
     7
 10
140.701684
 20
218.28151
 30
0.0
 11
276.701684
 21
218.28151
 31
0.0
  0
LINE
  5
741
  8
DEFAULT_1
  6
CENTER
 62
     7
 10
84.539384
 20
218.28151
 30
0.0
 11
111.139384
 21
218.28151
 31
0.0
  0
LINE
  5
742
  8
DEFAULT_1
  6
CENTER
 62
     7
 10
84.539384
 20
218.28151
 30
0.0
 11
57.939384
 21
218.28151
 31
0.0
  0
LINE
  5
743
  8
DEFAULT_1
  6
CENTER
 62
     7
 10
84.539384
 20
218.28151
 30
0.0
 11
84.539384
 21
244.88151
 31
0.0
  0
LINE
  5
744
  8
DEFAULT_1
  6
CENTER
 62
     7
 10
84.539384
 20
218.28151
 30
0.0
 11
84.539384
 21
191.68151
 31
0.0
  0
LINE
  5
759
  8
0
  6
CONTINUOUS
 62
     7
 10
277.0
 20
56.0
 30
0.0
 11
410.0
 21
56.0
 31
0.0
  0
LINE
  5
75A
  8
0
  6
CONTINUOUS
 62
     7
 10
277.0
 20
56.0
 30
0.0
 11
277.0
 21
10.0
 31
0.0
  0
LINE
  5
75B
  8
0
  6
CONTINUOUS
 62
     7
 10
359.0
 20
51.0
 30
0.0
 11
410.0
 21
51.0
 31
0.0
  0
LINE
  5
75C
  8
0
  6
CONTINUOUS
 62
     7
 10
277.0
 20
46.0
 30
0.0
 11
318.0
 21
46.0
 31
0.0
  0
LINE
  5
75D
  8
0
  6
CONTINUOUS
 62
     7
 10
359.0
 20
46.0
 30
0.0
 11
410.0
 21
46.0
 31
0.0
  0
LINE
  5
75E
  8
0
  6
CONTINUOUS
 62
     7
 10
359.0
 20
41.0
 30
0.0
 11
410.0
 21
41.0
 31
0.0
  0
LINE
  5
75F
  8
0
  6
CONTINUOUS
 62
     7
 10
277.0
 20
36.0
 30
0.0
 11
410.0
 21
36.0
 31
0.0
  0
LINE
  5
760
  8
0
  6
CONTINUOUS
 62
     7
 10
359.0
 20
28.0
 30
0.0
 11
410.0
 21
28.0
 31
0.0
  0
LINE
  5
761
  8
0
  6
CONTINUOUS
 62
     7
 10
277.0
 20
19.0
 30
0.0
 11
410.0
 21
19.0
 31
0.0
  0
LINE
  5
762
  8
0
  6
CONTINUOUS
 62
     7
 10
277.0
 20
10.0
 30
0.0
 11
410.0
 21
10.0
 31
0.0
  0
LINE
  5
763
  8
0
  6
CONTINUOUS
 62
     7
 10
318.0
 20
56.0
 30
0.0
 11
318.0
 21
36.0
 31
0.0
  0
LINE
  5
764
  8
0
  6
CONTINUOUS
 62
     7
 10
341.0
 20
56.0
 30
0.0
 11
341.0
 21
36.0
 31
0.0
  0
LINE
  5
765
  8
0
  6
CONTINUOUS
 62
     7
 10
359.0
 20
56.0
 30
0.0
 11
359.0
 21
10.0
 31
0.0
  0
LINE
  5
766
  8
0
  6
CONTINUOUS
 62
     7
 10
378.0
 20
56.0
 30
0.0
 11
378.0
 21
36.0
 31
0.0
  0
LINE
  5
767
  8
0
  6
CONTINUOUS
 62
     7
 10
393.0
 20
56.0
 30
0.0
 11
393.0
 21
19.0
 31
0.0
  0
LINE
  5
768
  8
0
  6
CONTINUOUS
 62
     7
 10
410.0
 20
56.0
 30
0.0
 11
410.0
 21
10.0
 31
0.0
  0
TEXT
  5
769
  8
0
  6
CONTINUOUS
 62
     5
 10
277.0625
 20
51.465874
 30
0.0
 40
1.8
  1
 Allgemeintoleranzen
 41
0.683333
 51
15.0
  0
TEXT
  5
76A
  8
0
  6
CONTINUOUS
 62
     5
 10
277.0625
 20
48.670629
 30
0.0
 40
1.8
  1
 ISO 2768-m
 41
0.779221
 51
15.0
  0
TEXT
  5
76B
  8
0
  6
CONTINUOUS
 62
     5
 10
322.928571
 20
52.464724
 30
0.0
 40
2.0
  1
Werkstoff
 41
0.730159
 51
15.0
 72
     1
 11
329.5
 21
52.464724
 31
0.0
  0
TEXT
  5
76C
  8
0
  6
CONTINUOUS
 62
     5
 10
344.603175
 20
52.464724
 30
0.0
 40
2.0
  1
Massstab:
 41
0.674603
 51
15.0
 72
     1
 11
350.0
 21
52.464724
 31
0.0
  0
TEXT
  5
76D
  8
0
  6
CONTINUOUS
 62
     5
 10
381.922222
 20
52.464724
 30
0.0
 40
2.0
  1
Datum
 41
0.766667
 51
15.0
 72
     1
 11
385.5
 21
52.464724
 31
0.0
  0
TEXT
  5
76E
  8
0
  6
CONTINUOUS
 62
     5
 10
398.619048
 20
52.464724
 30
0.0
 40
2.0
  1
Name
 41
0.785714
 51
15.0
 72
     1
 11
401.5
 21
52.464724
 31
0.0
  0
TEXT
  5
76F
  8
0
  6
CONTINUOUS
 62
     5
 10
359.0625
 20
47.464724
 30
0.0
 40
2.0
  1
 Gezeichnet
 41
0.690476
 51
15.0
  0
TEXT
  5
770
  8
0
  6
CONTINUOUS
 62
     5
 10
381.553571
 20
47.464724
 30
0.0
 40
2.0
  1
16.07.03
 41
0.696429
 51
15.0
 72
     1
 11
385.5
 21
47.464724
 31
0.0
  0
TEXT
  5
771
  8
0
  6
CONTINUOUS
 62
     5
 10
396.911817
 20
47.464724
 30
0.0
 40
2.0
  1
Mijatovic
 41
0.640212
 51
15.0
 72
     1
 11
401.5
 21
47.464724
 31
0.0
  0
TEXT
  5
772
  8
0
  6
CONTINUOUS
 62
     5
 10
277.0625
 20
41.465874
 30
0.0
 40
1.8
  1
 Zeichnung urheberrechtlich
 41
0.679012
 51
15.0
  0
TEXT
  5
773
  8
0
  6
CONTINUOUS
 62
     5
 10
277.0625
 20
38.670629
 30
0.0
 40
1.8
  1
 geschuetzt (DIN 34) (C)
 41
0.679563
 51
15.0
  0
TEXT
  5
774
  8
0
  6
CONTINUOUS
 62
     5
 10
329.02381
 20
42.464724
 30
0.0
 40
2.0
  1
-
 41
0.714286
 51
15.0
 72
     1
 11
329.5
 21
42.464724
 31
0.0
  0
TEXT
  5
775
  8
0
  6
CONTINUOUS
 62
     5
 10
348.333333
 20
42.298408
 30
0.0
 40
3.5
  1
2:1
 41
0.571429
 51
15.0
 72
     1
 11
350.0
 21
42.298408
 31
0.0
  0
TEXT
  5
776
  8
0
  6
CONTINUOUS
 62
     5
 10
359.0625
 20
42.464724
 30
0.0
 40
2.0
  1
 Freigegeben
 41
0.698413
 51
15.0
  0
TEXT
  5
777
  8
0
  6
CONTINUOUS
 62
     5
 10
385.02381
 20
42.464724
 30
0.0
 40
2.0
  1
-
 41
0.714286
 51
15.0
 72
     1
 11
385.5
 21
42.464724
 31
0.0
  0
TEXT
  5
778
  8
0
  6
CONTINUOUS
 62
     5
 10
401.02381
 20
42.464724
 30
0.0
 40
2.0
  1
-
 41
0.714286
 51
15.0
 72
     1
 11
401.5
 21
42.464724
 31
0.0
  0
TEXT
  5
779
  8
0
  6
CONTINUOUS
 62
     5
 10
329.02381
 20
37.464724
 30
0.0
 40
2.0
  1
-
 41
0.714286
 51
15.0
 72
     1
 11
329.5
 21
37.464724
 31
0.0
  0
TEXT
  5
77A
  8
0
  6
CONTINUOUS
 62
     5
 10
347.857143
 20
37.464724
 30
0.0
 40
2.0
  1
(
 41
0.428571
 72
     1
 11
348.0
 21
37.464724
 31
0.0
  0
TEXT
  5
77B
  8
0
  6
CONTINUOUS
 62
     5
 10
348.690476
 20
37.464724
 30
0.0
 40
2.0
  1
A3
 41
0.785714
 51
15.0
 72
     1
 11
350.0
 21
37.464724
 31
0.0
  0
TEXT
  5
77C
  8
0
  6
CONTINUOUS
 62
     5
 10
351.857143
 20
37.464724
 30
0.0
 40
2.0
  1
)
 41
0.428571
 72
     1
 11
352.0
 21
37.464724
 31
0.0
  0
TEXT
  5
77D
  8
0
  6
CONTINUOUS
 62
     5
 10
359.0625
 20
37.464724
 30
0.0
 40
2.0
  1
 Geaendert
 41
0.707143
 51
15.0
  0
TEXT
  5
77E
  8
0
  6
CONTINUOUS
 62
     5
 10
385.02381
 20
37.464724
 30
0.0
 40
2.0
  1
-
 41
0.714286
 51
15.0
 72
     1
 11
385.5
 21
37.464724
 31
0.0
  0
TEXT
  5
77F
  8
0
  6
CONTINUOUS
 62
     5
 10
401.02381
 20
37.464724
 30
0.0
 40
2.0
  1
-
 41
0.714286
 51
15.0
 72
     1
 11
401.5
 21
37.464724
 31
0.0
  0
TEXT
  5
780
  8
0
  6
CONTINUOUS
 62
     5
 10
277.0625
 20
33.078125
 30
0.0
 40
2.0
  1
 Benennung
 41
0.728571
 51
15.0
  0
TEXT
  5
781
  8
0
  6
CONTINUOUS
 62
     5
 10
359.0625
 20
33.035276
 30
0.0
 40
2.0
  1
 Aend.-Nr.
 41
0.707143
 51
15.0
  0
TEXT
  5
782
  8
0
  6
CONTINUOUS
 62
     5
 10
359.0625
 20
28.894171
 30
0.0
 40
2.0
  1
 
 41
0.785714
 51
15.0
  0
TEXT
  5
783
  8
0
  6
CONTINUOUS
 62
     5
 10
360.633929
 20
28.894171
 30
0.0
 40
2.0
  1
-
 41
0.714286
 51
15.0
  0
TEXT
  5
784
  8
0
  6
CONTINUOUS
 62
     5
 10
394.658009
 20
31.223543
 30
0.0
 40
2.0
  1
Aend.-Index
 41
0.707792
 51
15.0
 72
     1
 11
401.5
 21
31.223543
 31
0.0
  0
TEXT
  5
785
  8
0
  6
CONTINUOUS
 62
     5
 10
303.131313
 20
28.688267
 30
0.0
 40
3.5
  1
NA2F-D_B-TX
 41
0.796537
 51
15.0
 72
     1
 11
318.0
 21
28.688267
 31
0.0
  0
TEXT
  5
786
  8
0
  6
CONTINUOUS
 62
     5
 10
299.939594
 20
20.91181
 30
0.0
 40
5.0
  1
NA2F-D-TX
 41
0.798942
 51
15.0
 72
     1
 11
317.25
 21
20.91181
 31
0.0
  0
TEXT
  5
787
  8
0
  6
CONTINUOUS
 62
     5
 10
359.0625
 20
22.464724
 30
0.0
 40
2.0
  1
 Ersatz fuer:
 41
0.664835
 51
15.0
  0
TEXT
  5
788
  8
0
  6
CONTINUOUS
 62
     5
 10
397.327381
 20
24.535276
 30
0.0
 40
2.0
  1
Blatt 
 41
0.654762
 51
15.0
 72
     1
 11
400.928571
 21
24.535276
 31
0.0
  0
TEXT
  5
789
  8
0
  6
CONTINUOUS
 62
     5
 10
405.238095
 20
24.535276
 30
0.0
 40
2.0
  1
1
 41
0.571429
 51
15.0
 72
     1
 11
405.428571
 21
24.535276
 31
0.0
  0
TEXT
  5
78A
  8
0
  6
CONTINUOUS
 62
     5
 10
395.357143
 20
20.394171
 30
0.0
 40
2.0
  1
von 
 41
0.732143
 51
15.0
 72
     1
 11
398.285714
 21
20.394171
 31
0.0
  0
TEXT
  5
78B
  8
0
  6
CONTINUOUS
 62
     5
 10
401.595238
 20
20.394171
 30
0.0
 40
2.0
  1
1
 41
0.571429
 51
15.0
 72
     1
 11
401.785714
 21
20.394171
 31
0.0
  0
TEXT
  5
78C
  8
0
  6
CONTINUOUS
 62
     5
 10
402.6875
 20
20.394171
 30
0.0
 40
2.0
  1
 Bl.
 41
0.660714
 51
15.0
 72
     1
 11
405.0
 21
20.394171
 31
0.0
  0
TEXT
  5
78D
  8
0
  6
CONTINUOUS
 62
     5
 10
359.0625
 20
16.464724
 30
0.0
 40
2.0
  1
 Zeichn. Nr.
 41
0.686508
 51
15.0
  0
TEXT
  5
78E
  8
0
  6
CONTINUOUS
 62
     5
 10
369.255787
 20
11.188267
 30
0.0
 40
3.5
  1
ST-NA2F-D-TX
 41
0.795635
 51
15.0
 72
     1
 11
385.5
 21
11.188267
 31
0.0
  0
TEXT
  5
78F
  8
0
  6
CONTINUOUS
 62
     5
 10
354.285656
 20
78.649377
 30
0.0
 40
3.5
  1
1
 41
0.571429
  0
TEXT
  5
790
  8
0
  6
CONTINUOUS
 62
     5
 10
354.285656
 20
84.649377
 30
0.0
 40
3.5
  1
2
 41
0.785714
  0
TEXT
  5
791
  8
0
  6
CONTINUOUS
 62
     5
 10
354.285656
 20
92.649377
 30
0.0
 40
3.5
  1
3
 41
0.714286
  0
TEXT
  5
792
  8
0
  6
CONTINUOUS
 62
     5
 10
344.314134
 20
77.644502
 30
0.0
 40
3.5
  1
XLR-F
 50
90.0
 41
0.742857
  0
LINE
  5
793
  8
0
  6
CONTINUOUS
 62
     5
 10
395.327538
 20
82.314868
 30
0.0
 11
400.535881
 21
82.314868
 31
0.0
  0
LINE
  5
794
  8
0
  6
CONTINUOUS
 62
     5
 10
397.931722
 20
82.314868
 30
0.0
 11
397.931722
 21
86.169029
 31
0.0
  0
TEXT
  5
795
  8
0
  6
CONTINUOUS
 62
     5
 10
396.388049
 20
94.930905
 30
0.0
 40
6.999999
  1
~
 41
0.785714
  0
TEXT
  5
796
  8
0
  6
CONTINUOUS
 62
     5
 10
354.285656
 20
71.649377
 30
0.0
 40
3.5
  1
G
 41
0.785714
  0
TEXT
  5
797
  8
0
  6
CONTINUOUS
 62
     5
 10
381.67913
 20
98.237951
 30
0.0
 40
2.0
  1
rd
 41
0.678571
  0
TEXT
  5
798
  8
0
  6
CONTINUOUS
 62
     5
 10
381.82723
 20
82.322654
 30
0.0
 40
2.0
  1
bk
 41
0.714286
  0
TEXT
  5
799
  8
0
  6
CONTINUOUS
 62
     5
 10
372.305991
 20
82.369906
 30
0.0
 40
2.0
  1
wh
 41
0.857143
  0
TEXT
  5
79A
  8
0
  6
CONTINUOUS
 62
     5
 10
372.263493
 20
98.338117
 30
0.0
 40
2.0
  1
ye
 41
0.666667
  0
TEXT
  5
79B
  8
0
  6
CONTINUOUS
 62
     5
 10
272.659392
 20
130.160009
 30
0.0
 40
3.5
  1
ORDERING NUMBERS:
 41
0.754902
 51
15.0
  0
TEXT
  5
79C
  8
0
  6
CONTINUOUS
 62
     5
 10
272.659392
 20
124.724809
 30
0.0
 40
3.5
  1
 
 41
0.785714
 51
15.0
  0
TEXT
  5
79D
  8
0
  6
CONTINUOUS
 62
     5
 10
272.659392
 20
119.289609
 30
0.0
 40
3.5
  1
16-NA2F-D2B-TX (colour-coded red) 
 41
0.713585
 51
15.0
  0
TEXT
  5
79E
  8
0
  6
CONTINUOUS
 62
     5
 10
272.659392
 20
113.854409
 30
0.0
 40
3.5
  1
16-NA2F-D0B-TX (colour-coded black)
 41
0.705442
 51
15.0
  0
TEXT
  5
7A8
  8
ZEICHNUNGSBEMAßUNGEN
  6
CONTINUOUS
 62
     5
 10
196.688539
 20
173.685715
 30
0.0
 40
3.5
  1
74,4
 41
0.732143
 51
15.0
  0
TEXT
  5
7A9
  8
ZEICHNUNGSBEMAßUNGEN
  6
CONTINUOUS
 62
     5
 10
209.008304
 20
173.685715
 30
0.0
 40
3.5
  1
2.929
 41
0.742857
 51
15.0
  0
TEXT
  5
7AA
  8
ZEICHNUNGSBEMAßUNGEN
  6
CONTINUOUS
 62
     5
 10
206.880397
 20
173.685715
 30
0.0
 40
3.5
  1
[
 41
0.428571
 51
15.0
  0
TEXT
  5
7AB
  8
ZEICHNUNGSBEMAßUNGEN
  6
CONTINUOUS
 62
     5
 10
220.752489
 20
173.685715
 30
0.0
 40
3.5
  1
]
 41
0.428571
 51
15.0
  0
LINE
  5
7AC
  8
ZEICHNUNGSBEMAßUNGEN
  6
CONTINUOUS
 62
     2
 10
134.301684
 20
190.658586
 30
0.0
 11
134.301684
 21
170.861423
 31
0.0
  0
LINE
  5
7AD
  8
ZEICHNUNGSBEMAßUNGEN
  6
CONTINUOUS
 62
     2
 10
283.101684
 20
191.077012
 30
0.0
 11
283.101684
 21
170.861423
 31
0.0
  0
LINE
  5
7AE
  8
ZEICHNUNGSBEMAßUNGEN
  6
CONTINUOUS
 62
     2
 10
134.301684
 20
172.361423
 30
0.0
 11
208.701684
 21
172.361423
 31
0.0
  0
LINE
  5
7AF
  8
ZEICHNUNGSBEMAßUNGEN
  6
CONTINUOUS
 62
     2
 10
283.101684
 20
172.361423
 30
0.0
 11
208.701684
 21
172.361423
 31
0.0
  0
INSERT
  5
7B0
  8
ZEICHNUNGSBEMAßUNGEN
  6
CONTINUOUS
 62
     2
  2
_FILLED
 10
134.301684
 20
172.361423
 30
0.0
 41
3.5
 42
3.5
 43
3.5
 50
180.0
  0
INSERT
  5
7B1
  8
ZEICHNUNGSBEMAßUNGEN
  6
CONTINUOUS
 62
     2
  2
_FILLED
 10
283.101684
 20
172.361423
 30
0.0
 41
3.5
 42
3.5
 43
3.5
  0
TEXT
  5
7B2
  8
ZEICHNUNGSBEMAßUNGEN
  6
CONTINUOUS
 62
     5
 10
47.200286
 20
208.41963
 30
0.0
 40
3.5
  1
31
 50
90.0
 41
0.642857
 51
15.0
  0
TEXT
  5
7B3
  8
ZEICHNUNGSBEMAßUNGEN
  6
CONTINUOUS
 62
     5
 10
47.200286
 20
216.873567
 30
0.0
 40
3.5
  1
1.220
 50
90.0
 41
0.7
 51
15.0
  0
TEXT
  5
7B4
  8
ZEICHNUNGSBEMAßUNGEN
  6
CONTINUOUS
 62
     5
 10
47.200286
 20
214.327504
 30
0.0
 40
3.5
  1
[
 50
90.0
 41
0.428571
 51
15.0
  0
TEXT
  5
7B5
  8
ZEICHNUNGSBEMAßUNGEN
  6
CONTINUOUS
 62
     5
 10
47.200286
 20
227.031442
 30
0.0
 40
3.5
  1
]
 50
90.0
 41
0.428571
 51
15.0
  0
LINE
  5
7B6
  8
ZEICHNUNGSBEMAßUNGEN
  6
CONTINUOUS
 62
     2
 10
61.594797
 20
187.28151
 30
0.0
 11
59.501772
 21
187.28151
 31
0.0
  0
LINE
  5
7B7
  8
ZEICHNUNGSBEMAßUNGEN
  6
CONTINUOUS
 62
     2
 10
60.338982
 20
249.28151
 30
0.0
 11
47.024758
 21
249.28151
 31
0.0
  0
LINE
  5
7B8
  8
ZEICHNUNGSBEMAßUNGEN
  6
CONTINUOUS
 62
     2
 10
48.524758
 20
187.28151
 30
0.0
 11
48.524758
 21
218.28151
 31
0.0
  0
LINE
  5
7B9
  8
ZEICHNUNGSBEMAßUNGEN
  6
CONTINUOUS
 62
     2
 10
48.524758
 20
249.28151
 30
0.0
 11
48.524758
 21
218.28151
 31
0.0
  0
INSERT
  5
7BA
  8
ZEICHNUNGSBEMAßUNGEN
  6
CONTINUOUS
 62
     2
  2
_FILLED
 10
48.524758
 20
187.28151
 30
0.0
 41
3.5
 42
3.5
 43
3.5
 50
270.0
  0
INSERT
  5
7BB
  8
ZEICHNUNGSBEMAßUNGEN
  6
CONTINUOUS
 62
     2
  2
_FILLED
 10
48.524758
 20
249.28151
 30
0.0
 41
3.5
 42
3.5
 43
3.5
 50
90.0
  0
TEXT
  5
7BC
  8
ZEICHNUNGSBEMAßUNGEN
  6
CONTINUOUS
 62
     5
 10
74.148304
 20
173.154312
 30
0.0
 40
3.5
  1
26
 41
0.785714
 51
15.0
  0
TEXT
  5
7BD
  8
ZEICHNUNGSBEMAßUNGEN
  6
CONTINUOUS
 62
     5
 10
84.648304
 20
173.154312
 30
0.0
 40
3.5
  1
1.024
 41
0.7
 51
15.0
  0
TEXT
  5
7BE
  8
ZEICHNUNGSBEMAßUNGEN
  6
CONTINUOUS
 62
     5
 10
82.520397
 20
173.154312
 30
0.0
 40
3.5
  1
[
 41
0.428571
 51
15.0
  0
TEXT
  5
7BF
  8
ZEICHNUNGSBEMAßUNGEN
  6
CONTINUOUS
 62
     5
 10
94.386674
 20
173.154312
 30
0.0
 40
3.5
  1
]
 41
0.428571
 51
15.0
  0
LINE
  5
7C0
  8
ZEICHNUNGSBEMAßUNGEN
  6
CONTINUOUS
 62
     2
 10
58.539384
 20
190.240161
 30
0.0
 11
58.539384
 21
170.33002
 31
0.0
  0
LINE
  5
7C1
  8
ZEICHNUNGSBEMAßUNGEN
  6
CONTINUOUS
 62
     2
 10
110.539384
 20
187.729611
 30
0.0
 11
110.539384
 21
170.33002
 31
0.0
  0
LINE
  5
7C2
  8
ZEICHNUNGSBEMAßUNGEN
  6
CONTINUOUS
 62
     2
 10
58.539384
 20
171.83002
 30
0.0
 11
84.539384
 21
171.83002
 31
0.0
  0
LINE
  5
7C3
  8
ZEICHNUNGSBEMAßUNGEN
  6
CONTINUOUS
 62
     2
 10
110.539384
 20
171.83002
 30
0.0
 11
84.539384
 21
171.83002
 31
0.0
  0
INSERT
  5
7C4
  8
ZEICHNUNGSBEMAßUNGEN
  6
CONTINUOUS
 62
     2
  2
_FILLED
 10
58.539384
 20
171.83002
 30
0.0
 41
3.5
 42
3.5
 43
3.5
 50
180.0
  0
INSERT
  5
7C5
  8
ZEICHNUNGSBEMAßUNGEN
  6
CONTINUOUS
 62
     2
  2
_FILLED
 10
110.539384
 20
171.83002
 30
0.0
 41
3.5
 42
3.5
 43
3.5
  0
LINE
  5
7C6
  8
ZEICHNUNGSBEMAßUNGEN
  6
CONTINUOUS
 62
     2
 10
57.199444
 20
187.28151
 30
0.0
 11
47.024758
 21
187.28151
 31
0.0
  0
LINE
  5
7C7
  8
0
  6
CONTINUOUS
 62
     7
 10
269.103003
 20
233.78151
 30
0.0
 11
264.079743
 21
233.78151
 31
0.0
  0
LINE
  5
7C8
  8
0
  6
CONTINUOUS
 62
     7
 10
262.405323
 20
233.78151
 30
0.0
 11
143.701684
 21
233.78151
 31
0.0
  0
LINE
  5
7C9
  8
0
  6
CONTINUOUS
 62
     7
 10
149.381966
 20
232.78151
 30
0.0
 11
143.701684
 21
232.78151
 31
0.0
  0
LINE
  5
7CA
  8
0
  6
CONTINUOUS
 62
     7
 10
155.661041
 20
232.78151
 30
0.0
 11
151.056386
 21
232.78151
 31
0.0
  0
LINE
  5
7CF
  8
0
  6
CONTINUOUS
 62
     7
 10
266.591373
 20
203.28151
 30
0.0
 11
262.19602
 21
203.28151
 31
0.0
  0
LINE
  5
7D0
  8
0
  6
CONTINUOUS
 62
     7
 10
269.940213
 20
203.28151
 30
0.0
 11
273.701684
 21
203.28151
 31
0.0
  0
LINE
  5
7D1
  8
0
  6
CONTINUOUS
 62
     7
 10
269.103003
 20
203.28151
 30
0.0
 11
273.701684
 21
203.28151
 31
0.0
  0
LINE
  5
7D2
  8
0
  6
CONTINUOUS
 62
     7
 10
261.986718
 20
203.28151
 30
0.0
 11
266.800676
 21
203.28151
 31
0.0
  0
LINE
  5
7D3
  8
0
  6
CONTINUOUS
 62
     7
 10
259.265785
 20
203.28151
 30
0.0
 11
143.701684
 21
203.28151
 31
0.0
  0
ENDSEC
  0
EOF
